  0
SECTION
  2
HEADER
  9
$ACADVER
  1
AC1009
  9
$INSBASE
 10
0
 20
0
 30
0
  9
$EXTMIN
 10
0
 20
0
  9
$EXTMAX
 10
841
 20
594
  9
$LIMMIN
 10
0
 20
0
  9
$LIMMAX
 10
841
 20
594
  9
$LTSCALE
 40
1
  0
ENDSEC
  0
SECTION
  2
TABLES
  0
TABLE
  2
LTYPE
 70
     9
  0
LTYPE
  2
CONTINUOUS
 70
    64
  3
実線
 72
    65
 73
     0
 40
0.0
  0
LTYPE
  2
DASHED1
 70
    64
  3
--  --  --  --  --  --  --  --  
 72
    65
 73
     2
 40
2.5
 49
1.25
 49
-1.25
  0
LTYPE
  2
DASHED2
 70
    64
  3
----    ----    ----    ----    
 72
    65
 73
     2
 40
5.0
 49
2.5
 49
-2.5
  0
LTYPE
  2
DASHED3
 70
    64
  3
------  ------  ------  ------  
 72
    65
 73
     2
 40
5.0
 49
3.75
 49
-1.25
  0
LTYPE
  2
CENTER1
 70
    64
  3
----- - ----- - ----- - ----- - 
 72
    65
 73
     4
 40
10.0
 49
6.25
 49
-1.25
 49
1.25
 49
-1.25
  0
LTYPE
  2
CENTER2
 70
    64
  3
----------  --  ----------  --  
 72
    65
 73
     4
 40
20.0
 49
12.5
 49
-2.5
 49
2.5
 49
-2.5
  0
LTYPE
  2
PHANTOM1
 70
    64
  3
--- - - --- - - --- - - --- - - 
 72
    65
 73
     6
 40
10.0
 49
3.25
 49
-1.25
 49
1.25
 49
-1.25
 49
1.25
 49
-1.25
  0
LTYPE
  2
PHANTOM2
 70
    64
  3
--------  -  -  --------  -  -  
 72
    65
 73
     6
 40
20.0
 49
10.0
 49
-2.5
 49
1.25
 49
-2.5
 49
1.25
 49
-2.5
  0
LTYPE
  2
DOT
 70
    64
  3
-   -   -   -   -   -   -   -   
 72
    65
 73
     2
 40
2.5
 49
0.625
 49
-1.875
  0
LTYPE
  2
DUMMY
 70
    64
  3
ダミー
 72
    65
 73
     0
 40
0.0
  0
LTYPE
  2
RAND1
 70
    64
  3
ランダム線1
 72
    65
 73
     4
 40
10.0
 49
1.0
 49
-2.0
 49
3.0
 49
-4.0
  0
LTYPE
  2
RAND2
 70
    64
  3
ランダム線2
 72
    65
 73
     4
 40
14.0
 49
2.0
 49
-3.0
 49
4.0
 49
-5.0
  0
LTYPE
  2
RAND3
 70
    64
  3
ランダム線3
 72
    65
 73
     4
 40
18.0
 49
3.0
 49
-4.0
 49
5.0
 49
-6.0
  0
LTYPE
  2
RAND4
 70
    64
  3
ランダム線4
 72
    65
 73
     4
 40
22.0
 49
4.0
 49
-5.0
 49
6.0
 49
-7.0
  0
LTYPE
  2
RAND5
 70
    64
  3
ランダム線5
 72
    65
 73
     4
 40
26.0
 49
5.0
 49
-6.0
 49
7.0
 49
-8.0
  0
LTYPE
  2
LONG1
 70
    64
  3
----------  --  ----------  --  
 72
    65
 73
     4
 40
40.0
 49
32.5
 49
-2.5
 49
2.5
 49
-2.5
  0
LTYPE
  2
LONG2
 70
    64
  3
--------  -  -  --------  -  -  
 72
    65
 73
     6
 40
40.0
 49
30.0
 49
-2.5
 49
1.25
 49
-2.5
 49
1.25
 49
-2.5
  0
LTYPE
  2
LONG3
 70
    64
  3
+++++++++++++++..+++++++++++++++
 72
    65
 73
     2
 40
40.0
 49
37.5
 49
-2.5
  0
LTYPE
  2
LONG4
 70
    64
  3
+++++++++++++++..+++++++++++++++
 72
    65
 73
     2
 40
80.0
 49
75.0
 49
-5.0
  0
LTYPE
  2
LONG5
 70
    64
  3
----------  --  ----------  --  
 72
    65
 73
     4
 40
60.0
 49
37.5
 49
-7.5
 49
7.5
 49
-7.5
  0
LTYPE
  2
dashed
 70
   64
  3
-------   -------------   ------
 72
   65
 73
    2
 40
7.5
 49
6
 49
-1.5
  0
LTYPE
  2
dashed_spaced
 70
   64
  3
----        --------        ----
 72
   65
 73
    2
 40
12
 49
6
 49
-6
  0
LTYPE
  2
long_dashed_dotted
 70
   64
  3
------------- --- --------------
 72
   65
 73
    4
 40
15.25
 49
12
 49
-1.5
 49
0.25
 49
-1.5
  0
LTYPE
  2
long_dashed_double-dotted
 70
   64
  3
----------- --- --- ------------
 72
   65
 73
    6
 40
17
 49
12
 49
-1.5
 49
0.25
 49
-1.5
 49
0.25
 49
-1.5
  0
LTYPE
  2
long_dashed_triplicate-dotted
 70
   64
  3
--------- --- --- --- ----------
 72
   65
 73
    8
 40
18.75
 49
12
 49
-1.5
 49
0.25
 49
-1.5
 49
0.25
 49
-1.5
 49
0.25
 49
-1.5
  0
LTYPE
  2
dotted
 70
   64
  3
   -       -       -       -    
 72
   65
 73
    2
 40
1.75
 49
0.25
 49
-1.5
  0
LTYPE
  2
chain
 70
   64
  3
-------------- -- --------------
 72
   65
 73
    4
 40
18.5
 49
12
 49
-1.5
 49
3.5
 49
-1.5
  0
LTYPE
  2
chain_double_dash
 70
   64
  3
------------ -- -- -------------
 72
   65
 73
    6
 40
23.5
 49
12
 49
-1.5
 49
3.5
 49
-1.5
 49
3.5
 49
-1.5
  0
LTYPE
  2
dashed_dotted
 70
   64
  3
-----------     -     ----------
 72
   65
 73
    4
 40
9.25
 49
6
 49
-1.5
 49
0.25
 49
-1.5
  0
LTYPE
  2
double-dashed_dotted
 70
   64
  3
------   -----------   -   -----
 72
   65
 73
    6
 40
16.75
 49
6
 49
-1.5
 49
6
 49
-1.5
 49
0.25
 49
-1.5
  0
LTYPE
  2
dashed_double-dotted
 70
   64
  3
---------    -    -    ---------
 72
   65
 73
    6
 40
11
 49
6
 49
-1.5
 49
0.25
 49
-1.5
 49
0.25
 49
-1.5
  0
LTYPE
  2
double-dashed_double-dotted
 70
   64
  3
-----   ---------   -   -   ----
 72
   65
 73
    8
 40
18.5
 49
6
 49
-1.5
 49
6
 49
-1.5
 49
0.25
 49
-1.5
 49
0.25
 49
-1.5
  0
LTYPE
  2
dashed_triplicate-dotted
 70
   64
  3
-------    -    -    -    ------
 72
   65
 73
    8
 40
12.75
 49
6
 49
-1.5
 49
0.25
 49
-1.5
 49
0.25
 49
-1.5
 49
0.25
 49
-1.5
  0
LTYPE
  2
double-dashed_triplicate-dotted
 70
   64
  3
-----  ---------  -  -  -  -----
 72
   65
 73
   10
 40
20.25
 49
6
 49
-1.5
 49
6
 49
-1.5
 49
0.25
 49
-1.5
 49
0.25
 49
-1.5
 49
0.25
 49
-1.5
  0
LTYPE
  2
undefined
 70
   64
  3
--------------------------------
 72
   65
 73
    0
 40
0
  0
LTYPE
  2
CENTER2_17
 70
   64
  3
----------    ----    ----------
 72
   65
 73
    4
 40
28.574999999999996
 49
19.050000000000001
 49
-3.1749999999999989
 49
3.1749999999999989
 49
-3.1749999999999989
  0
LTYPE
  2
DASHED2_18
 70
   64
  3
------     -----------     -----
 72
   65
 73
    2
 40
9.5249999999999986
 49
6.3499999999999988
 49
-3.1749999999999989
  0
LTYPE
  2
DIVIDE2
 70
   64
  3
------      -      -      ------
 72
   65
 73
    6
 40
15.894999999999996
 49
6.3499999999999988
 49
-3.1749999999999989
 49
0.01
 49
-3.1749999999999989
 49
0.01
 49
-3.1749999999999989
  0
LTYPE
  2
DOT2
 70
   64
  3
-               -               
 72
   65
 73
    2
 40
3.1849999999999987
 49
0.01
 49
-3.1749999999999989
  0
LTYPE
  2
C5
 70
   64
  3
-------------  --  -------------
 72
   65
 73
    4
 40
16.640000000000001
 49
12.800000000000001
 49
-1.28
 49
1.28
 49
-1.28
  0
LTYPE
  2
PHANTOM
 70
   64
  3
---------   ---   ---   --------
 72
   65
 73
    6
 40
12.699999999999996
 49
6.349999999999997
 49
-1.27
 49
1.27
 49
-1.27
 49
1.27
 49
-1.27
  0
ENDTAB
  0
TABLE
  2
STYLE
  5
3
100
AcDbSymbolTable
 70
     1
  0
STYLE
  5
10
100
AcDbSymbolTableRecord
100
AcDbTextStyleTableRecord
  2
STANDARD
 70
     0
 40
0.0
 41
1.0
 50
0.0
 71
     0
 42
0.2
  3
txt
  4
bigfont.shx
  0
STYLE
  5
26
100
AcDbSymbolTableRecord
100
AcDbTextStyleTableRecord
  2
TATEGAKI
 70
    68
 40
0.0
 41
1.0
 50
0.0
 71
     0
 42
1.0
  3
txt
  4
bigfont.shx
  0
ENDTAB
  0
TABLE
  2
LAYER
 70
   13
  0
LAYER
  2
_0-0_0
 70
   64
 62
    7
  6
CONTINUOUS
  0
LAYER
  2
_0-1_01
 70
   64
 62
    7
  6
CONTINUOUS
  0
LAYER
  2
_0-2_02
 70
   64
 62
    7
  6
CONTINUOUS
  0
LAYER
  2
_0-3_03
 70
   64
 62
    7
  6
CONTINUOUS
  0
LAYER
  2
_0-4_04
 70
   64
 62
    7
  6
CONTINUOUS
  0
LAYER
  2
_0-8_S
 70
   64
 62
    7
  6
CONTINUOUS
  0
LAYER
  2
_0-9_T
 70
   64
 62
    7
  6
CONTINUOUS
  0
LAYER
  2
_0-a_W
 70
   64
 62
    7
  6
CONTINUOUS
  0
LAYER
  2
_1-2_4
 70
   64
 62
    7
  6
CONTINUOUS
  0
LAYER
  2
_1-3_5
 70
   64
 62
    7
  6
CONTINUOUS
  0
LAYER
  2
_1-4_2
 70
   64
 62
    7
  6
CONTINUOUS
  0
LAYER
  2
_1-5_6
 70
   64
 62
    7
  6
CONTINUOUS
  0
LAYER
  2
ADD_LINE
 70
   64
 62
    7
  6
CONTINUOUS
  0
ENDTAB
  0
ENDSEC
  0
SECTION
  2
BLOCKS
  0
BLOCK
  2
-000-_D1
 70
   64
 10
0
 20
0
 30
0
  0
LINE
  8
_0-8_S
  6
CONTINUOUS
 62
    6
 10
117.6774827262329
 20
209.5042727362939
 11
145
 21
209.5042727362939
  0
LINE
  8
_0-8_S
  6
CONTINUOUS
 62
    6
 10
119.1774827262329
 20
195.00427273629381
 11
145
 21
195.00427273629381
  0
LINE
  8
_0-8_S
  6
CONTINUOUS
 62
    6
 10
144
 20
206.50427273629381
 11
144
 21
198.00427273629381
  0
SOLID
  8
_0-8_S
  6
CONTINUOUS
 62
    6
 10
143.5
 20
206.50427273629381
 11
144.5
 21
206.50427273629381
 12
144
 22
209.5042727362939
 13
144
 23
209.5042727362939
  0
SOLID
  8
_0-8_S
  6
CONTINUOUS
 62
    6
 10
143.5
 20
198.00427273629381
 11
144.5
 21
198.00427273629381
 12
144
 22
195.00427273629381
 13
144
 23
195.00427273629381
  0
TEXT
  8
_0-8_S
 62
    7
 10
143.49999999999989
 20
199.2542727362939
 40
3
 41
1
 50
90
  1
14.5
  0
POINT
  8
_1-7__0-b_Defpoints
 62
    7
 10
116.6774827262329
 20
209.5042727362939
  0
POINT
  8
_1-7__0-b_Defpoints
 62
    7
 10
118.1774827262329
 20
195.00427273629381
  0
POINT
  8
_1-7__0-b_Defpoints
 62
    7
 10
144
 20
195.00427273629381
  0
ENDBLK
  0
BLOCK
  2
-001-_D2
 70
   64
 10
0
 20
0
 30
0
  0
LINE
  8
_0-8_S
  6
CONTINUOUS
 62
    6
 10
98.677482726232952
 20
184.00427273629381
 11
145
 21
184.00427273629381
  0
LINE
  8
_0-8_S
  6
CONTINUOUS
 62
    6
 10
117.6774827262329
 20
195.00427273629381
 11
145
 21
195.00427273629381
  0
LINE
  8
_0-8_S
  6
CONTINUOUS
 62
    6
 10
143.99999999999989
 20
187.00427273629381
 11
144
 21
192.00427273629381
  0
SOLID
  8
_0-8_S
  6
CONTINUOUS
 62
    6
 10
143.5
 20
187.00427273629381
 11
144.5
 21
187.00427273629381
 12
143.99999999999989
 22
184.00427273629381
 13
143.99999999999989
 23
184.00427273629381
  0
SOLID
  8
_0-8_S
  6
CONTINUOUS
 62
    6
 10
143.5
 20
192.00427273629381
 11
144.5
 21
192.00427273629381
 12
144
 22
195.00427273629381
 13
144
 23
195.00427273629381
  0
TEXT
  8
_0-8_S
 62
    7
 10
143.49999999999989
 20
188.00427273629381
 40
3
 41
1
 50
90
  1
11
  0
POINT
  8
_1-7__0-b_Defpoints
 62
    7
 10
97.677482726232924
 20
184.00427273629381
  0
POINT
  8
_1-7__0-b_Defpoints
 62
    7
 10
116.6774827262329
 20
195.00427273629381
  0
POINT
  8
_1-7__0-b_Defpoints
 62
    7
 10
144
 20
195.00427273629381
  0
ENDBLK
  0
BLOCK
  2
-002-_D3
 70
   64
 10
0
 20
0
 30
0
  0
LINE
  8
_0-8_S
  6
CONTINUOUS
 62
    6
 10
257.86694028937291
 20
336.49369845956932
 11
248
 21
336.49369845956932
  0
LINE
  8
_0-8_S
  6
CONTINUOUS
 62
    6
 10
257.86694028937291
 20
339.09369845956923
 11
248
 21
339.09369845956923
  0
LINE
  8
_0-8_S
  6
CONTINUOUS
 62
    6
 10
249
 20
333.49369845956932
 11
249
 21
330.49369845956932
  0
LINE
  8
_0-8_S
  6
CONTINUOUS
 62
    6
 10
249
 20
342.09369845956923
 11
249
 21
352.63915300502367
  0
LINE
  8
_0-8_S
  6
CONTINUOUS
 62
    6
 10
249
 20
336.49369845956932
 11
249
 21
339.09369845956923
  0
SOLID
  8
_0-8_S
  6
CONTINUOUS
 62
    6
 10
248.5
 20
333.49369845956932
 11
249.5
 21
333.49369845956932
 12
249
 22
336.49369845956932
 13
249
 23
336.49369845956932
  0
SOLID
  8
_0-8_S
  6
CONTINUOUS
 62
    6
 10
248.5
 20
342.09369845956923
 11
249.5
 21
342.09369845956923
 12
249
 22
339.09369845956923
 13
249
 23
339.09369845956923
  0
TEXT
  8
_0-8_S
 62
    7
 10
248.49999999999989
 20
345.86642573229648
 40
3
 41
1
 50
90
  1
t2.6
  0
POINT
  8
_1-7__0-b_Defpoints
 62
    7
 10
258.86694028937291
 20
336.49369845956932
  0
POINT
  8
_1-7__0-b_Defpoints
 62
    7
 10
258.86694028937291
 20
339.09369845956923
  0
POINT
  8
_1-7__0-b_Defpoints
 62
    7
 10
249
 20
339.09369845956923
  0
ENDBLK
  0
BLOCK
  2
-003-_D4
 70
   64
 10
0
 20
0
 30
0
  0
LINE
  8
_0-8_S
  6
CONTINUOUS
 62
    6
 10
257.86694028937291
 20
336.49369845956932
 11
248
 21
336.49369845956932
  0
LINE
  8
_0-8_S
  6
CONTINUOUS
 62
    6
 10
273.86694028937291
 20
315.49369845956932
 11
248
 21
315.49369845956932
  0
LINE
  8
_0-8_S
  6
CONTINUOUS
 62
    6
 10
249
 20
333.49369845956932
 11
249
 21
318.4936984595692
  0
SOLID
  8
_0-8_S
  6
CONTINUOUS
 62
    6
 10
248.5
 20
333.49369845956932
 11
249.5
 21
333.49369845956932
 12
249
 22
336.49369845956932
 13
249
 23
336.49369845956932
  0
SOLID
  8
_0-8_S
  6
CONTINUOUS
 62
    6
 10
248.5
 20
318.4936984595692
 11
249.5
 21
318.4936984595692
 12
249
 22
315.49369845956932
 13
249
 23
315.49369845956932
  0
TEXT
  8
_0-8_S
 62
    7
 10
248.5
 20
324.49369845956932
 40
3
 41
1
 50
90
  1
21
  0
POINT
  8
_1-7__0-b_Defpoints
 62
    7
 10
258.86694028937291
 20
336.49369845956932
  0
POINT
  8
_1-7__0-b_Defpoints
 62
    7
 10
274.86694028937291
 20
315.49369845956932
  0
POINT
  8
_1-7__0-b_Defpoints
 62
    7
 10
249
 20
315.49369845956932
  0
ENDBLK
  0
BLOCK
  2
-004-_D5
 70
   64
 10
0
 20
0
 30
0
  0
LINE
  8
_0-8_S
  6
CONTINUOUS
 62
    6
 10
269.86694028937291
 20
340.04369845956899
 11
242
 21
340.04369845956899
  0
LINE
  8
_0-8_S
  6
CONTINUOUS
 62
    6
 10
273.86694028937291
 20
315.49369845956932
 11
242
 21
315.49369845956932
  0
LINE
  8
_0-8_S
  6
CONTINUOUS
 62
    6
 10
243
 20
337.04369845956899
 11
243
 21
318.4936984595692
  0
SOLID
  8
_0-8_S
  6
CONTINUOUS
 62
    6
 10
242.5
 20
337.04369845956899
 11
243.5
 21
337.04369845956899
 12
243
 22
340.04369845956899
 13
243
 23
340.04369845956899
  0
SOLID
  8
_0-8_S
  6
CONTINUOUS
 62
    6
 10
242.5
 20
318.4936984595692
 11
243.5
 21
318.4936984595692
 12
243
 22
315.49369845956932
 13
243
 23
315.49369845956932
  0
TEXT
  8
_0-8_S
 62
    7
 10
242.5
 20
324.76869845956918
 40
3
 41
1
 50
90
  1
24.5
  0
POINT
  8
_1-7__0-b_Defpoints
 62
    7
 10
270.86694028937291
 20
340.04369845956899
  0
POINT
  8
_1-7__0-b_Defpoints
 62
    7
 10
274.86694028937291
 20
315.49369845956932
  0
POINT
  8
_1-7__0-b_Defpoints
 62
    7
 10
243
 20
315.49369845956932
  0
ENDBLK
  0
BLOCK
  2
-005-_D6
 70
   64
 10
0
 20
0
 30
0
  0
LINE
  8
_0-8_S
  6
CONTINUOUS
 62
    6
 10
277.86694028937291
 20
347.31737147886003
 11
277.86694028937291
 21
364
  0
LINE
  8
_0-8_S
  6
CONTINUOUS
 62
    6
 10
270.86694028937291
 20
341.04369845956899
 11
270.86694028937291
 21
364
  0
LINE
  8
_0-8_S
  6
CONTINUOUS
 62
    6
 10
280.86694028937291
 20
363
 11
283.86694028937291
 21
363
  0
LINE
  8
_0-8_S
  6
CONTINUOUS
 62
    6
 10
267.86694028937291
 20
363
 11
264.86694028937291
 21
363
  0
LINE
  8
_0-8_S
  6
CONTINUOUS
 62
    6
 10
277.86694028937291
 20
363
 11
270.86694028937291
 21
363
  0
SOLID
  8
_0-8_S
  6
CONTINUOUS
 62
    6
 10
280.86694028937291
 20
363.5
 11
280.86694028937291
 21
362.5
 12
277.86694028937291
 22
363
 13
277.86694028937291
 23
363
  0
SOLID
  8
_0-8_S
  6
CONTINUOUS
 62
    6
 10
267.86694028937291
 20
363.5
 11
267.86694028937291
 21
362.5
 12
270.86694028937291
 22
363
 13
270.86694028937291
 23
363
  0
TEXT
  8
_0-8_S
 62
    7
 10
273.61694028937291
 20
363.5
 40
3
 41
1
 50
0
  1
7
  0
POINT
  8
_1-7__0-b_Defpoints
 62
    7
 10
277.86694028937291
 20
346.31737147886003
  0
POINT
  8
_1-7__0-b_Defpoints
 62
    7
 10
270.86694028937291
 20
340.04369845956899
  0
POINT
  8
_1-7__0-b_Defpoints
 62
    7
 10
270.86694028937291
 20
363
  0
ENDBLK
  0
BLOCK
  2
-006-_D7
 70
   64
 10
0
 20
0
 30
0
  0
LINE
  8
_0-8_S
  6
CONTINUOUS
 62
    6
 10
199.48310401167601
 20
180.00427273629381
 11
199.48310401167601
 21
167
  0
LINE
  8
_0-8_S
  6
CONTINUOUS
 62
    6
 10
204.48310401167601
 20
180.60571209981521
 11
204.48310401167601
 21
167
  0
LINE
  8
_0-8_S
  6
CONTINUOUS
 62
    6
 10
196.48310401167601
 20
168
 11
193.48310401167601
 21
168
  0
LINE
  8
_0-8_S
  6
CONTINUOUS
 62
    6
 10
207.48310401167601
 20
168
 11
210.48310401167601
 21
168
  0
LINE
  8
_0-8_S
  6
CONTINUOUS
 62
    6
 10
199.48310401167601
 20
168
 11
204.48310401167601
 21
168
  0
SOLID
  8
_0-8_S
  6
CONTINUOUS
 62
    6
 10
196.48310401167601
 20
168.5
 11
196.48310401167601
 21
167.5
 12
199.48310401167601
 22
168
 13
199.48310401167601
 23
168
  0
SOLID
  8
_0-8_S
  6
CONTINUOUS
 62
    6
 10
207.48310401167601
 20
168.5
 11
207.48310401167601
 21
167.5
 12
204.48310401167601
 22
168
 13
204.48310401167601
 23
168
  0
TEXT
  8
_0-8_S
 62
    7
 10
201.23310401167601
 20
168.5
 40
3
 41
1
 50
0
  1
5
  0
POINT
  8
_1-7__0-b_Defpoints
 62
    7
 10
199.48310401167601
 20
181.00427273629381
  0
POINT
  8
_1-7__0-b_Defpoints
 62
    7
 10
204.48310401167601
 20
181.60571209981521
  0
POINT
  8
_1-7__0-b_Defpoints
 62
    7
 10
204.48310401167601
 20
168
  0
ENDBLK
  0
BLOCK
  2
-007-_D8
 70
   64
 10
0
 20
0
 30
0
  0
LINE
  8
_0-8_S
  6
CONTINUOUS
 62
    6
 10
163.98310401167601
 20
262.50427349625301
 11
155
 21
262.50427349625301
  0
LINE
  8
_0-8_S
  6
CONTINUOUS
 62
    6
 10
163.98310401167601
 20
251.00427349625309
 11
155
 21
251.00427349625309
  0
LINE
  8
_0-8_S
  6
CONTINUOUS
 62
    6
 10
156
 20
259.50427349625312
 11
156
 21
254.00427349625301
  0
SOLID
  8
_0-8_S
  6
CONTINUOUS
 62
    6
 10
155.5
 20
259.50427349625312
 11
156.5
 21
259.50427349625312
 12
156
 22
262.50427349625301
 13
156
 23
262.50427349625301
  0
SOLID
  8
_0-8_S
  6
CONTINUOUS
 62
    6
 10
155.5
 20
254.00427349625301
 11
156.5
 21
254.00427349625301
 12
156
 22
251.00427349625309
 13
156
 23
251.00427349625309
  0
TEXT
  8
_0-8_S
 62
    7
 10
155.5
 20
253.75427349625312
 40
3
 41
1
 50
90
  1
11.5
  0
POINT
  8
_1-7__0-b_Defpoints
 62
    7
 10
164.98310401167601
 20
262.50427349625301
  0
POINT
  8
_1-7__0-b_Defpoints
 62
    7
 10
164.98310401167601
 20
251.00427349625309
  0
POINT
  8
_1-7__0-b_Defpoints
 62
    7
 10
156
 20
251.00427349625309
  0
ENDBLK
  0
BLOCK
  2
-008-_D9
 70
   64
 10
0
 20
0
 30
0
  0
LINE
  8
_0-8_S
  6
CONTINUOUS
 62
    6
 10
199.48310401167601
 20
262.00427273629379
 11
199.48310401167601
 21
277
  0
LINE
  8
_0-8_S
  6
CONTINUOUS
 62
    6
 10
210.48310401167601
 20
239.00427273629381
 11
210.48310401167601
 21
277
  0
LINE
  8
_0-8_S
  6
CONTINUOUS
 62
    6
 10
202.48310401167601
 20
276
 11
207.48310401167601
 21
276
  0
SOLID
  8
_0-8_S
  6
CONTINUOUS
 62
    6
 10
202.48310401167601
 20
276.5
 11
202.48310401167601
 21
275.5
 12
199.48310401167601
 22
276
 13
199.48310401167601
 23
276
  0
SOLID
  8
_0-8_S
  6
CONTINUOUS
 62
    6
 10
207.48310401167601
 20
276.5
 11
207.48310401167601
 21
275.5
 12
210.48310401167601
 22
276
 13
210.48310401167601
 23
276
  0
TEXT
  8
_0-8_S
 62
    7
 10
203.48310401167601
 20
276.5
 40
3
 41
1
 50
0
  1
11
  0
POINT
  8
_1-7__0-b_Defpoints
 62
    7
 10
199.48310401167601
 20
261.00427273629379
  0
POINT
  8
_1-7__0-b_Defpoints
 62
    7
 10
210.48310401167601
 20
238.00427273629381
  0
POINT
  8
_1-7__0-b_Defpoints
 62
    7
 10
210.48310401167601
 20
276
  0
ENDBLK
  0
BLOCK
  2
-009-_D10
 70
   64
 10
0
 20
0
 30
0
  0
LINE
  8
_0-8_S
  6
CONTINUOUS
 62
    6
 10
166.23310401167601
 20
260.75427273629379
 11
166.23310401167601
 21
271
  0
LINE
  8
_0-8_S
  6
CONTINUOUS
 62
    6
 10
180.73310401167601
 20
260.75427273629288
 11
180.73310401167601
 21
271
  0
LINE
  8
_0-8_S
  6
CONTINUOUS
 62
    6
 10
169.23310401167601
 20
270
 11
177.73310401167601
 21
270
  0
SOLID
  8
_0-8_S
  6
CONTINUOUS
 62
    6
 10
169.23310401167601
 20
270.5
 11
169.23310401167601
 21
269.5
 12
166.23310401167601
 22
270
 13
166.23310401167601
 23
270
  0
SOLID
  8
_0-8_S
  6
CONTINUOUS
 62
    6
 10
177.73310401167601
 20
270.5
 11
177.73310401167601
 21
269.5
 12
180.73310401167601
 22
270
 13
180.73310401167601
 23
270
  0
TEXT
  8
_0-8_S
 62
    7
 10
170.48310401167601
 20
270.5
 40
3
 41
1
 50
0
  1
14.5
  0
POINT
  8
_1-7__0-b_Defpoints
 62
    7
 10
166.23310401167601
 20
259.7542727362939
  0
POINT
  8
_1-7__0-b_Defpoints
 62
    7
 10
180.73310401167601
 20
259.75427273629288
  0
POINT
  8
_1-7__0-b_Defpoints
 62
    7
 10
180.73310401167601
 20
270
  0
ENDBLK
  0
BLOCK
  2
-010-_D11
 70
   64
 10
0
 20
0
 30
0
  0
LINE
  8
_0-8_S
  6
CONTINUOUS
 62
    6
 10
49.677482726232931
 20
184.00427273629381
 11
29
 21
184.00427273629381
  0
LINE
  8
_0-8_S
  6
CONTINUOUS
 62
    6
 10
46.677482726232938
 20
181.00427273629381
 11
29
 21
181.00427273629381
  0
LINE
  8
_0-8_S
  6
CONTINUOUS
 62
    6
 10
30
 20
187.00427273629381
 11
30
 21
190.00427273629381
  0
LINE
  8
_0-8_S
  6
CONTINUOUS
 62
    6
 10
30
 20
178.00427273629381
 11
30
 21
175.00427273629381
  0
LINE
  8
_0-8_S
  6
CONTINUOUS
 62
    6
 10
30
 20
184.00427273629381
 11
30
 21
181.00427273629381
  0
SOLID
  8
_0-8_S
  6
CONTINUOUS
 62
    6
 10
29.500000000000011
 20
187.00427273629381
 11
30.500000000000011
 21
187.00427273629381
 12
30
 22
184.00427273629381
 13
30
 23
184.00427273629381
  0
SOLID
  8
_0-8_S
  6
CONTINUOUS
 62
    6
 10
29.5
 20
178.00427273629381
 11
30.5
 21
178.00427273629381
 12
30
 22
181.00427273629381
 13
30
 23
181.00427273629381
  0
TEXT
  8
_0-8_S
 62
    7
 10
29.499999999999972
 20
181.75427273629381
 40
3
 41
1
 50
90
  1
3
  0
POINT
  8
_1-7__0-b_Defpoints
 62
    7
 10
50.677482726232938
 20
184.00427273629381
  0
POINT
  8
_1-7__0-b_Defpoints
 62
    7
 10
47.677482726232931
 20
181.00427273629381
  0
POINT
  8
_1-7__0-b_Defpoints
 62
    7
 10
30
 20
181.00427273629381
  0
ENDBLK
  0
BLOCK
  2
-011-_D12
 70
   64
 10
0
 20
0
 30
0
  0
LINE
  8
_0-8_S
  6
CONTINUOUS
 62
    6
 10
46.677482726232938
 20
261.00427273629379
 11
29
 21
261.00427273629379
  0
LINE
  8
_0-8_S
  6
CONTINUOUS
 62
    6
 10
49.677482726232931
 20
258.00427273629379
 11
29
 21
258.00427273629379
  0
LINE
  8
_0-8_S
  6
CONTINUOUS
 62
    6
 10
30
 20
264.00427273629379
 11
30
 21
267.00427273629379
  0
LINE
  8
_0-8_S
  6
CONTINUOUS
 62
    6
 10
30
 20
255.0042727362939
 11
30
 21
252.00427273629381
  0
LINE
  8
_0-8_S
  6
CONTINUOUS
 62
    6
 10
30
 20
261.00427273629379
 11
30
 21
258.00427273629379
  0
SOLID
  8
_0-8_S
  6
CONTINUOUS
 62
    6
 10
29.500000000000011
 20
264.00427273629379
 11
30.500000000000011
 21
264.00427273629379
 12
30
 22
261.00427273629379
 13
30
 23
261.00427273629379
  0
SOLID
  8
_0-8_S
  6
CONTINUOUS
 62
    6
 10
29.5
 20
255.0042727362939
 11
30.5
 21
255.0042727362939
 12
30
 22
258.00427273629379
 13
30
 23
258.00427273629379
  0
TEXT
  8
_0-8_S
 62
    7
 10
29.499999999999961
 20
258.7542727362939
 40
3
 41
1
 50
90
  1
3
  0
POINT
  8
_1-7__0-b_Defpoints
 62
    7
 10
47.677482726232931
 20
261.00427273629379
  0
POINT
  8
_1-7__0-b_Defpoints
 62
    7
 10
50.677482726232938
 20
258.00427273629379
  0
POINT
  8
_1-7__0-b_Defpoints
 62
    7
 10
30
 20
258.00427273629379
  0
ENDBLK
  0
BLOCK
  2
-012-_D13
 70
   64
 10
0
 20
0
 30
0
  0
LINE
  8
_0-8_S
  6
CONTINUOUS
 62
    6
 10
49.677482726232931
 20
258.00427273629379
 11
29.000000000000021
 21
258.00427273629379
  0
LINE
  8
_0-8_S
  6
CONTINUOUS
 62
    6
 10
49.677482726232931
 20
184.00427273629381
 11
29
 21
184.00427273629381
  0
LINE
  8
_0-8_S
  6
CONTINUOUS
 62
    6
 10
30.000000000000021
 20
255.0042727362939
 11
30
 21
187.00427273629381
  0
SOLID
  8
_0-8_S
  6
CONTINUOUS
 62
    6
 10
29.500000000000011
 20
255.0042727362939
 11
30.500000000000021
 21
255.0042727362939
 12
30.000000000000021
 22
258.00427273629379
 13
30.000000000000021
 23
258.00427273629379
  0
SOLID
  8
_0-8_S
  6
CONTINUOUS
 62
    6
 10
29.5
 20
187.00427273629381
 11
30.5
 21
187.00427273629381
 12
30
 22
184.00427273629381
 13
30
 23
184.00427273629381
  0
TEXT
  8
_0-8_S
 62
    7
 10
29.499999999999972
 20
219.50427273629381
 40
3
 41
1
 50
90
  1
74
  0
POINT
  8
_1-7__0-b_Defpoints
 62
    7
 10
50.677482726232938
 20
258.00427273629379
  0
POINT
  8
_1-7__0-b_Defpoints
 62
    7
 10
50.677482726232938
 20
184.00427273629381
  0
POINT
  8
_1-7__0-b_Defpoints
 62
    7
 10
30
 20
184.00427273629381
  0
ENDBLK
  0
BLOCK
  2
-013-_D14
 70
   64
 10
0
 20
0
 30
0
  0
LINE
  8
_0-8_S
  6
CONTINUOUS
 62
    6
 10
100.6774827262329
 20
254.25427273629381
 11
100.6774827262329
 21
277
  0
LINE
  8
_0-8_S
  6
CONTINUOUS
 62
    6
 10
103.6774827262329
 20
254.25427273629381
 11
103.6774827262329
 21
277
  0
LINE
  8
_0-8_S
  6
CONTINUOUS
 62
    6
 10
97.677482726232924
 20
276
 11
94.677482726232938
 21
276
  0
LINE
  8
_0-8_S
  6
CONTINUOUS
 62
    6
 10
106.6774827262329
 20
276
 11
109.6774827262329
 21
276
  0
LINE
  8
_0-8_S
  6
CONTINUOUS
 62
    6
 10
100.6774827262329
 20
276
 11
103.6774827262329
 21
276
  0
SOLID
  8
_0-8_S
  6
CONTINUOUS
 62
    6
 10
97.677482726232924
 20
276.5
 11
97.677482726232924
 21
275.5
 12
100.6774827262329
 22
276
 13
100.6774827262329
 23
276
  0
SOLID
  8
_0-8_S
  6
CONTINUOUS
 62
    6
 10
106.6774827262329
 20
276.5
 11
106.6774827262329
 21
275.5
 12
103.6774827262329
 22
276
 13
103.6774827262329
 23
276
  0
TEXT
  8
_0-8_S
 62
    7
 10
101.4274827262329
 20
276.5
 40
3
 41
1
 50
0
  1
3
  0
POINT
  8
_1-7__0-b_Defpoints
 62
    7
 10
100.6774827262329
 20
253.2542727362939
  0
POINT
  8
_1-7__0-b_Defpoints
 62
    7
 10
103.6774827262329
 20
253.2542727362939
  0
POINT
  8
_1-7__0-b_Defpoints
 62
    7
 10
103.6774827262329
 20
276
  0
ENDBLK
  0
BLOCK
  2
-014-_D15
 70
   64
 10
0
 20
0
 30
0
  0
LINE
  8
_0-8_S
  6
CONTINUOUS
 62
    6
 10
47.677482726232931
 20
258.50427273629379
 11
47.677482726232931
 21
277
  0
LINE
  8
_0-8_S
  6
CONTINUOUS
 62
    6
 10
44.677482726232931
 20
259.00427273629379
 11
44.677482726232931
 21
277
  0
LINE
  8
_0-8_S
  6
CONTINUOUS
 62
    6
 10
50.677482726232938
 20
276
 11
53.677482726232938
 21
276
  0
LINE
  8
_0-8_S
  6
CONTINUOUS
 62
    6
 10
41.677482726232938
 20
276
 11
38.677482726232938
 21
276
  0
LINE
  8
_0-8_S
  6
CONTINUOUS
 62
    6
 10
47.677482726232931
 20
276
 11
44.677482726232931
 21
276
  0
SOLID
  8
_0-8_S
  6
CONTINUOUS
 62
    6
 10
50.677482726232938
 20
276.5
 11
50.677482726232938
 21
275.5
 12
47.677482726232931
 22
276
 13
47.677482726232931
 23
276
  0
SOLID
  8
_0-8_S
  6
CONTINUOUS
 62
    6
 10
41.677482726232938
 20
276.5
 11
41.677482726232938
 21
275.5
 12
44.677482726232931
 22
276
 13
44.677482726232931
 23
276
  0
TEXT
  8
_0-8_S
 62
    7
 10
45.427482726232938
 20
276.5
 40
3
 41
1
 50
0
  1
3
  0
POINT
  8
_1-7__0-b_Defpoints
 62
    7
 10
47.677482726232931
 20
257.5042727362939
  0
POINT
  8
_1-7__0-b_Defpoints
 62
    7
 10
44.677482726232931
 20
258.00427273629379
  0
POINT
  8
_1-7__0-b_Defpoints
 62
    7
 10
44.677482726232931
 20
276
  0
ENDBLK
  0
BLOCK
  2
-015-_D16
 70
   64
 10
0
 20
0
 30
0
  0
LINE
  8
_0-8_S
  6
CONTINUOUS
 62
    6
 10
47.677482726232931
 20
258.50427273629379
 11
47.677482726232931
 21
277
  0
LINE
  8
_0-8_S
  6
CONTINUOUS
 62
    6
 10
100.6774827262329
 20
254.25427273629381
 11
100.6774827262329
 21
277
  0
LINE
  8
_0-8_S
  6
CONTINUOUS
 62
    6
 10
50.677482726232938
 20
276
 11
97.677482726232924
 21
276
  0
SOLID
  8
_0-8_S
  6
CONTINUOUS
 62
    6
 10
50.677482726232938
 20
276.5
 11
50.677482726232938
 21
275.5
 12
47.677482726232931
 22
276
 13
47.677482726232931
 23
276
  0
SOLID
  8
_0-8_S
  6
CONTINUOUS
 62
    6
 10
97.677482726232924
 20
276.5
 11
97.677482726232924
 21
275.5
 12
100.6774827262329
 22
276
 13
100.6774827262329
 23
276
  0
TEXT
  8
_0-8_S
 62
    7
 10
72.677482726232938
 20
276.5
 40
3
 41
1
 50
0
  1
53
  0
POINT
  8
_1-7__0-b_Defpoints
 62
    7
 10
47.677482726232931
 20
257.5042727362939
  0
POINT
  8
_1-7__0-b_Defpoints
 62
    7
 10
100.6774827262329
 20
253.2542727362939
  0
POINT
  8
_1-7__0-b_Defpoints
 62
    7
 10
100.6774827262329
 20
276
  0
ENDBLK
  0
BLOCK
  2
-017-_D18
 70
   64
 10
0
 20
0
 30
0
  0
LINE
  8
_0-8_S
  6
CONTINUOUS
 62
    6
 10
331.86694028937382
 20
261.00427273629379
 11
352
 21
261.00427273629379
  0
LINE
  8
_0-8_S
  6
CONTINUOUS
 62
    6
 10
331.86694028937382
 20
181.00427273629381
 11
352
 21
181.00427273629381
  0
LINE
  8
_0-8_S
  6
CONTINUOUS
 62
    6
 10
351
 20
258.00427273629379
 11
351
 21
184.00427273629381
  0
SOLID
  8
_0-8_S
  6
CONTINUOUS
 62
    6
 10
350.5
 20
258.00427273629379
 11
351.5
 21
258.00427273629379
 12
351
 22
261.00427273629379
 13
351
 23
261.00427273629379
  0
SOLID
  8
_0-8_S
  6
CONTINUOUS
 62
    6
 10
350.5
 20
184.00427273629381
 11
351.5
 21
184.00427273629381
 12
351
 22
181.00427273629381
 13
351
 23
181.00427273629381
  0
TEXT
  8
_0-8_S
 62
    7
 10
350.49999999999989
 20
219.5042727362939
 40
3
 41
1
 50
90
  1
80
  0
POINT
  8
_1-7__0-b_Defpoints
 62
    7
 10
330.86694028937382
 20
261.00427273629379
  0
POINT
  8
_1-7__0-b_Defpoints
 62
    7
 10
330.86694028937382
 20
181.00427273629381
  0
POINT
  8
_1-7__0-b_Defpoints
 62
    7
 10
351
 20
181.00427273629381
  0
ENDBLK
  0
BLOCK
  2
-018-_D19
 70
   64
 10
0
 20
0
 30
0
  0
LINE
  8
_0-8_S
  6
CONTINUOUS
 62
    6
 10
329.36693942510601
 20
258.00427106736379
 11
346
 21
258.00427106736379
  0
LINE
  8
_0-8_S
  6
CONTINUOUS
 62
    6
 10
329.36693942510601
 20
218.00427196143389
 11
346
 21
218.00427196143389
  0
LINE
  8
_0-8_S
  6
CONTINUOUS
 62
    6
 10
345
 20
255.00427106736379
 11
345
 21
221.00427196143389
  0
SOLID
  8
_0-8_S
  6
CONTINUOUS
 62
    6
 10
344.5
 20
255.00427106736379
 11
345.5
 21
255.00427106736379
 12
345
 22
258.00427106736379
 13
345
 23
258.00427106736379
  0
SOLID
  8
_0-8_S
  6
CONTINUOUS
 62
    6
 10
344.5
 20
221.00427196143389
 11
345.5
 21
221.00427196143389
 12
345
 22
218.00427196143389
 13
345
 23
218.00427196143389
  0
TEXT
  8
_0-8_S
 62
    7
 10
344.5
 20
236.50427151439891
 40
3
 41
1
 50
90
  1
40
  0
POINT
  8
_1-7__0-b_Defpoints
 62
    7
 10
328.36693942510601
 20
258.00427106736379
  0
POINT
  8
_1-7__0-b_Defpoints
 62
    7
 10
328.36693942510601
 20
218.00427196143389
  0
POINT
  8
_1-7__0-b_Defpoints
 62
    7
 10
345
 20
218.00427196143389
  0
ENDBLK
  0
BLOCK
  2
-019-_D20
 70
   64
 10
0
 20
0
 30
0
  0
LINE
  8
_0-8_S
  6
CONTINUOUS
 62
    6
 10
274.86694028937291
 20
259.00427273629379
 11
274.86694028937291
 21
277
  0
LINE
  8
_0-8_S
  6
CONTINUOUS
 62
    6
 10
333.86694028937342
 20
259.00427273629379
 11
333.86694028937342
 21
277
  0
LINE
  8
_0-8_S
  6
CONTINUOUS
 62
    6
 10
277.86694028937291
 20
276
 11
330.86694028937342
 21
276
  0
SOLID
  8
_0-8_S
  6
CONTINUOUS
 62
    6
 10
277.86694028937291
 20
276.5
 11
277.86694028937291
 21
275.5
 12
274.86694028937291
 22
276
 13
274.86694028937291
 23
276
  0
SOLID
  8
_0-8_S
  6
CONTINUOUS
 62
    6
 10
330.86694028937342
 20
276.5
 11
330.86694028937342
 21
275.5
 12
333.86694028937342
 22
276
 13
333.86694028937342
 23
276
  0
TEXT
  8
_0-8_S
 62
    7
 10
302.86694028937308
 20
276.5
 40
3
 41
1
 50
0
  1
59
  0
POINT
  8
_1-7__0-b_Defpoints
 62
    7
 10
274.86694028937291
 20
258.00427273629379
  0
POINT
  8
_1-7__0-b_Defpoints
 62
    7
 10
333.86694028937342
 20
258.00427273629379
  0
POINT
  8
_1-7__0-b_Defpoints
 62
    7
 10
333.86694028937342
 20
276
  0
ENDBLK
  0
BLOCK
  2
-020-_D21
 70
   64
 10
0
 20
0
 30
0
  0
LINE
  8
_0-8_S
  6
CONTINUOUS
 62
    6
 10
277.36694037878118
 20
255.53116057036601
 11
277.36694037878118
 21
271
  0
LINE
  8
_0-8_S
  6
CONTINUOUS
 62
    6
 10
331.36694177948903
 20
255.53116057036601
 11
331.36694177948903
 21
271
  0
LINE
  8
_0-8_S
  6
CONTINUOUS
 62
    6
 10
280.36694037878118
 20
270
 11
328.36694177948903
 21
270
  0
SOLID
  8
_0-8_S
  6
CONTINUOUS
 62
    6
 10
280.36694037878118
 20
270.5
 11
280.36694037878118
 21
269.5
 12
277.36694037878118
 22
270
 13
277.36694037878118
 23
270
  0
SOLID
  8
_0-8_S
  6
CONTINUOUS
 62
    6
 10
328.36694177948903
 20
270.5
 11
328.36694177948903
 21
269.5
 12
331.36694177948903
 22
270
 13
331.36694177948903
 23
270
  0
TEXT
  8
_0-8_S
 62
    7
 10
302.86694107913519
 20
270.5
 40
3
 41
1
 50
0
  1
54
  0
POINT
  8
_1-7__0-b_Defpoints
 62
    7
 10
277.36694037878118
 20
254.5311605703659
  0
POINT
  8
_1-7__0-b_Defpoints
 62
    7
 10
331.36694177948903
 20
254.5311605703659
  0
POINT
  8
_1-7__0-b_Defpoints
 62
    7
 10
331.36694177948903
 20
270
  0
ENDBLK
  0
BLOCK
  2
-021-_D22
 70
   64
 10
0
 20
0
 30
0
  0
LINE
  8
_0-8_S
  6
CONTINUOUS
 62
    6
 10
163.98310401167601
 20
262.50427273629379
 11
163.98310401167601
 21
277
  0
LINE
  8
_0-8_S
  6
CONTINUOUS
 62
    6
 10
199.48310401167601
 20
262.00427273629379
 11
199.48310401167601
 21
277
  0
LINE
  8
_0-8_S
  6
CONTINUOUS
 62
    6
 10
166.98310401167601
 20
276
 11
196.48310401167601
 21
276
  0
SOLID
  8
_0-8_S
  6
CONTINUOUS
 62
    6
 10
166.98310401167601
 20
276.5
 11
166.98310401167601
 21
275.5
 12
163.98310401167601
 22
276
 13
163.98310401167601
 23
276
  0
SOLID
  8
_0-8_S
  6
CONTINUOUS
 62
    6
 10
196.48310401167601
 20
276.5
 11
196.48310401167601
 21
275.5
 12
199.48310401167601
 22
276
 13
199.48310401167601
 23
276
  0
TEXT
  8
_0-8_S
 62
    7
 10
178.73310401167601
 20
276.5
 40
3
 41
1
 50
0
  1
35.5
  0
POINT
  8
_1-7__0-b_Defpoints
 62
    7
 10
163.98310401167601
 20
261.5042727362939
  0
POINT
  8
_1-7__0-b_Defpoints
 62
    7
 10
199.48310401167601
 20
261.00427273629379
  0
POINT
  8
_1-7__0-b_Defpoints
 62
    7
 10
199.48310401167601
 20
276
  0
ENDBLK
  0
BLOCK
  2
-022-_D23
 70
   64
 10
0
 20
0
 30
0
  0
LINE
  8
_0-8_S
  6
CONTINUOUS
 62
    6
 10
199.48310401167601
 20
180.00427273629381
 11
199.48310401167601
 21
161
  0
LINE
  8
_0-8_S
  6
CONTINUOUS
 62
    6
 10
217.48310401167601
 20
191.68975600031581
 11
217.48310401167601
 21
161
  0
LINE
  8
_0-8_S
  6
CONTINUOUS
 62
    6
 10
202.48310401167601
 20
162
 11
214.48310401167601
 21
162
  0
SOLID
  8
_0-8_S
  6
CONTINUOUS
 62
    6
 10
202.48310401167601
 20
162.5
 11
202.48310401167601
 21
161.5
 12
199.48310401167601
 22
162
 13
199.48310401167601
 23
162
  0
SOLID
  8
_0-8_S
  6
CONTINUOUS
 62
    6
 10
214.48310401167601
 20
162.5
 11
214.48310401167601
 21
161.5
 12
217.48310401167601
 22
162
 13
217.48310401167601
 23
162
  0
TEXT
  8
_0-8_S
 62
    7
 10
206.98310401167601
 20
162.5
 40
3
 41
1
 50
0
  1
18
  0
POINT
  8
_1-7__0-b_Defpoints
 62
    7
 10
199.48310401167601
 20
181.00427273629381
  0
POINT
  8
_1-7__0-b_Defpoints
 62
    7
 10
217.48310401167601
 20
192.68975600031581
  0
POINT
  8
_1-7__0-b_Defpoints
 62
    7
 10
217.48310401167601
 20
162
  0
ENDBLK
  0
BLOCK
  2
-023-_D24
 70
   64
 10
0
 20
0
 30
0
  0
LINE
  8
_0-8_S
  6
CONTINUOUS
 62
    6
 10
283.12545627587332
 20
196.38370555540629
 11
259.45567373767801
 21
174.3267280520146
  0
LINE
  8
_0-8_S
  6
CONTINUOUS
 62
    6
 10
289.93484771438051
 20
189.07641177310421
 11
266.26506517618532
 21
167.01943426971241
  0
LINE
  8
_0-8_S
  6
CONTINUOUS
 62
    6
 10
262.23249420779098
 20
172.81369531054409
 11
264.95142844497718
 21
169.89595274495659
  0
SOLID
  8
_0-8_S
  6
CONTINUOUS
 62
    6
 10
262.59829014251721
 20
173.15456674398749
 11
261.8666982730648
 21
172.47282387710069
 12
260.18726560713048
 22
175.00847091890139
 13
260.18726560713048
 23
175.00847091890139
  0
SOLID
  8
_0-8_S
  6
CONTINUOUS
 62
    6
 10
265.31722437970342
 20
170.23682417840001
 11
264.585632510251
 21
169.55508131151319
 12
266.99665704563768
 22
167.70117713659931
 13
266.99665704563768
 23
167.70117713659931
  0
TEXT
  8
_0-8_S
 62
    7
 10
262.93514296078013
 20
172.79308326537239
 40
3
 41
1
 50
-47.020012611269649
  1
10
  0
POINT
  8
_1-7__0-b_Defpoints
 62
    7
 10
283.85704814532562
 20
197.0654484222932
  0
POINT
  8
_1-7__0-b_Defpoints
 62
    7
 10
290.66643958383293
 20
189.75815463999101
  0
POINT
  8
_1-7__0-b_Defpoints
 62
    7
 10
266.99665704563768
 20
167.70117713659931
  0
ENDBLK
  0
BLOCK
  2
-024-_D25
 70
   64
 10
0
 20
0
 30
0
  0
LINE
  8
_0-8_S
  6
CONTINUOUS
 62
    6
 10
100.6774827262329
 20
186.03015961803379
 11
100.6774827262329
 21
155.00000000001029
  0
LINE
  8
_0-8_S
  6
CONTINUOUS
 62
    6
 10
119.6774827262329
 20
197.00427273629381
 11
119.6774827262329
 21
155.00000000001029
  0
LINE
  8
_0-8_S
  6
CONTINUOUS
 62
    6
 10
103.6774827262329
 20
156.00000000001029
 11
116.6774827262329
 21
156.00000000001029
  0
SOLID
  8
_0-8_S
  6
CONTINUOUS
 62
    6
 10
103.6774827262329
 20
156.50000000001029
 11
103.6774827262329
 21
155.50000000001029
 12
100.6774827262329
 22
156.00000000001029
 13
100.6774827262329
 23
156.00000000001029
  0
SOLID
  8
_0-8_S
  6
CONTINUOUS
 62
    6
 10
116.6774827262329
 20
156.50000000001029
 11
116.6774827262329
 21
155.50000000001029
 12
119.6774827262329
 22
156.00000000001029
 13
119.6774827262329
 23
156.00000000001029
  0
TEXT
  8
_0-8_S
 62
    7
 10
108.6774827262329
 20
156.50000000001029
 40
3
 41
1
 50
0
  1
19
  0
POINT
  8
_1-7__0-b_Defpoints
 62
    7
 10
100.6774827262329
 20
187.03015961803379
  0
POINT
  8
_1-7__0-b_Defpoints
 62
    7
 10
119.6774827262329
 20
198.00427273629381
  0
POINT
  8
_1-7__0-b_Defpoints
 62
    7
 10
119.6774827262329
 20
156.00000000001029
  0
ENDBLK
  0
BLOCK
  2
-025-_D26
 70
   64
 10
0
 20
0
 30
0
  0
LINE
  8
_0-8_S
  6
CONTINUOUS
 62
    6
 10
119.1774827262329
 20
195.00427273629381
 11
139
 21
195.00427273629381
  0
LINE
  8
_0-8_S
  6
CONTINUOUS
 62
    6
 10
128.338796244458
 20
200.00427273629381
 11
139
 21
200.00427273629381
  0
LINE
  8
_0-8_S
  6
CONTINUOUS
 62
    6
 10
138
 20
192.00427273629381
 11
137.99999999999989
 21
189.00427273629381
  0
LINE
  8
_0-8_S
  6
CONTINUOUS
 62
    6
 10
138
 20
203.0042727362939
 11
138
 21
206.00427273629381
  0
LINE
  8
_0-8_S
  6
CONTINUOUS
 62
    6
 10
138
 20
195.00427273629381
 11
138
 21
200.00427273629381
  0
SOLID
  8
_0-8_S
  6
CONTINUOUS
 62
    6
 10
137.5
 20
192.00427273629381
 11
138.5
 21
192.00427273629381
 12
138
 22
195.00427273629381
 13
138
 23
195.00427273629381
  0
SOLID
  8
_0-8_S
  6
CONTINUOUS
 62
    6
 10
137.5
 20
203.0042727362939
 11
138.5
 21
203.0042727362939
 12
138
 22
200.00427273629381
 13
138
 23
200.00427273629381
  0
TEXT
  8
_0-8_S
 62
    7
 10
137.49999999999989
 20
196.75427273629381
 40
3
 41
1
 50
90
  1
5
  0
POINT
  8
_1-7__0-b_Defpoints
 62
    7
 10
118.1774827262329
 20
195.00427273629381
  0
POINT
  8
_1-7__0-b_Defpoints
 62
    7
 10
127.338796244458
 20
200.00427273629381
  0
POINT
  8
_1-7__0-b_Defpoints
 62
    7
 10
138
 20
200.00427273629381
  0
ENDBLK
  0
BLOCK
  2
-026-_D27
 70
   64
 10
0
 20
0
 30
0
  0
LINE
  8
_0-8_S
  6
CONTINUOUS
 62
    6
 10
311.56453525971392
 20
200.00427273938709
 11
346
 21
200.00427273938701
  0
LINE
  8
_0-8_S
  6
CONTINUOUS
 62
    6
 10
331.47745269435791
 20
204.00427273629381
 11
346
 21
204.00427273629381
  0
LINE
  8
_0-8_S
  6
CONTINUOUS
 62
    6
 10
345
 20
197.00427273938701
 11
345
 21
194.00427273938701
  0
LINE
  8
_0-8_S
  6
CONTINUOUS
 62
    6
 10
345
 20
207.00427273629381
 11
345
 21
210.00427273629381
  0
LINE
  8
_0-8_S
  6
CONTINUOUS
 62
    6
 10
345
 20
200.00427273938701
 11
345
 21
204.00427273629381
  0
SOLID
  8
_0-8_S
  6
CONTINUOUS
 62
    6
 10
344.5
 20
197.00427273938701
 11
345.5
 21
197.00427273938701
 12
345
 22
200.00427273938701
 13
345
 23
200.00427273938701
  0
SOLID
  8
_0-8_S
  6
CONTINUOUS
 62
    6
 10
344.5
 20
207.00427273629381
 11
345.5
 21
207.00427273629381
 12
345
 22
204.00427273629381
 13
345
 23
204.00427273629381
  0
TEXT
  8
_0-8_S
 62
    7
 10
344.5
 20
201.25427273784049
 40
3
 41
1
 50
90
  1
4
  0
POINT
  8
_1-7__0-b_Defpoints
 62
    7
 10
310.56453525971392
 20
200.00427273938709
  0
POINT
  8
_1-7__0-b_Defpoints
 62
    7
 10
330.47745269435791
 20
204.00427273629381
  0
POINT
  8
_1-7__0-b_Defpoints
 62
    7
 10
345
 20
204.00427273629381
  0
ENDBLK
  0
BLOCK
  2
-027-_D28
 70
   64
 10
0
 20
0
 30
0
  0
LINE
  8
_0-8_S
  6
CONTINUOUS
 62
    6
 10
293.86694028879953
 20
182.30667779010989
 11
293.86694028879953
 21
161
  0
LINE
  8
_0-8_S
  6
CONTINUOUS
 62
    6
 10
319.86694028937291
 20
192.3937603313102
 11
319.86694028937291
 21
161
  0
LINE
  8
_0-8_S
  6
CONTINUOUS
 62
    6
 10
296.86694028879953
 20
162
 11
316.86694028937291
 21
162
  0
SOLID
  8
_0-8_S
  6
CONTINUOUS
 62
    6
 10
296.86694028879953
 20
162.5
 11
296.86694028879953
 21
161.5
 12
293.86694028879953
 22
162
 13
293.86694028879953
 23
162
  0
SOLID
  8
_0-8_S
  6
CONTINUOUS
 62
    6
 10
316.86694028937291
 20
162.5
 11
316.86694028937291
 21
161.5
 12
319.86694028937291
 22
162
 13
319.86694028937291
 23
162
  0
TEXT
  8
_0-8_S
 62
    7
 10
305.36694028908619
 20
162.5
 40
3
 41
1
 50
0
  1
26
  0
POINT
  8
_1-7__0-b_Defpoints
 62
    7
 10
293.86694028879953
 20
183.30667779010989
  0
POINT
  8
_1-7__0-b_Defpoints
 62
    7
 10
319.86694028937291
 20
193.3937603313102
  0
POINT
  8
_1-7__0-b_Defpoints
 62
    7
 10
319.86694028937291
 20
162
  0
ENDBLK
  0
BLOCK
  2
-028-_D29
 70
   64
 10
0
 20
0
 30
0
  0
LINE
  8
_0-8_S
  6
CONTINUOUS
 62
    6
 10
274.86694028937291
 20
183.00427273629381
 11
274.86694028937291
 21
161
  0
LINE
  8
_0-8_S
  6
CONTINUOUS
 62
    6
 10
293.86694028879953
 20
182.30667779010989
 11
293.86694028879953
 21
161
  0
LINE
  8
_0-8_S
  6
CONTINUOUS
 62
    6
 10
277.86694028937291
 20
162
 11
290.86694028879953
 21
162
  0
SOLID
  8
_0-8_S
  6
CONTINUOUS
 62
    6
 10
277.86694028937291
 20
162.5
 11
277.86694028937291
 21
161.5
 12
274.86694028937291
 22
162
 13
274.86694028937291
 23
162
  0
SOLID
  8
_0-8_S
  6
CONTINUOUS
 62
    6
 10
290.86694028879953
 20
162.5
 11
290.86694028879953
 21
161.5
 12
293.86694028879953
 22
162
 13
293.86694028879953
 23
162
  0
TEXT
  8
_0-8_S
 62
    7
 10
282.86694028908619
 20
162.5
 40
3
 41
1
 50
0
  1
19
  0
POINT
  8
_1-7__0-b_Defpoints
 62
    7
 10
274.86694028937291
 20
184.00427273629381
  0
POINT
  8
_1-7__0-b_Defpoints
 62
    7
 10
293.86694028879953
 20
183.30667779010989
  0
POINT
  8
_1-7__0-b_Defpoints
 62
    7
 10
293.86694028879953
 20
162
  0
ENDBLK
  0
BLOCK
  2
-029-_D30
 70
   64
 10
0
 20
0
 30
0
  0
LINE
  8
_0-8_S
  6
CONTINUOUS
 62
    6
 10
266.85688392635569
 20
238.00427273629381
 11
242
 21
238.00427273629381
  0
LINE
  8
_0-8_S
  6
CONTINUOUS
 62
    6
 10
276.86694028937291
 20
181.00427273629381
 11
242
 21
181.00427273629381
  0
LINE
  8
_0-8_S
  6
CONTINUOUS
 62
    6
 10
243
 20
235.00427273629381
 11
243
 21
184.00427273629381
  0
SOLID
  8
_0-8_S
  6
CONTINUOUS
 62
    6
 10
242.5
 20
235.00427273629381
 11
243.5
 21
235.00427273629381
 12
243
 22
238.00427273629381
 13
243
 23
238.00427273629381
  0
SOLID
  8
_0-8_S
  6
CONTINUOUS
 62
    6
 10
242.5
 20
184.00427273629381
 11
243.5
 21
184.00427273629381
 12
243
 22
181.00427273629381
 13
243
 23
181.00427273629381
  0
TEXT
  8
_0-8_S
 62
    7
 10
242.5
 20
208.0042727362939
 40
3
 41
1
 50
90
  1
57
  0
POINT
  8
_1-7__0-b_Defpoints
 62
    7
 10
267.85688392635581
 20
238.00427273629381
  0
POINT
  8
_1-7__0-b_Defpoints
 62
    7
 10
277.86694028937291
 20
181.00427273629381
  0
POINT
  8
_1-7__0-b_Defpoints
 62
    7
 10
243
 20
181.00427273629381
  0
ENDBLK
  0
BLOCK
  2
-030-_D31
 70
   64
 10
0
 20
0
 30
0
  0
LINE
  8
_0-8_S
  6
CONTINUOUS
 62
    6
 10
252.95492688768721
 20
200.00427273938709
 11
248
 21
200.00427273938709
  0
LINE
  8
_0-8_S
  6
CONTINUOUS
 62
    6
 10
276.86694028937291
 20
181.00427273629381
 11
248
 21
181.00427273629381
  0
LINE
  8
_0-8_S
  6
CONTINUOUS
 62
    6
 10
249
 20
197.00427273938701
 11
249
 21
184.00427273629381
  0
SOLID
  8
_0-8_S
  6
CONTINUOUS
 62
    6
 10
248.5
 20
197.00427273938701
 11
249.5
 21
197.00427273938701
 12
249
 22
200.00427273938709
 13
249
 23
200.00427273938709
  0
SOLID
  8
_0-8_S
  6
CONTINUOUS
 62
    6
 10
248.5
 20
184.00427273629381
 11
249.5
 21
184.00427273629381
 12
249
 22
181.00427273629381
 13
249
 23
181.00427273629381
  0
TEXT
  8
_0-8_S
 62
    7
 10
248.5
 20
189.00427273784041
 40
3
 41
1
 50
90
  1
19
  0
POINT
  8
_1-7__0-b_Defpoints
 62
    7
 10
253.95492688768721
 20
200.00427273938709
  0
POINT
  8
_1-7__0-b_Defpoints
 62
    7
 10
277.86694028937291
 20
181.00427273629381
  0
POINT
  8
_1-7__0-b_Defpoints
 62
    7
 10
249
 20
181.00427273629381
  0
ENDBLK
  0
BLOCK
  2
-031-_D32
 70
   64
 10
0
 20
0
 30
0
  0
LINE
  8
_0-8_S
  6
CONTINUOUS
 62
    6
 10
252.95492688768721
 20
200.00427273938709
 11
248
 21
200.00427273938709
  0
LINE
  8
_0-8_S
  6
CONTINUOUS
 62
    6
 10
270.50811132157691
 20
253.25427275304989
 11
248
 21
253.25427275304989
  0
LINE
  8
_0-8_S
  6
CONTINUOUS
 62
    6
 10
249
 20
203.00427273938701
 11
249
 21
250.25427275304989
  0
SOLID
  8
_0-8_S
  6
CONTINUOUS
 62
    6
 10
248.5
 20
203.00427273938701
 11
249.5
 21
203.00427273938701
 12
249
 22
200.00427273938709
 13
249
 23
200.00427273938709
  0
SOLID
  8
_0-8_S
  6
CONTINUOUS
 62
    6
 10
248.5
 20
250.25427275304989
 11
249.5
 21
250.25427275304989
 12
249
 22
253.25427275304989
 13
249
 23
253.25427275304989
  0
TEXT
  8
_0-8_S
 62
    7
 10
248.49999999999989
 20
223.6292727462185
 40
3
 41
1
 50
90
  1
53.3
  0
POINT
  8
_1-7__0-b_Defpoints
 62
    7
 10
253.95492688768721
 20
200.00427273938709
  0
POINT
  8
_1-7__0-b_Defpoints
 62
    7
 10
271.50811132157702
 20
253.25427275304989
  0
POINT
  8
_1-7__0-b_Defpoints
 62
    7
 10
249
 20
253.25427275304989
  0
ENDBLK
  0
BLOCK
  2
-032-_D33
 70
   64
 10
0
 20
0
 30
0
  0
LINE
  8
_0-8_S
  6
CONTINUOUS
 62
    6
 10
270.50811132157691
 20
253.25427275304989
 11
248
 21
253.25427275304989
  0
LINE
  8
_0-8_S
  6
CONTINUOUS
 62
    6
 10
270.43752580476303
 20
260.25427275304992
 11
248
 21
260.25427275304992
  0
LINE
  8
_0-8_S
  6
CONTINUOUS
 62
    6
 10
249
 20
250.25427275304989
 11
249
 21
247.25427275304989
  0
LINE
  8
_0-8_S
  6
CONTINUOUS
 62
    6
 10
249
 20
263.25427275304992
 11
249
 21
266.25427275304992
  0
LINE
  8
_0-8_S
  6
CONTINUOUS
 62
    6
 10
249
 20
253.25427275304989
 11
249
 21
260.25427275304992
  0
SOLID
  8
_0-8_S
  6
CONTINUOUS
 62
    6
 10
248.5
 20
250.25427275304989
 11
249.5
 21
250.25427275304989
 12
249
 22
253.25427275304989
 13
249
 23
253.25427275304989
  0
SOLID
  8
_0-8_S
  6
CONTINUOUS
 62
    6
 10
248.5
 20
263.25427275304992
 11
249.5
 21
263.25427275304992
 12
249
 22
260.25427275304992
 13
249
 23
260.25427275304992
  0
TEXT
  8
_0-8_S
 62
    7
 10
248.5
 20
256.00427275304997
 40
3
 41
1
 50
90
  1
7
  0
POINT
  8
_1-7__0-b_Defpoints
 62
    7
 10
271.50811132157702
 20
253.25427275304989
  0
POINT
  8
_1-7__0-b_Defpoints
 62
    7
 10
271.43752580476303
 20
260.25427275304992
  0
POINT
  8
_1-7__0-b_Defpoints
 62
    7
 10
249
 20
260.25427275304992
  0
ENDBLK
  0
BLOCK
  2
-033-_D34
 70
   64
 10
0
 20
0
 30
0
  0
LINE
  8
_0-8_S
  6
CONTINUOUS
 62
    6
 10
100.6774827262329
 20
186.03015961799451
 11
100.6774827262329
 21
155.0000000000002
  0
LINE
  8
_0-8_S
  6
CONTINUOUS
 62
    6
 10
94.177482726232938
 20
167.00427273629401
 11
94.177482726232938
 21
155.0000000000002
  0
LINE
  8
_0-8_S
  6
CONTINUOUS
 62
    6
 10
103.6774827262329
 20
156.0000000000002
 11
106.6774827262329
 21
156.0000000000002
  0
LINE
  8
_0-8_S
  6
CONTINUOUS
 62
    6
 10
91.177482726232924
 20
156.0000000000002
 11
88.177482726232938
 21
156.0000000000002
  0
LINE
  8
_0-8_S
  6
CONTINUOUS
 62
    6
 10
100.6774827262329
 20
156.0000000000002
 11
94.177482726232938
 21
156.0000000000002
  0
SOLID
  8
_0-8_S
  6
CONTINUOUS
 62
    6
 10
103.6774827262329
 20
156.50000000000011
 11
103.6774827262329
 21
155.50000000000011
 12
100.6774827262329
 22
156.0000000000002
 13
100.6774827262329
 23
156.0000000000002
  0
SOLID
  8
_0-8_S
  6
CONTINUOUS
 62
    6
 10
91.177482726232924
 20
156.50000000000011
 11
91.177482726232924
 21
155.50000000000011
 12
94.177482726232938
 22
156.0000000000002
 13
94.177482726232938
 23
156.0000000000002
  0
TEXT
  8
_0-8_S
 62
    7
 10
95.177482726232952
 20
156.5000000000002
 40
3
 41
1
 50
0
  1
6.5
  0
POINT
  8
_1-7__0-b_Defpoints
 62
    7
 10
100.6774827262329
 20
187.03015961799451
  0
POINT
  8
_1-7__0-b_Defpoints
 62
    7
 10
94.177482726232938
 20
168.00427273629401
  0
POINT
  8
_1-7__0-b_Defpoints
 62
    7
 10
94.177482726232938
 20
156.0000000000002
  0
ENDBLK
  0
BLOCK
  2
-034-_D35
 70
   64
 10
0
 20
0
 30
0
  0
LINE
  8
_0-8_S
  6
CONTINUOUS
 62
    6
 10
184.98310401167601
 20
258.00427273629379
 11
193
 21
258.00427273629379
  0
LINE
  8
_0-8_S
  6
CONTINUOUS
 62
    6
 10
182.98310401167601
 20
262.50427273629379
 11
193
 21
262.50427273629379
  0
LINE
  8
_0-8_S
  6
CONTINUOUS
 62
    6
 10
192
 20
255.0042727362939
 11
192
 21
252.0042727362939
  0
LINE
  8
_0-8_S
  6
CONTINUOUS
 62
    6
 10
192
 20
265.5042727362939
 11
192
 21
274.37927273629379
  0
LINE
  8
_0-8_S
  6
CONTINUOUS
 62
    6
 10
192
 20
258.00427273629379
 11
192
 21
262.50427273629379
  0
SOLID
  8
_0-8_S
  6
CONTINUOUS
 62
    6
 10
191.5
 20
255.0042727362939
 11
192.5
 21
255.0042727362939
 12
192
 22
258.00427273629379
 13
192
 23
258.00427273629379
  0
SOLID
  8
_0-8_S
  6
CONTINUOUS
 62
    6
 10
191.5
 20
265.5042727362939
 11
192.5
 21
265.5042727362939
 12
192
 22
262.50427273629379
 13
192
 23
262.50427273629379
  0
TEXT
  8
_0-8_S
 62
    7
 10
191.5
 20
269.1917727362939
 40
3
 41
1
 50
90
  1
4.5
  0
POINT
  8
_1-7__0-b_Defpoints
 62
    7
 10
183.98310401167601
 20
258.00427273629379
  0
POINT
  8
_1-7__0-b_Defpoints
 62
    7
 10
181.98310401167601
 20
262.50427273629379
  0
POINT
  8
_1-7__0-b_Defpoints
 62
    7
 10
192
 20
262.50427273629379
  0
ENDBLK
  0
BLOCK
  2
-035-_D36
 70
   64
 10
0
 20
0
 30
0
  0
LINE
  8
_0-8_S
  6
CONTINUOUS
 62
    6
 10
47.675558937586629
 20
371.76744870435692
 11
47.675558937586629
 21
382
  0
LINE
  8
_0-8_S
  6
CONTINUOUS
 62
    6
 10
101.3755589375855
 20
371.76744870435692
 11
101.3755589375855
 21
382
  0
LINE
  8
_0-8_S
  6
CONTINUOUS
 62
    6
 10
50.675558937586629
 20
381
 11
98.375558937585552
 21
381
  0
SOLID
  8
_0-8_S
  6
CONTINUOUS
 62
    6
 10
50.675558937586629
 20
381.5
 11
50.675558937586629
 21
380.5
 12
47.675558937586629
 22
381
 13
47.675558937586629
 23
381
  0
SOLID
  8
_0-8_S
  6
CONTINUOUS
 62
    6
 10
98.375558937585552
 20
381.5
 11
98.375558937585552
 21
380.5
 12
101.3755589375855
 22
381
 13
101.3755589375855
 23
381
  0
TEXT
  8
_0-8_S
 62
    7
 10
71.975558937586086
 20
381.79488636363641
 40
1.7999999999999998
 41
1
 50
0
  1
53.7
  0
TEXT
  8
_0-8_S
 62
    7
 10
75.575558937586081
 20
385.54488636363641
 40
0.5999999999999998
 41
1
 50
0
  1
+0.15
  0
TEXT
  8
_0-8_S
 62
    7
 10
75.575558937586081
 20
381.04488636363641
 40
0.2
 41
1
 50
0
  1
 0
  0
POINT
  8
_1-7__0-b_Defpoints
 62
    7
 10
47.675558937586629
 20
370.76744870435692
  0
POINT
  8
_1-7__0-b_Defpoints
 62
    7
 10
101.3755589375855
 20
370.76744870435692
  0
POINT
  8
_1-7__0-b_Defpoints
 62
    7
 10
101.3755589375855
 20
381
  0
ENDBLK
  0
BLOCK
  2
-036-_D37
 70
   64
 10
0
 20
0
 30
0
  0
LINE
  8
_0-8_S
  6
CONTINUOUS
 62
    6
 10
46.675558937586622
 20
296.5674487043571
 11
35.000000000000007
 21
296.5674487043571
  0
LINE
  8
_0-8_S
  6
CONTINUOUS
 62
    6
 10
46.675558937586622
 20
370.76744870435692
 11
35.000000000000028
 21
370.76744870435692
  0
LINE
  8
_0-8_S
  6
CONTINUOUS
 62
    6
 10
36.000000000000007
 20
299.56744870435699
 11
36.000000000000021
 21
367.76744870435692
  0
SOLID
  8
_0-8_S
  6
CONTINUOUS
 62
    6
 10
35.500000000000007
 20
299.56744870435699
 11
36.500000000000007
 21
299.56744870435699
 12
36.000000000000007
 22
296.5674487043571
 13
36.000000000000007
 23
296.5674487043571
  0
SOLID
  8
_0-8_S
  6
CONTINUOUS
 62
    6
 10
35.500000000000021
 20
367.76744870435692
 11
36.500000000000021
 21
367.76744870435692
 12
36.000000000000028
 22
370.76744870435692
 13
36.000000000000028
 23
370.76744870435692
  0
TEXT
  8
_0-8_S
 62
    7
 10
35.205113636363599
 20
331.117448704357
 40
1.7999999999999998
 41
1
 50
90
  1
74.2
  0
TEXT
  8
_0-8_S
 62
    7
 10
31.455113636363603
 20
334.71744870435703
 40
0.5999999999999998
 41
1
 50
90
  1
+0.15
  0
TEXT
  8
_0-8_S
 62
    7
 10
35.955113636363599
 20
334.71744870435703
 40
0.2
 41
1
 50
90
  1
 0
  0
POINT
  8
_1-7__0-b_Defpoints
 62
    7
 10
47.675558937586629
 20
296.5674487043571
  0
POINT
  8
_1-7__0-b_Defpoints
 62
    7
 10
47.675558937586629
 20
370.76744870435692
  0
POINT
  8
_1-7__0-b_Defpoints
 62
    7
 10
36.000000000000028
 20
370.76744870435692
  0
ENDBLK
  0
ENDSEC
  0
SECTION
  2
ENTITIES
  0
LINE
  8
_0-a_W
  6
CONTINUOUS
 62
    2
 10
141.3129820553234
 20
101.64454290918022
 11
694.71298205532344
 21
101.64454290918022
  0
LINE
  8
_0-a_W
  6
CONTINUOUS
 62
    2
 10
684.71298205532344
 20
483.54454290918034
 11
694.71298205532344
 21
483.54454290918034
  0
TEXT
  8
_0-8_S
 62
    7
 10
645.31298205532335
 20
260.44454290918043
 40
3
 41
1
 50
0
  1
1：白 (日塗工'07 DN-93)
  0
INSERT
  2
-021-_D22
  8
_0-8_S
 10
135.3129820553234
 20
95.444542909180399
 41
1
 42
1
 50
0
  0
LINE
  8
_0-0_0
  6
CONTINUOUS
 62
    7
 10
315.54608606699941
 20
348.69881564547427
 11
315.44326355212729
 21
348.69881564547427
  0
INSERT
  2
-022-_D23
  8
_0-8_S
 10
135.3129820553234
 20
95.444542909180399
 41
1
 42
1
 50
0
  0
INSERT
  2
-023-_D24
  8
_0-8_S
 10
135.3129820553234
 20
95.444542909180399
 41
1
 42
1
 50
0
  0
INSERT
  2
-024-_D25
  8
_0-8_S
 10
135.3129820553234
 20
95.444542909180399
 41
1
 42
1
 50
0
  0
LINE
  8
_0-2_02
  6
CONTINUOUS
 62
    2
 10
440.17992234469631
 20
400.82887884985871
 11
441.77992234469622
 21
400.82887884985871
  0
LINE
  8
_0-2_02
  6
CONTINUOUS
 62
    2
 10
439.97992234469649
 20
400.9439380266133
 11
439.98376528861519
 21
400.92149109476964
  0
LINE
  8
_0-2_02
  6
CONTINUOUS
 62
    2
 10
439.98376528861519
 20
400.92149109476964
 11
439.99514643819458
 21
400.89990678592835
  0
LINE
  8
_0-2_02
  6
CONTINUOUS
 62
    2
 10
439.99514643819458
 20
400.89990678592835
 11
440.01362842223739
 21
400.88001457297446
  0
LINE
  8
_0-2_02
  6
CONTINUOUS
 62
    2
 10
440.01362842223739
 20
400.88001457297446
 11
440.03850098845919
 21
400.86257890249249
  0
LINE
  8
_0-2_02
  6
CONTINUOUS
 62
    2
 10
440.03850098845919
 20
400.86257890249249
 11
440.06880829809307
 21
400.84826981752553
  0
LINE
  8
_0-2_02
  6
CONTINUOUS
 62
    2
 10
440.06880829809307
 20
400.84826981752553
 11
440.10338565822332
 21
400.83763720818229
  0
LINE
  8
_0-2_02
  6
CONTINUOUS
 62
    2
 10
440.10338565822332
 20
400.83763720818229
 11
440.14090428029323
 21
400.8310896796786
  0
LINE
  8
_0-2_02
  6
CONTINUOUS
 62
    2
 10
440.14090428029323
 20
400.8310896796786
 11
440.17992234469631
 21
400.82887884985871
  0
LINE
  8
_0-2_02
  6
CONTINUOUS
 62
    2
 10
441.77992234469622
 20
400.82887884985871
 11
441.81894040910021
 21
400.8310896796786
  0
LINE
  8
_0-2_02
  6
CONTINUOUS
 62
    2
 10
441.81894040910021
 20
400.8310896796786
 11
441.85645903116921
 21
400.83763720818229
  0
LINE
  8
_0-2_02
  6
CONTINUOUS
 62
    2
 10
441.85645903116921
 20
400.83763720818229
 11
441.89103639130042
 21
400.84826981752553
  0
LINE
  8
_0-2_02
  6
CONTINUOUS
 62
    2
 10
441.89103639130042
 20
400.84826981752553
 11
441.92134370093419
 21
400.86257890249249
  0
LINE
  8
_0-2_02
  6
CONTINUOUS
 62
    2
 10
441.92134370093419
 20
400.86257890249249
 11
441.9462162671573
 21
400.88001457297446
  0
LINE
  8
_0-2_02
  6
CONTINUOUS
 62
    2
 10
441.9462162671573
 20
400.88001457297446
 11
441.96469825119931
 21
400.89990678592835
  0
LINE
  8
_0-2_02
  6
CONTINUOUS
 62
    2
 10
441.96469825119931
 20
400.89990678592835
 11
441.97607940077739
 21
400.92149109476964
  0
LINE
  8
_0-2_02
  6
CONTINUOUS
 62
    2
 10
441.97607940077739
 20
400.92149109476964
 11
441.97992234469649
 21
400.9439380266133
  0
LINE
  8
_0-2_02
  6
CONTINUOUS
 62
    2
 10
440.17992234469631
 20
402.13251579301834
 11
441.77992234469622
 21
402.13251579301834
  0
ARC
  8
_0-2_02
  6
CONTINUOUS
 62
    2
 10
441.79269616136241
 20
402.31989144277009
 40
0.1878105548478699
 50
266.10005284261968
 51
355.47899670085638
  0
ARC
  8
_0-2_02
  6
CONTINUOUS
 62
    2
 10
440.16714852803148
 20
402.31989144277009
 40
0.1878105548478361
 50
184.52100329914362
 51
273.89994715737947
  0
LINE
  8
_0-2_02
  6
CONTINUOUS
 62
    2
 10
430.17992234469631
 20
400.8591007483376
 11
431.77992234469622
 21
400.8591007483376
  0
LINE
  8
_0-2_02
  6
CONTINUOUS
 62
    2
 10
429.97992234469649
 20
400.97238199572143
 11
429.9837652886165
 21
400.95028192069026
  0
LINE
  8
_0-2_02
  6
CONTINUOUS
 62
    2
 10
429.9837652886165
 20
400.95028192069026
 11
429.99514643819458
 21
400.92903113915031
  0
LINE
  8
_0-2_02
  6
CONTINUOUS
 62
    2
 10
429.99514643819458
 20
400.92903113915031
 11
430.01362842223648
 21
400.90944630671561
  0
LINE
  8
_0-2_02
  6
CONTINUOUS
 62
    2
 10
430.01362842223648
 20
400.90944630671561
 11
430.03850098845919
 21
400.89228005751443
  0
LINE
  8
_0-2_02
  6
CONTINUOUS
 62
    2
 10
430.03850098845919
 20
400.89228005751443
 11
430.06880829809211
 21
400.87819208087762
  0
LINE
  8
_0-2_02
  6
CONTINUOUS
 62
    2
 10
430.06880829809211
 20
400.87819208087762
 11
430.10338565822423
 21
400.8677237698455
  0
LINE
  8
_0-2_02
  6
CONTINUOUS
 62
    2
 10
430.10338565822423
 20
400.8677237698455
 11
430.14090428029323
 21
400.86127741574069
  0
LINE
  8
_0-2_02
  6
CONTINUOUS
 62
    2
 10
430.14090428029323
 20
400.86127741574069
 11
430.17992234469631
 21
400.8591007483376
  0
LINE
  8
_0-2_02
  6
CONTINUOUS
 62
    2
 10
431.77992234469622
 20
400.8591007483376
 11
431.8189404090993
 21
400.86127741574069
  0
LINE
  8
_0-2_02
  6
CONTINUOUS
 62
    2
 10
431.8189404090993
 20
400.86127741574069
 11
431.85645903116921
 21
400.8677237698455
  0
LINE
  8
_0-2_02
  6
CONTINUOUS
 62
    2
 10
431.85645903116921
 20
400.8677237698455
 11
431.89103639130042
 21
400.87819208087762
  0
LINE
  8
_0-2_02
  6
CONTINUOUS
 62
    2
 10
431.89103639130042
 20
400.87819208087762
 11
431.92134370093419
 21
400.89228005751443
  0
LINE
  8
_0-2_02
  6
CONTINUOUS
 62
    2
 10
431.92134370093419
 20
400.89228005751443
 11
431.9462162671573
 21
400.90944630671561
  0
LINE
  8
_0-2_02
  6
CONTINUOUS
 62
    2
 10
431.9462162671573
 20
400.90944630671561
 11
431.96469825119931
 21
400.92903113915031
  0
LINE
  8
_0-2_02
  6
CONTINUOUS
 62
    2
 10
431.96469825119931
 20
400.92903113915031
 11
431.97607940077739
 21
400.95028192069026
  0
LINE
  8
_0-2_02
  6
CONTINUOUS
 62
    2
 10
431.97607940077739
 20
400.95028192069026
 11
431.97992234469649
 21
400.97238199572143
  0
LINE
  8
_0-2_02
  6
CONTINUOUS
 62
    2
 10
430.17992234469631
 20
402.22088485426934
 11
431.77992234469622
 21
402.22088485426934
  0
ARC
  8
_0-2_02
  6
CONTINUOUS
 62
    2
 10
431.79317119826129
 20
402.40780534628652
 40
0.1873894406224438
 50
265.9456773430274
 51
355.2695890544781
  0
ARC
  8
_0-2_02
  6
CONTINUOUS
 62
    2
 10
430.1666734911326
 20
402.40780534628652
 40
0.1873894406224458
 50
184.73041094552195
 51
274.05432265698244
  0
LINE
  8
_0-2_02
  6
CONTINUOUS
 62
    2
 10
449.9799223446974
 20
400.97238199572644
 11
449.98376528861519
 21
400.95028192069515
  0
LINE
  8
_0-2_02
  6
CONTINUOUS
 62
    2
 10
449.98376528861519
 20
400.95028192069515
 11
449.99514643819458
 21
400.9290311391544
  0
LINE
  8
_0-2_02
  6
CONTINUOUS
 62
    2
 10
449.99514643819458
 20
400.9290311391544
 11
450.01362842223648
 21
400.9094463067197
  0
LINE
  8
_0-2_02
  6
CONTINUOUS
 62
    2
 10
450.01362842223648
 20
400.9094463067197
 11
450.03850098845919
 21
400.89228005751852
  0
LINE
  8
_0-2_02
  6
CONTINUOUS
 62
    2
 10
450.03850098845919
 20
400.89228005751852
 11
450.06880829809222
 21
400.87819208088206
  0
LINE
  8
_0-2_02
  6
CONTINUOUS
 62
    2
 10
450.06880829809222
 20
400.87819208088206
 11
450.10338565822423
 21
400.86772376984948
  0
LINE
  8
_0-2_02
  6
CONTINUOUS
 62
    2
 10
450.10338565822423
 20
400.86772376984948
 11
450.14090428029323
 21
400.86127741574523
  0
LINE
  8
_0-2_02
  6
CONTINUOUS
 62
    2
 10
450.14090428029323
 20
400.86127741574523
 11
450.17992234469631
 21
400.85910074834158
  0
LINE
  8
_0-2_02
  6
CONTINUOUS
 62
    2
 10
451.77992234469622
 20
400.85910074834158
 11
451.8189404090993
 21
400.86127741574523
  0
LINE
  8
_0-2_02
  6
CONTINUOUS
 62
    2
 10
451.8189404090993
 20
400.86127741574523
 11
451.85645903116921
 21
400.86772376984948
  0
LINE
  8
_0-2_02
  6
CONTINUOUS
 62
    2
 10
451.85645903116921
 20
400.86772376984948
 11
451.8910363913003
 21
400.87819208088206
  0
LINE
  8
_0-2_02
  6
CONTINUOUS
 62
    2
 10
451.8910363913003
 20
400.87819208088206
 11
451.92134370093419
 21
400.89228005751852
  0
LINE
  8
_0-2_02
  6
CONTINUOUS
 62
    2
 10
451.92134370093419
 20
400.89228005751852
 11
451.94621626715741
 21
400.9094463067197
  0
LINE
  8
_0-2_02
  6
CONTINUOUS
 62
    2
 10
451.94621626715741
 20
400.9094463067197
 11
451.9646982511984
 21
400.9290311391544
  0
LINE
  8
_0-2_02
  6
CONTINUOUS
 62
    2
 10
451.9646982511984
 20
400.9290311391544
 11
451.97607940077728
 21
400.95028192069515
  0
LINE
  8
_0-2_02
  6
CONTINUOUS
 62
    2
 10
451.97607940077728
 20
400.95028192069515
 11
451.97992234469649
 21
400.97238199572644
  0
LINE
  8
_0-2_02
  6
CONTINUOUS
 62
    2
 10
450.17992234469631
 20
400.85910074834158
 11
451.77992234469622
 21
400.85910074834158
  0
LINE
  8
_0-2_02
  6
CONTINUOUS
 62
    2
 10
450.17992234469631
 20
402.22088485427344
 11
451.77992234469622
 21
402.22088485427344
  0
ARC
  8
_0-2_02
  6
CONTINUOUS
 62
    2
 10
450.1666734911326
 20
402.40780534629062
 40
0.1873894406223669
 50
184.73041094549581
 51
274.05432265701018
  0
ARC
  8
_0-2_02
  6
CONTINUOUS
 62
    2
 10
451.79317119826271
 20
402.40780534629062
 40
0.1873894406223669
 50
265.94567734298982
 51
355.26958905450419
  0
LINE
  8
_0-2_02
  6
CONTINUOUS
 62
    2
 10
461.77992234469758
 20
400.85910074834158
 11
461.81894040910021
 21
400.86127741574523
  0
LINE
  8
_0-2_02
  6
CONTINUOUS
 62
    2
 10
461.81894040910021
 20
400.86127741574523
 11
461.85645903117012
 21
400.86772376984948
  0
LINE
  8
_0-2_02
  6
CONTINUOUS
 62
    2
 10
461.85645903117012
 20
400.86772376984948
 11
461.8910363913003
 21
400.87819208088206
  0
LINE
  8
_0-2_02
  6
CONTINUOUS
 62
    2
 10
461.8910363913003
 20
400.87819208088206
 11
461.92134370093419
 21
400.89228005751852
  0
LINE
  8
_0-2_02
  6
CONTINUOUS
 62
    2
 10
461.92134370093419
 20
400.89228005751852
 11
461.94621626715741
 21
400.9094463067197
  0
LINE
  8
_0-2_02
  6
CONTINUOUS
 62
    2
 10
461.94621626715741
 20
400.9094463067197
 11
461.9646982511984
 21
400.9290311391544
  0
LINE
  8
_0-2_02
  6
CONTINUOUS
 62
    2
 10
461.9646982511984
 20
400.9290311391544
 11
461.97607940077728
 21
400.95028192069515
  0
LINE
  8
_0-2_02
  6
CONTINUOUS
 62
    2
 10
461.97607940077728
 20
400.95028192069515
 11
461.97992234469649
 21
400.97238199572644
  0
LINE
  8
_0-2_02
  6
CONTINUOUS
 62
    2
 10
459.97992234469649
 20
400.97238199572644
 11
459.98376528861519
 21
400.95028192069515
  0
LINE
  8
_0-2_02
  6
CONTINUOUS
 62
    2
 10
459.98376528861519
 20
400.95028192069515
 11
459.99514643819458
 21
400.9290311391544
  0
LINE
  8
_0-2_02
  6
CONTINUOUS
 62
    2
 10
459.99514643819458
 20
400.9290311391544
 11
460.01362842223648
 21
400.9094463067197
  0
LINE
  8
_0-2_02
  6
CONTINUOUS
 62
    2
 10
460.01362842223648
 20
400.9094463067197
 11
460.0385009884593
 21
400.89228005751852
  0
LINE
  8
_0-2_02
  6
CONTINUOUS
 62
    2
 10
460.0385009884593
 20
400.89228005751852
 11
460.06880829809222
 21
400.87819208088206
  0
LINE
  8
_0-2_02
  6
CONTINUOUS
 62
    2
 10
460.06880829809222
 20
400.87819208088206
 11
460.10338565822332
 21
400.86772376984948
  0
LINE
  8
_0-2_02
  6
CONTINUOUS
 62
    2
 10
460.10338565822332
 20
400.86772376984948
 11
460.14090428029323
 21
400.86127741574523
  0
LINE
  8
_0-2_02
  6
CONTINUOUS
 62
    2
 10
460.14090428029323
 20
400.86127741574523
 11
460.17992234469631
 21
400.85910074834158
  0
LINE
  8
_0-2_02
  6
CONTINUOUS
 62
    2
 10
460.17992234469631
 20
400.85910074834158
 11
461.77992234469758
 21
400.85910074834158
  0
LINE
  8
_0-2_02
  6
CONTINUOUS
 62
    2
 10
460.17992234469631
 20
402.22088485427344
 11
461.77992234469758
 21
402.22088485427344
  0
ARC
  8
_0-2_02
  6
CONTINUOUS
 62
    2
 10
461.79317119826271
 20
402.40780534629062
 40
0.1873894406223629
 50
265.94567734301097
 51
355.26958905450414
  0
ARC
  8
_0-2_02
  6
CONTINUOUS
 62
    2
 10
460.16667349113169
 20
402.40780534629062
 40
0.1873894406223723
 50
184.73041094549581
 51
274.05432265700358
  0
ARC
  8
_0-2_02
  6
CONTINUOUS
 62
    2
 10
378.01179915527052
 20
402.61736408887441
 40
46.571909668987132
 50
356.70214907362782
 51
359.16446963297591
  0
ARC
  8
_0-2_02
  6
CONTINUOUS
 62
    2
 10
425.42781857543042
 20
402.11577656315444
 40
0.833794245112357
 50
99.455954747636298
 51
180.49811862130204
  0
LINE
  8
_0-2_02
  6
CONTINUOUS
 62
    2
 10
424.90877276212433
 20
402.98729968529256
 11
425.29083504817152
 21
402.93824136874969
  0
ARC
  8
_0-2_02
  6
CONTINUOUS
 62
    2
 10
436.44261993194033
 20
396.73382553902343
 40
3.7959378838189171
 50
270.78218106686251
 51
317.3333302429549
  0
ARC
  8
_0-2_02
  6
CONTINUOUS
 62
    2
 10
430.71975807385553
 20
395.9769353872332
 40
3.0409775538003059
 50
272.22055773656621
 51
320.11375204559857
  0
ARC
  8
_0-2_02
  6
CONTINUOUS
 62
    2
 10
428.75478029128942
 20
398.69495219936539
 40
6.3456381729963791
 50
312.63887064715777
 51
353.15123936961834
  0
LINE
  8
_0-2_02
  6
CONTINUOUS
 62
    2
 10
435.40692113871262
 20
402.98729968529256
 11
435.40692113871262
 21
402.61938711661855
  0
LINE
  8
_0-3_03
  6
CONTINUOUS
 62
    3
 10
413.17992234469631
 20
425.93824136874832
 11
411.17992234469631
 21
412.43824136874969
  0
LINE
  8
_0-3_03
  6
CONTINUOUS
 62
    3
 10
411.17992234469631
 20
412.43824136874969
 11
413.17992234469631
 21
411.4382413687506
  0
LINE
  8
_0-3_03
  6
CONTINUOUS
 62
    3
 10
468.17992234469722
 20
412.43824136874969
 11
466.17992234469722
 21
425.93824136874832
  0
LINE
  8
_0-3_03
  6
CONTINUOUS
 62
    3
 10
466.17992234469722
 20
411.4382413687506
 11
468.17992234469722
 21
412.43824136874969
  0
LINE
  8
_0-3_03
  6
CONTINUOUS
 62
    3
 10
466.17992234469722
 20
410.93824136874969
 11
466.17992234469722
 21
415.93824136874832
  0
LINE
  8
_0-3_03
  6
CONTINUOUS
 62
    3
 10
466.17992234469722
 20
440.93824136874957
 11
466.17992234469722
 21
421.35326676111822
  0
LINE
  8
_0-3_03
  6
CONTINUOUS
 62
    3
 10
463.17992234469682
 20
441.93824136874832
 11
465.17992234469722
 21
441.93824136874832
  0
LINE
  8
_0-3_03
  6
CONTINUOUS
 62
    3
 10
413.17992234469631
 20
410.93824136874969
 11
413.17992234469631
 21
415.93824136874832
  0
LINE
  8
_0-3_03
  6
CONTINUOUS
 62
    3
 10
413.17992234469631
 20
419.98824136874941
 11
413.17992234469631
 21
427.93824136874969
  0
LINE
  8
_0-3_03
  6
CONTINUOUS
 62
    3
 10
466.17992234469722
 20
415.93824136874832
 11
466.17992234469722
 21
422.1560164535756
  0
LINE
  8
_0-3_03
  6
CONTINUOUS
 62
    3
 10
466.17992234469722
 20
422.44976960718873
 11
466.17992234469722
 21
423.33824136874932
  0
LINE
  8
_0-3_03
  6
CONTINUOUS
 62
    3
 10
466.17992234469722
 20
422.44976960718873
 11
466.17992234469722
 21
422.1560164535756
  0
LINE
  8
_0-3_03
  6
CONTINUOUS
 62
    3
 10
466.17992234469722
 20
423.6382413687495
 11
466.17992234469722
 21
423.33824136874932
  0
LINE
  8
_0-3_03
  6
CONTINUOUS
 62
    3
 10
413.17992234469631
 20
415.93824136874832
 11
413.17992234469631
 21
418.48824136874941
  0
LINE
  8
_0-3_03
  6
CONTINUOUS
 62
    3
 10
466.17992234469722
 20
440.93824136874957
 11
466.17992234469722
 21
434.43824136874832
  0
LINE
  8
_0-3_03
  6
CONTINUOUS
 62
    3
 10
463.17992234469682
 20
441.93824136874832
 11
465.17992234469722
 21
441.93824136874832
  0
LINE
  8
_0-3_03
  6
CONTINUOUS
 62
    3
 10
466.17992234469722
 20
434.43824136874832
 11
466.17992234469722
 21
432.41324136874823
  0
LINE
  8
_0-3_03
  6
CONTINUOUS
 62
    3
 10
413.17992234469631
 20
428.43824136874957
 11
413.17992234469631
 21
427.93824136874969
  0
LINE
  8
_0-3_03
  6
CONTINUOUS
 62
    3
 10
466.17992234469722
 20
411.54328387598639
 11
466.17992234469722
 21
410.93824136874969
  0
LINE
  8
_0-3_03
  6
CONTINUOUS
 62
    3
 10
413.17992234469631
 20
410.93824136874969
 11
413.17992234469631
 21
411.54328387598639
  0
LINE
  8
_0-3_03
  6
CONTINUOUS
 62
    3
 10
413.17992234469631
 20
414.93824136874969
 11
413.17992234469631
 21
427.93824136874969
  0
LINE
  8
_0-3_03
  6
CONTINUOUS
 62
    3
 10
466.17992234469722
 20
440.93824136874957
 11
466.17992234469722
 21
414.93824136874969
  0
ARC
  8
_0-3_03
  6
CONTINUOUS
 62
    3
 10
465.17992234469722
 20
440.93824136874957
 40
1
 50
0
 51
90
  0
LINE
  8
_0-3_03
  6
CONTINUOUS
 62
    3
 10
463.17992234469682
 20
441.93824136874832
 11
465.17992234469722
 21
441.93824136874832
  0
LINE
  8
_0-3_03
  6
CONTINUOUS
 62
    3
 10
449.17992234469631
 20
441.93824136874832
 11
463.17992234469682
 21
441.93824136874832
  0
ARC
  8
_0-3_03
  6
CONTINUOUS
 62
    3
 10
449.17992234469631
 20
442.93824136874969
 40
1
 50
180
 51
270
  0
LINE
  8
_0-3_03
  6
CONTINUOUS
 62
    3
 10
466.17992234469722
 20
411.87241511995558
 11
466.17992234469722
 21
411.54328387598639
  0
LINE
  8
_0-3_03
  6
CONTINUOUS
 62
    3
 10
413.17992234469631
 20
411.87241511995558
 11
413.17992234469631
 21
411.54328387598639
  0
ARC
  8
_0-3_03
  6
CONTINUOUS
 62
    3
 10
415.44292162978752
 20
405.94520766463324
 40
6.0381804405335071
 50
82.989181300931861
 51
112.01081869907028
  0
LINE
  8
_0-3_03
  6
CONTINUOUS
 62
    3
 10
416.17992234469631
 20
411.93824136874957
 11
463.17992234469682
 21
411.93824136874957
  0
ARC
  8
_0-3_03
  6
CONTINUOUS
 62
    3
 10
463.94720318439141
 20
406.17520804700837
 40
5.8138862178799053
 50
67.416332593377319
 51
97.583667406617977
  0
LINE
  8
_0-3_03
  6
CONTINUOUS
 62
    3
 10
413.17992234469631
 20
414.93824136874969
 11
416.17992234469631
 21
414.93824136874969
  0
LINE
  8
_0-3_03
  6
CONTINUOUS
 62
    3
 10
413.17992234469631
 20
411.87241511995558
 11
413.17992234469631
 21
414.93824136874969
  0
ARC
  8
_0-3_03
  6
CONTINUOUS
 62
    3
 10
415.44292162978752
 20
406.27433890860004
 40
6.03818044053458
 50
82.989181300931861
 51
112.010818699067
  0
LINE
  8
_0-3_03
  6
CONTINUOUS
 62
    3
 10
463.17992234469682
 20
414.93824136874969
 11
466.17992234469722
 21
414.93824136874969
  0
ARC
  8
_0-3_03
  6
CONTINUOUS
 62
    3
 10
463.91692305960561
 20
406.27433890860004
 40
6.0381804405346271
 50
67.989181300933012
 51
97.010818699068153
  0
LINE
  8
_0-3_03
  6
CONTINUOUS
 62
    3
 10
466.17992234469722
 20
414.93824136874969
 11
466.17992234469722
 21
411.87241511995558
  0
LINE
  8
_0-3_03
  6
CONTINUOUS
 62
    3
 10
416.17992234469631
 20
412.26737261271751
 11
463.17992234469682
 21
412.26737261271751
  0
LINE
  8
_0-3_03
  6
CONTINUOUS
 62
    3
 10
416.17992234469631
 20
414.93824136874969
 11
463.17992234469682
 21
414.93824136874969
  0
ARC
  8
_0-3_03
  6
CONTINUOUS
 62
    3
 10
447.17992234469631
 20
428.43824136874957
 40
1
 50
270
 51
0
  0
LINE
  8
_0-3_03
  6
CONTINUOUS
 62
    3
 10
447.17992234469631
 20
427.43824136874832
 11
414.17992234469631
 21
427.43824136874832
  0
ARC
  8
_0-3_03
  6
CONTINUOUS
 62
    3
 10
414.17992234469631
 20
428.43824136874957
 40
1
 50
180
 51
270
  0
LINE
  8
_0-3_03
  6
CONTINUOUS
 62
    3
 10
413.17992234469631
 20
428.43824136874957
 11
413.17992234469631
 21
441.7619143880404
  0
ARC
  8
_0-3_03
  6
CONTINUOUS
 62
    3
 10
414.17992234469631
 20
441.7619143880404
 40
1
 50
160.00000000000941
 51
180
  0
ARC
  8
_0-3_03
  6
CONTINUOUS
 62
    3
 10
447.17992234469631
 20
445.43824136874832
 40
1
 50
0
 51
90
  0
LINE
  8
_0-3_03
  6
CONTINUOUS
 62
    3
 10
413.24022972391032
 20
442.10393453136635
 11
414.57830331631823
 21
445.78026151207428
  0
LINE
  8
_0-3_03
  6
CONTINUOUS
 62
    3
 10
415.51799593710422
 20
446.43824136874832
 11
447.17992234469631
 21
446.43824136874832
  0
LINE
  8
_0-3_03
  6
CONTINUOUS
 62
    3
 10
448.17992234469631
 20
445.43824136874832
 11
448.17992234469631
 21
428.43824136874957
  0
ARC
  8
_0-3_03
  6
CONTINUOUS
 62
    3
 10
415.51799593710422
 20
445.43824136874832
 40
1
 50
90
 51
160.00000000000938
  0
LINE
  8
_0-2_02
  6
CONTINUOUS
 62
    2
 10
441.97992234469649
 20
402.31112371873326
 11
441.97992234469649
 21
402.21428440063232
  0
LINE
  8
_0-2_02
  6
CONTINUOUS
 62
    2
 10
439.97992234469649
 20
402.21428440063232
 11
439.97992234469649
 21
402.31112371873326
  0
LINE
  8
_0-2_02
  6
CONTINUOUS
 62
    2
 10
439.97992234469649
 20
402.31112371873326
 11
439.97992234469649
 21
402.84893210789664
  0
LINE
  8
_0-2_02
  6
CONTINUOUS
 62
    2
 10
441.97992234469649
 20
402.84893210789664
 11
441.97992234469649
 21
402.31112371873326
  0
LINE
  8
_0-2_02
  6
CONTINUOUS
 62
    2
 10
441.97992234469649
 20
402.91349165329643
 11
441.97992234469649
 21
402.84893210789664
  0
LINE
  8
_0-2_02
  6
CONTINUOUS
 62
    2
 10
439.97992234469649
 20
402.84893210789664
 11
439.97992234469649
 21
402.91349165329643
  0
LINE
  8
_0-2_02
  6
CONTINUOUS
 62
    2
 10
439.97992234469649
 20
400.1382413687495
 11
439.97992234469649
 21
400.18477152080618
  0
LINE
  8
_0-2_02
  6
CONTINUOUS
 62
    2
 10
441.97992234469649
 20
400.18477152080618
 11
441.97992234469649
 21
400.1382413687495
  0
LINE
  8
_0-2_02
  6
CONTINUOUS
 62
    2
 10
439.97992234469649
 20
400.18477152080618
 11
439.97992234469649
 21
400.9439380266133
  0
LINE
  8
_0-2_02
  6
CONTINUOUS
 62
    2
 10
441.97992234469649
 20
400.9439380266133
 11
441.97992234469649
 21
400.18477152080618
  0
LINE
  8
_0-2_02
  6
CONTINUOUS
 62
    2
 10
439.97992234469649
 20
400.9439380266133
 11
439.97992234469649
 21
402.3034044680096
  0
LINE
  8
_0-2_02
  6
CONTINUOUS
 62
    2
 10
441.97992234469649
 20
402.3034044680096
 11
441.97992234469649
 21
400.9439380266133
  0
LINE
  8
_0-2_02
  6
CONTINUOUS
 62
    2
 10
439.97992234469649
 20
402.3034044680096
 11
439.97992234469649
 21
402.81304940747998
  0
LINE
  8
_0-2_02
  6
CONTINUOUS
 62
    2
 10
441.97992234469649
 20
402.81304940747998
 11
441.97992234469649
 21
402.3034044680096
  0
LINE
  8
_0-2_02
  6
CONTINUOUS
 62
    2
 10
441.97992234469649
 20
402.30508736271508
 11
441.97992234469649
 21
402.05823148998445
  0
LINE
  8
_0-2_02
  6
CONTINUOUS
 62
    2
 10
439.97992234469649
 20
402.05823148998445
 11
439.97992234469649
 21
402.30508736271508
  0
LINE
  8
_0-2_02
  6
CONTINUOUS
 62
    2
 10
441.97992234469649
 20
402.98729968529256
 11
441.97992234469649
 21
402.30508736271508
  0
LINE
  8
_0-2_02
  6
CONTINUOUS
 62
    2
 10
439.97992234469649
 20
402.30508736271508
 11
439.97992234469649
 21
402.98729968529256
  0
LINE
  8
_0-2_02
  6
CONTINUOUS
 62
    2
 10
429.97992234469649
 20
402.13555441858045
 11
429.97992234469649
 21
402.23879973461339
  0
LINE
  8
_0-2_02
  6
CONTINUOUS
 62
    2
 10
431.97992234469649
 20
402.23879973461339
 11
431.97992234469649
 21
402.13555441858045
  0
LINE
  8
_0-2_02
  6
CONTINUOUS
 62
    2
 10
431.97992234469649
 20
402.79360355604217
 11
431.97992234469649
 21
402.23879973461339
  0
LINE
  8
_0-2_02
  6
CONTINUOUS
 62
    2
 10
429.97992234469649
 20
402.23879973461339
 11
429.97992234469649
 21
402.79360355604217
  0
LINE
  8
_0-2_02
  6
CONTINUOUS
 62
    2
 10
431.97992234469649
 20
402.86243376673133
 11
431.97992234469649
 21
402.79360355604217
  0
LINE
  8
_0-2_02
  6
CONTINUOUS
 62
    2
 10
429.97992234469649
 20
402.79360355604217
 11
429.97992234469649
 21
402.86243376673133
  0
LINE
  8
_0-2_02
  6
CONTINUOUS
 62
    2
 10
429.97992234469649
 20
400.1382413687445
 11
429.97992234469649
 21
400.19881388905844
  0
LINE
  8
_0-2_02
  6
CONTINUOUS
 62
    2
 10
431.97992234469649
 20
400.19881388905844
 11
431.97992234469649
 21
400.1382413687445
  0
LINE
  8
_0-2_02
  6
CONTINUOUS
 62
    2
 10
429.97992234469649
 20
400.19881388905844
 11
429.97992234469649
 21
400.97238199572143
  0
LINE
  8
_0-2_02
  6
CONTINUOUS
 62
    2
 10
431.97992234469649
 20
400.97238199572143
 11
431.97992234469649
 21
400.19881388905844
  0
LINE
  8
_0-2_02
  6
CONTINUOUS
 62
    2
 10
429.97992234469649
 20
400.97238199572143
 11
429.97992234469649
 21
402.34212125104125
  0
LINE
  8
_0-2_02
  6
CONTINUOUS
 62
    2
 10
431.97992234469649
 20
402.34212125104125
 11
431.97992234469649
 21
400.97238199572143
  0
LINE
  8
_0-2_02
  6
CONTINUOUS
 62
    2
 10
431.97992234469649
 20
402.86243376673133
 11
431.97992234469649
 21
402.34212125104125
  0
LINE
  8
_0-2_02
  6
CONTINUOUS
 62
    2
 10
429.97992234469649
 20
402.34212125104125
 11
429.97992234469649
 21
402.86243376673133
  0
LINE
  8
_0-2_02
  6
CONTINUOUS
 62
    2
 10
431.97992234469649
 20
402.39235181070012
 11
431.97992234469649
 21
402.13555441858045
  0
LINE
  8
_0-2_02
  6
CONTINUOUS
 62
    2
 10
429.97992234469649
 20
402.13555441858045
 11
429.97992234469649
 21
402.39235181070012
  0
LINE
  8
_0-2_02
  6
CONTINUOUS
 62
    2
 10
431.97992234469649
 20
402.98729968529256
 11
431.97992234469649
 21
402.39235181070012
  0
LINE
  8
_0-2_02
  6
CONTINUOUS
 62
    2
 10
429.97992234469649
 20
402.39235181070012
 11
429.97992234469649
 21
402.98729968529256
  0
LINE
  8
_0-2_02
  6
CONTINUOUS
 62
    2
 10
451.97992234469649
 20
402.23879973461749
 11
451.97992234469649
 21
402.13555441858318
  0
LINE
  8
_0-2_02
  6
CONTINUOUS
 62
    2
 10
449.9799223446974
 20
402.13555441858318
 11
449.9799223446974
 21
402.23879973461749
  0
LINE
  8
_0-2_02
  6
CONTINUOUS
 62
    2
 10
449.9799223446974
 20
402.23879973461749
 11
449.9799223446974
 21
402.79360355604763
  0
LINE
  8
_0-2_02
  6
CONTINUOUS
 62
    2
 10
451.97992234469649
 20
402.79360355604763
 11
451.97992234469649
 21
402.23879973461749
  0
LINE
  8
_0-2_02
  6
CONTINUOUS
 62
    2
 10
451.97992234469649
 20
402.86243376673667
 11
451.97992234469649
 21
402.79360355604763
  0
LINE
  8
_0-2_02
  6
CONTINUOUS
 62
    2
 10
449.9799223446974
 20
402.79360355604763
 11
449.9799223446974
 21
402.86243376673667
  0
LINE
  8
_0-2_02
  6
CONTINUOUS
 62
    2
 10
449.9799223446974
 20
400.1382413687495
 11
449.9799223446974
 21
400.19881388906128
  0
LINE
  8
_0-2_02
  6
CONTINUOUS
 62
    2
 10
451.97992234469649
 20
400.19881388906128
 11
451.97992234469649
 21
400.1382413687495
  0
LINE
  8
_0-2_02
  6
CONTINUOUS
 62
    2
 10
449.9799223446974
 20
400.19881388906128
 11
449.9799223446974
 21
400.97238199572644
  0
LINE
  8
_0-2_02
  6
CONTINUOUS
 62
    2
 10
451.97992234469649
 20
400.97238199572644
 11
451.97992234469649
 21
400.19881388906128
  0
LINE
  8
_0-2_02
  6
CONTINUOUS
 62
    2
 10
449.9799223446974
 20
400.97238199572644
 11
449.9799223446974
 21
402.34212125104546
  0
LINE
  8
_0-2_02
  6
CONTINUOUS
 62
    2
 10
451.97992234469649
 20
402.34212125104546
 11
451.97992234469649
 21
400.97238199572644
  0
LINE
  8
_0-2_02
  6
CONTINUOUS
 62
    2
 10
451.97992234469649
 20
402.86243376673667
 11
451.97992234469649
 21
402.34212125104546
  0
LINE
  8
_0-2_02
  6
CONTINUOUS
 62
    2
 10
449.9799223446974
 20
402.34212125104546
 11
449.9799223446974
 21
402.86243376673667
  0
LINE
  8
_0-2_02
  6
CONTINUOUS
 62
    2
 10
451.97992234469649
 20
402.39235181070558
 11
451.97992234469649
 21
402.13555441858318
  0
LINE
  8
_0-2_02
  6
CONTINUOUS
 62
    2
 10
449.9799223446974
 20
402.13555441858318
 11
449.9799223446974
 21
402.39235181070558
  0
LINE
  8
_0-2_02
  6
CONTINUOUS
 62
    2
 10
449.9799223446974
 20
402.39235181070558
 11
449.9799223446974
 21
402.98729968529256
  0
LINE
  8
_0-2_02
  6
CONTINUOUS
 62
    2
 10
451.97992234469649
 20
402.98729968529256
 11
451.97992234469649
 21
402.39235181070558
  0
LINE
  8
_0-2_02
  6
CONTINUOUS
 62
    2
 10
461.97992234469649
 20
402.23879973461749
 11
461.97992234469649
 21
402.13555441858318
  0
LINE
  8
_0-2_02
  6
CONTINUOUS
 62
    2
 10
459.97992234469649
 20
402.13555441858318
 11
459.97992234469649
 21
402.23879973461749
  0
LINE
  8
_0-2_02
  6
CONTINUOUS
 62
    2
 10
461.97992234469649
 20
402.79360355604763
 11
461.97992234469649
 21
402.23879973461749
  0
LINE
  8
_0-2_02
  6
CONTINUOUS
 62
    2
 10
459.97992234469649
 20
402.23879973461749
 11
459.97992234469649
 21
402.79360355604763
  0
LINE
  8
_0-0_0
  6
CONTINUOUS
 62
    7
 10
459.97992234469649
 20
402.79360355604763
 11
459.97992234469649
 21
402.86243376673667
  0
LINE
  8
_0-0_0
  6
CONTINUOUS
 62
    7
 10
461.97992234469649
 20
402.86243376673667
 11
461.97992234469649
 21
402.79360355604763
  0
LINE
  8
_0-2_02
  6
CONTINUOUS
 62
    2
 10
459.97992234469649
 20
400.1382413687495
 11
459.97992234469649
 21
400.19881388906128
  0
LINE
  8
_0-2_02
  6
CONTINUOUS
 62
    2
 10
461.97992234469649
 20
400.19881388906128
 11
461.97992234469649
 21
400.1382413687495
  0
LINE
  8
_0-2_02
  6
CONTINUOUS
 62
    2
 10
461.97992234469649
 20
400.97238199572644
 11
461.97992234469649
 21
400.19881388906128
  0
LINE
  8
_0-2_02
  6
CONTINUOUS
 62
    2
 10
459.97992234469649
 20
400.19881388906128
 11
459.97992234469649
 21
400.97238199572644
  0
LINE
  8
_0-2_02
  6
CONTINUOUS
 62
    2
 10
461.97992234469649
 20
402.34212125104546
 11
461.97992234469649
 21
400.97238199572644
  0
LINE
  8
_0-2_02
  6
CONTINUOUS
 62
    2
 10
459.97992234469649
 20
400.97238199572644
 11
459.97992234469649
 21
402.34212125104546
  0
LINE
  8
_0-2_02
  6
CONTINUOUS
 62
    2
 10
461.97992234469649
 20
402.86243376673667
 11
461.97992234469649
 21
402.34212125104546
  0
LINE
  8
_0-2_02
  6
CONTINUOUS
 62
    2
 10
459.97992234469649
 20
402.34212125104546
 11
459.97992234469649
 21
402.86243376673667
  0
LINE
  8
_0-2_02
  6
CONTINUOUS
 62
    2
 10
461.97992234469649
 20
402.39235181070558
 11
461.97992234469649
 21
402.13555441858318
  0
LINE
  8
_0-2_02
  6
CONTINUOUS
 62
    2
 10
459.97992234469649
 20
402.13555441858318
 11
459.97992234469649
 21
402.39235181070558
  0
LINE
  8
_0-2_02
  6
CONTINUOUS
 62
    2
 10
461.97992234469649
 20
402.98729968529256
 11
461.97992234469649
 21
402.39235181070558
  0
LINE
  8
_0-2_02
  6
CONTINUOUS
 62
    2
 10
459.97992234469649
 20
402.39235181070558
 11
459.97992234469649
 21
402.98729968529256
  0
LINE
  8
_0-2_02
  6
CONTINUOUS
 62
    2
 10
429.97992234469649
 20
402.93824136874969
 11
425.29083504817152
 21
402.93824136874969
  0
LINE
  8
_0-2_02
  6
CONTINUOUS
 62
    2
 10
424.80759450974062
 20
398.93824136874969
 11
430.93531908098822
 21
398.93824136874969
  0
LINE
  8
_0-2_02
  6
CONTINUOUS
 62
    2
 10
436.13677659418852
 20
392.43824136874969
 11
433.53677659418952
 21
392.43824136874969
  0
LINE
  8
_0-2_02
  6
CONTINUOUS
 62
    2
 10
430.83758483118243
 20
392.9382413687506
 11
421.86540560871919
 21
392.9382413687506
  0
LINE
  8
_0-2_02
  6
CONTINUOUS
 62
    2
 10
436.49443908067428
 20
392.9382413687506
 11
436.33677659418828
 21
392.9382413687506
  0
LINE
  8
_0-2_02
  6
CONTINUOUS
 62
    2
 10
433.43063181716332
 20
392.9382413687506
 11
430.83758483118243
 21
392.9382413687506
  0
LINE
  8
_0-4_04
  6
CONTINUOUS
 62
    4
 10
412.67992234469631
 20
403.88668091238355
 11
412.67992234469631
 21
404.93824136874969
  0
LINE
  8
_0-4_04
  6
CONTINUOUS
 62
    4
 10
466.67992234469722
 20
404.93824136874969
 11
466.67992234469722
 21
403.88668091238355
  0
LINE
  8
_0-4_04
  6
CONTINUOUS
 62
    4
 10
466.67992234469722
 20
405.9382413687506
 11
466.67992234469722
 21
403.88668091238219
  0
LINE
  8
_0-4_04
  6
CONTINUOUS
 62
    4
 10
412.67992234469631
 20
403.88668091238219
 11
412.67992234469631
 21
405.9382413687506
  0
LINE
  8
_0-4_04
  6
CONTINUOUS
 62
    4
 10
468.67992234469722
 20
405.9382413687506
 11
466.17992234469722
 21
405.9382413687506
  0
ARC
  8
_0-4_04
  6
CONTINUOUS
 62
    4
 10
468.67992234469722
 20
406.43824136874969
 40
0.5
 50
270
 51
0
  0
LINE
  8
_0-4_04
  6
CONTINUOUS
 62
    4
 10
466.17992234469722
 20
405.9382413687506
 11
413.17992234469631
 21
405.9382413687506
  0
ARC
  8
_0-4_04
  6
CONTINUOUS
 62
    4
 10
410.67992234469631
 20
406.43824136874969
 40
0.5
 50
180
 51
270
  0
LINE
  8
_0-4_04
  6
CONTINUOUS
 62
    4
 10
413.17992234469631
 20
405.9382413687506
 11
410.67992234469631
 21
405.9382413687506
  0
LINE
  8
_0-4_04
  6
CONTINUOUS
 62
    4
 10
410.17992234469631
 20
410.93824136874969
 11
413.17992234469631
 21
410.93824136874969
  0
LINE
  8
_0-4_04
  6
CONTINUOUS
 62
    4
 10
410.17992234469631
 20
406.43824136874969
 11
410.17992234469631
 21
410.93824136874969
  0
LINE
  8
_0-4_04
  6
CONTINUOUS
 62
    4
 10
466.17992234469722
 20
410.93824136874969
 11
413.17992234469631
 21
410.93824136874969
  0
LINE
  8
_0-4_04
  6
CONTINUOUS
 62
    4
 10
469.17992234469682
 20
410.93824136874969
 11
469.17992234469682
 21
406.43824136874969
  0
LINE
  8
_0-4_04
  6
CONTINUOUS
 62
    4
 10
466.17992234469722
 20
410.93824136874969
 11
469.17992234469682
 21
410.93824136874969
  0
LINE
  8
_0-2_02
  6
CONTINUOUS
 62
    2
 10
440.17992234469631
 20
399.93824136874832
 11
441.77992234469622
 21
399.93824136874832
  0
ARC
  8
_0-2_02
  6
CONTINUOUS
 62
    2
 10
440.17992234469631
 20
400.1382413687495
 40
0.2000000000000455
 50
180.00000000002603
 51
270
  0
ARC
  8
_0-2_02
  6
CONTINUOUS
 62
    2
 10
441.77992234469622
 20
400.1382413687495
 40
0.2000000000000455
 50
270
 51
359.99999999997402
  0
LINE
  8
_0-2_02
  6
CONTINUOUS
 62
    2
 10
430.17992234469631
 20
399.93824136874423
 11
431.77992234469622
 21
399.93824136874423
  0
ARC
  8
_0-2_02
  6
CONTINUOUS
 62
    2
 10
430.17992234469631
 20
400.1382413687445
 40
0.200000000000017
 50
180
 51
270
  0
ARC
  8
_0-2_02
  6
CONTINUOUS
 62
    2
 10
431.77992234469622
 20
400.1382413687445
 40
0.1999999999999886
 50
270
 51
0
  0
LINE
  8
_0-2_02
  6
CONTINUOUS
 62
    2
 10
450.17992234469631
 20
399.93824136874832
 11
451.77992234469622
 21
399.93824136874832
  0
ARC
  8
_0-2_02
  6
CONTINUOUS
 62
    2
 10
450.17992234469631
 20
400.1382413687495
 40
0.2000000000000455
 50
180.00000000002603
 51
270
  0
ARC
  8
_0-2_02
  6
CONTINUOUS
 62
    2
 10
451.77992234469622
 20
400.1382413687495
 40
0.2000000000000455
 50
270
 51
359.99999999997402
  0
LINE
  8
_0-2_02
  6
CONTINUOUS
 62
    2
 10
460.17992234469631
 20
399.93824136874832
 11
461.77992234469758
 21
399.93824136874832
  0
ARC
  8
_0-2_02
  6
CONTINUOUS
 62
    2
 10
460.17992234469631
 20
400.1382413687495
 40
0.2000000000000455
 50
180
 51
270
  0
ARC
  8
_0-2_02
  6
CONTINUOUS
 62
    2
 10
461.77992234469758
 20
400.1382413687495
 40
0.2000000000000455
 50
270
 51
0
  0
LINE
  8
_0-0_0
  6
CONTINUOUS
 62
    7
 10
418.20844276708368
 20
402.98729968529256
 11
418.20844276708368
 21
402.61938711661855
  0
LINE
  8
_0-2_02
  6
CONTINUOUS
 62
    2
 10
426.94879387291422
 20
400.11087707474121
 11
426.90477622072859
 21
401.05179627552354
  0
LINE
  8
_0-2_02
  6
CONTINUOUS
 62
    2
 10
426.90477622072859
 20
401.05179627552354
 11
426.88127314024251
 21
401.98203174015657
  0
LINE
  8
_0-2_02
  6
CONTINUOUS
 62
    2
 10
426.88690970723371
 20
401.98178325406445
 11
426.8898001759265
 21
402.19992523290625
  0
LINE
  8
_0-2_02
  6
CONTINUOUS
 62
    2
 10
426.8898001759265
 20
402.19992523290625
 11
426.90660435648653
 21
402.33101164459924
  0
ARC
  8
_0-2_02
  6
CONTINUOUS
 62
    2
 10
370.27000837879251
 20
402.13171390428727
 40
47.928291092501929
 50
355.0726547573388
 51
0.5831948021786822
  0
ARC
  8
_0-2_02
  6
CONTINUOUS
 62
    2
 10
428.66047993883132
 20
402.10625023251635
 40
1.7709987956516451
 50
151.9795682621899
 51
175.1654580203527
  0
ARC
  8
_0-2_02
  6
CONTINUOUS
 62
    2
 10
428.63890579988248
 20
400.11153515701358
 40
1.689280667693541
 50
180.03436806282545
 51
223.99155275090391
  0
ARC
  8
_0-2_02
  6
CONTINUOUS
 62
    2
 10
419.87713698325962
 20
394.80913744071154
 40
1.0000000000000111
 50
220.8714094657885
 51
224.09863127663499
  0
ARC
  8
_0-2_02
  6
CONTINUOUS
 62
    2
 10
422.91576600629128
 20
397.31445306510864
 40
4.9239662262838833
 50
171.83471125132689
 51
219.75046702406252
  0
ARC
  8
_0-2_02
  6
CONTINUOUS
 62
    2
 10
421.71661122937422
 20
396.31441240433935
 40
3.3582280753184812
 50
220.58402041746979
 51
270.81418242552161
  0
ARC
  8
_0-2_02
  6
CONTINUOUS
 62
    2
 10
435.19608746801327
 20
397.3831659195655
 40
5.1656814483179181
 50
321.41127007786622
 51
7.0118597667925622
  0
LINE
  8
_0-2_02
  6
CONTINUOUS
 62
    2
 10
440.33441817641761
 20
398.01345343678463
 11
440.22436634314528
 21
399.67239886836126
  0
LINE
  8
_0-2_02
  6
CONTINUOUS
 62
    2
 10
440.22436634314528
 20
399.67239886836126
 11
440.21581377081321
 21
399.93824136874832
  0
ARC
  8
_0-2_02
  6
CONTINUOUS
 62
    2
 10
433.53677659418952
 20
392.63824136873859
 40
0.200000000000017
 50
180
 51
270
  0
ARC
  8
_0-2_02
  6
CONTINUOUS
 62
    2
 10
436.13677659418852
 20
392.63824136873859
 40
0.1999999999999886
 50
270
 51
0
  0
LINE
  8
_0-2_02
  6
CONTINUOUS
 62
    2
 10
433.33677659418828
 20
392.9382413687506
 11
433.33677659418828
 21
392.63824136873859
  0
LINE
  8
_0-2_02
  6
CONTINUOUS
 62
    2
 10
436.33677659418828
 20
392.63824136873859
 11
436.33677659418828
 21
393.20809582666038
  0
ARC
  8
_0-2_02
  6
CONTINUOUS
 62
    2
 10
429.87993389465362
 20
400.02863394938345
 40
1.515087789387191
 50
310.86298762865567
 51
356.5796102020974
  0
LINE
  8
_0-4_04
  6
CONTINUOUS
 62
    4
 10
415.67992234469631
 20
402.98729968529256
 11
463.67992234469722
 21
402.98729968529256
  0
LINE
  8
_0-4_04
  6
CONTINUOUS
 62
    4
 10
463.67992234469722
 20
402.98729968529256
 11
463.96101062123648
 21
402.99001932949955
  0
LINE
  8
_0-4_04
  6
CONTINUOUS
 62
    4
 10
463.96101062123648
 20
402.99001932949955
 11
464.47931328192851
 21
403.0089745062362
  0
LINE
  8
_0-4_04
  6
CONTINUOUS
 62
    4
 10
464.47931328192851
 20
403.0089745062362
 11
464.96001561174239
 21
403.04504642091911
  0
LINE
  8
_0-4_04
  6
CONTINUOUS
 62
    4
 10
464.96001561174239
 20
403.04504642091911
 11
465.39560117107408
 21
403.09662450957762
  0
LINE
  8
_0-4_04
  6
CONTINUOUS
 62
    4
 10
465.39560117107408
 20
403.09662450957762
 11
465.78017215712799
 21
403.16440173684418
  0
LINE
  8
_0-4_04
  6
CONTINUOUS
 62
    4
 10
465.78017215712799
 20
403.16440173684418
 11
466.10475108396059
 21
403.25138887335447
  0
LINE
  8
_0-4_04
  6
CONTINUOUS
 62
    4
 10
466.10475108396059
 20
403.25138887335447
 11
466.36295197685223
 21
403.36690698314635
  0
LINE
  8
_0-4_04
  6
CONTINUOUS
 62
    4
 10
466.36295197685223
 20
403.36690698314635
 11
466.53165812047092
 21
403.50515414420011
  0
LINE
  8
_0-4_04
  6
CONTINUOUS
 62
    4
 10
466.53165812047092
 20
403.50515414420011
 11
466.64089193498222
 21
403.68204898491672
  0
LINE
  8
_0-4_04
  6
CONTINUOUS
 62
    4
 10
466.64089193498222
 20
403.68204898491672
 11
466.67506774504938
 21
403.88713677738519
  0
LINE
  8
_0-4_04
  6
CONTINUOUS
 62
    4
 10
412.67992234469631
 20
403.8844794883305
 11
412.69674262571641
 21
403.7514189297674
  0
LINE
  8
_0-4_04
  6
CONTINUOUS
 62
    4
 10
412.69674262571641
 20
403.7514189297674
 11
412.7841658686915
 21
403.56088336619928
  0
LINE
  8
_0-4_04
  6
CONTINUOUS
 62
    4
 10
412.7841658686915
 20
403.56088336619928
 11
412.9033130396154
 21
403.43292633293754
  0
LINE
  8
_0-4_04
  6
CONTINUOUS
 62
    4
 10
412.9033130396154
 20
403.43292633293754
 11
413.04523233865331
 21
403.33947131933314
  0
LINE
  8
_0-4_04
  6
CONTINUOUS
 62
    4
 10
413.04523233865331
 20
403.33947131933314
 11
413.2420813228162
 21
403.25564345041835
  0
LINE
  8
_0-4_04
  6
CONTINUOUS
 62
    4
 10
413.2420813228162
 20
403.25564345041835
 11
413.57315334909919
 21
403.16575483098563
  0
LINE
  8
_0-4_04
  6
CONTINUOUS
 62
    4
 10
413.57315334909919
 20
403.16575483098563
 11
413.94593827070707
 21
403.09917229317227
  0
LINE
  8
_0-4_04
  6
CONTINUOUS
 62
    4
 10
413.94593827070707
 20
403.09917229317227
 11
414.41019789171452
 21
403.0438784003843
  0
LINE
  8
_0-4_04
  6
CONTINUOUS
 62
    4
 10
414.41019789171452
 20
403.0438784003843
 11
414.91566873865418
 21
403.00706280183863
  0
LINE
  8
_0-4_04
  6
CONTINUOUS
 62
    4
 10
414.91566873865418
 20
403.00706280183863
 11
415.44286635320833
 21
402.98920465187553
  0
LINE
  8
_0-4_04
  6
CONTINUOUS
 62
    4
 10
415.44286635320833
 20
402.98920465187553
 11
415.67993704722431
 21
402.98962359309428
  0
LINE
  8
_0-3_03
  6
CONTINUOUS
 62
    3
 10
216.65329896947361
 20
286.55424852038749
 11
208.93739839935034
 21
286.55424852038749
  0
LINE
  8
_0-3_03
  6
CONTINUOUS
 62
    3
 10
232.99046478155634
 20
286.55424852038749
 11
223.32763059363862
 21
286.55424852038749
  0
ARC
  8
_0-3_03
  6
CONTINUOUS
 62
    3
 10
232.94547770725541
 20
289.59921678900741
 40
3.0453005752719768
 50
270.84643968180461
 51
0.8221398873766234
  0
ARC
  8
_0-3_03
  6
CONTINUOUS
 62
    3
 10
255.55888881017631
 20
294.5495217070108
 40
55.915391475438518
 50
110.48516786647458
 51
111.79147841775142
  0
LINE
  8
_0-3_03
  6
CONTINUOUS
 62
    3
 10
234.59208380993442
 20
356.94881564547427
 11
234.59208380993442
 21
347.44881564547421
  0
ARC
  8
_0-3_03
  6
CONTINUOUS
 62
    3
 10
233.62126990122653
 20
347.41957120086431
 40
0.9712542833276772
 50
271.83620679766028
 51
1.7254354149073245
  0
ARC
  8
_0-3_03
  6
CONTINUOUS
 62
    3
 10
233.62126990122653
 20
356.97806009008423
 40
0.9712542833277403
 50
358.27456458509272
 51
88.163793202336436
  0
CIRCLE
  8
_0-4_04
  6
CONTINUOUS
 62
    4
 10
228.99046478155634
 20
342.94881564547421
 40
3.1427483482355609
  0
LINE
  8
_0-3_03
  6
CONTINUOUS
 62
    3
 10
182.09046478155625
 20
339.79881564547418
 11
182.99046478155634
 21
339.79881564547418
  0
LINE
  8
_0-3_03
  6
CONTINUOUS
 62
    3
 10
182.09046478155625
 20
339.79881564547418
 11
182.09046478155625
 21
349.44881564547421
  0
LINE
  8
_0-3_03
  6
CONTINUOUS
 62
    3
 10
182.09046478155625
 20
349.44881564547421
 11
182.99046478155634
 21
349.44881564547421
  0
LINE
  8
_0-3_03
  6
CONTINUOUS
 62
    3
 10
182.99046478155634
 20
311.94881564547421
 11
182.09046478155625
 21
311.94881564547421
  0
LINE
  8
_0-3_03
  6
CONTINUOUS
 62
    3
 10
182.99046478155634
 20
327.0988156454743
 11
182.09046478155625
 21
327.0988156454743
  0
LINE
  8
_0-3_03
  6
CONTINUOUS
 62
    3
 10
182.09046478155625
 20
311.94881564547421
 11
182.09046478155625
 21
327.0988156454743
  0
LINE
  8
_0-3_03
  6
CONTINUOUS
 62
    3
 10
206.99046478155634
 20
279.44881564547421
 11
206.99046478155634
 21
278.54881564547406
  0
LINE
  8
_0-3_03
  6
CONTINUOUS
 62
    3
 10
185.99046478155634
 20
279.44881564547421
 11
185.99046478155634
 21
278.54881564547406
  0
LINE
  8
_0-3_03
  6
CONTINUOUS
 62
    3
 10
206.99046478155634
 20
278.54881564547406
 11
185.99046478155634
 21
278.54881564547406
  0
LINE
  8
_0-3_03
  6
CONTINUOUS
 62
    3
 10
232.99046478155634
 20
278.54881564547406
 11
232.99046478155634
 21
279.44881564547421
  0
LINE
  8
_0-3_03
  6
CONTINUOUS
 62
    3
 10
217.99046478155634
 20
278.54881564547406
 11
217.99046478155634
 21
279.44881564547421
  0
LINE
  8
_0-3_03
  6
CONTINUOUS
 62
    3
 10
232.99046478155634
 20
278.54881564547406
 11
217.99046478155634
 21
278.54881564547406
  0
LINE
  8
_0-3_03
  6
CONTINUOUS
 62
    3
 10
236.8904647815564
 20
335.99881564547439
 11
235.99046478155628
 21
335.99881564547439
  0
LINE
  8
_0-3_03
  6
CONTINUOUS
 62
    3
 10
236.8904647815564
 20
348.69881564547427
 11
236.8904647815564
 21
335.99881564547439
  0
LINE
  8
_0-3_03
  6
CONTINUOUS
 62
    3
 10
236.8904647815564
 20
309.44881564547421
 11
235.99046478155628
 21
309.44881564547421
  0
LINE
  8
_0-3_03
  6
CONTINUOUS
 62
    3
 10
235.99046478155628
 20
330.89881564547449
 11
236.8904647815564
 21
330.89881564547449
  0
LINE
  8
_0-3_03
  6
CONTINUOUS
 62
    3
 10
236.8904647815564
 20
330.89881564547449
 11
236.8904647815564
 21
309.44881564547421
  0
LINE
  8
_0-3_03
  6
CONTINUOUS
 62
    3
 10
182.99046478155634
 20
282.47470252721416
 11
182.99046478155634
 21
282.89820792232621
  0
LINE
  8
_0-3_03
  6
CONTINUOUS
 62
    3
 10
184.99046478155634
 20
280.14258235603643
 11
184.99046478155634
 21
279.6218690163052
  0
ARC
  8
_0-3_03
  6
CONTINUOUS
 62
    3
 10
186.01624383496056
 20
282.46847313681809
 40
3.0257854658455861
 50
179.88204119728891
 51
250.18327918255659
  0
LINE
  8
_0-3_03
  6
CONTINUOUS
 62
    3
 10
235.99046478155628
 20
282.89820792232621
 11
235.99046478155628
 21
282.47470252721416
  0
LINE
  8
_0-3_03
  6
CONTINUOUS
 62
    3
 10
233.99046478155634
 20
279.6218690163052
 11
233.99046478155634
 21
280.14258235603643
  0
ARC
  8
_0-3_03
  6
CONTINUOUS
 62
    3
 10
232.96805719535433
 20
282.4661095448393
 40
3.0224198014962882
 50
289.77178289528933
 51
0.1628967248697379
  0
LINE
  8
_0-3_03
  6
CONTINUOUS
 62
    3
 10
206.99046478155634
 20
279.9754256358234
 11
206.99046478155634
 21
279.44881564547421
  0
LINE
  8
_0-3_03
  6
CONTINUOUS
 62
    3
 10
185.99046478155634
 20
279.9754256358234
 11
185.99046478155634
 21
279.44881564547421
  0
LINE
  8
_0-3_03
  6
CONTINUOUS
 62
    3
 10
206.99046478155634
 20
279.44881564547421
 11
185.99046478155634
 21
279.44881564547421
  0
LINE
  8
_0-3_03
  6
CONTINUOUS
 62
    3
 10
232.99046478155634
 20
279.44881564547421
 11
232.99046478155634
 21
279.9754256358234
  0
LINE
  8
_0-3_03
  6
CONTINUOUS
 62
    3
 10
217.99046478155634
 20
279.9754256358234
 11
217.99046478155634
 21
279.44881564547421
  0
LINE
  8
_0-3_03
  6
CONTINUOUS
 62
    3
 10
232.99046478155634
 20
279.44881564547421
 11
217.99046478155634
 21
279.44881564547421
  0
LINE
  8
_0-3_03
  6
CONTINUOUS
 62
    3
 10
182.99046478155634
 20
350.44881564547427
 11
182.99046478155634
 21
352.94881564547427
  0
LINE
  8
_0-3_03
  6
CONTINUOUS
 62
    3
 10
200.99046478155634
 20
355.94881564547416
 11
185.99046478155634
 21
355.94881564547416
  0
ARC
  8
_0-3_03
  6
CONTINUOUS
 62
    3
 10
185.99046478155634
 20
352.94881564547427
 40
3.0000000000000551
 50
90
 51
180
  0
LINE
  8
_0-3_03
  6
CONTINUOUS
 62
    3
 10
182.99046478155634
 20
286.69881564547421
 11
182.99046478155634
 21
284.19881564547421
  0
LINE
  8
_0-3_03
  6
CONTINUOUS
 62
    3
 10
235.99046478155628
 20
286.69881564547421
 11
235.99046478155628
 21
284.19881564547421
  0
LINE
  8
_0-3_03
  6
CONTINUOUS
 62
    3
 10
235.99046478155628
 20
330.39881564547449
 11
235.99046478155628
 21
336.49881564547439
  0
LINE
  8
_0-3_03
  6
CONTINUOUS
 62
    3
 10
182.99046478155634
 20
330.89881564547449
 11
182.99046478155634
 21
328.77611494936332
  0
LINE
  8
_0-3_03
  6
CONTINUOUS
 62
    3
 10
182.99046478155634
 20
334.94881564547421
 11
182.99046478155634
 21
331.89881564547449
  0
LINE
  8
_0-3_03
  6
CONTINUOUS
 62
    3
 10
182.99046478155634
 20
330.89881564547449
 11
182.99046478155634
 21
331.89881564547449
  0
LINE
  8
_0-3_03
  6
CONTINUOUS
 62
    3
 10
180.99046478155634
 20
300.94881564547427
 11
182.99046478155634
 21
300.94881564547427
  0
LINE
  8
_0-3_03
  6
CONTINUOUS
 62
    3
 10
180.99046478155634
 20
310.94881564547427
 11
182.99046478155634
 21
310.94881564547427
  0
LINE
  8
_0-3_03
  6
CONTINUOUS
 62
    3
 10
180.99046478155634
 20
310.94881564547427
 11
180.99046478155634
 21
300.94881564547427
  0
LINE
  8
_0-3_03
  6
CONTINUOUS
 62
    3
 10
216.99046478155634
 20
284.5317748219274
 11
216.99046478155634
 21
277.44881564547421
  0
LINE
  8
_0-3_03
  6
CONTINUOUS
 62
    3
 10
207.99046478155634
 20
284.5317748219274
 11
207.99046478155634
 21
277.44881564547421
  0
LINE
  8
_0-3_03
  6
CONTINUOUS
 62
    3
 10
216.99046478155634
 20
277.44881564547421
 11
207.99046478155634
 21
277.44881564547421
  0
LINE
  8
_0-3_03
  6
CONTINUOUS
 62
    3
 10
235.99046478155628
 20
308.44881564547421
 11
237.99046478155628
 21
308.44881564547421
  0
LINE
  8
_0-3_03
  6
CONTINUOUS
 62
    3
 10
237.99046478155628
 20
308.44881564547421
 11
237.99046478155628
 21
304.94881564547427
  0
LINE
  8
_0-3_03
  6
CONTINUOUS
 62
    3
 10
235.99046478155628
 20
355.94881564547416
 11
235.99046478155628
 21
355.69881564547416
  0
LINE
  8
_0-3_03
  6
CONTINUOUS
 62
    3
 10
235.99046478155628
 20
348.69881564547427
 11
235.99046478155628
 21
348.44881564547427
  0
LINE
  8
_0-3_03
  6
CONTINUOUS
 62
    3
 10
182.99046478155634
 20
282.89820792232621
 11
182.99046478155634
 21
284.19881564547421
  0
LINE
  8
_0-3_03
  6
CONTINUOUS
 62
    3
 10
182.99046478155634
 20
284.87945648619336
 11
182.99046478155634
 21
289.44881564547421
  0
LINE
  8
_0-3_03
  6
CONTINUOUS
 62
    3
 10
184.99046478155634
 20
284.71748396388352
 11
184.99046478155634
 21
280.14258235603643
  0
ARC
  8
_0-3_03
  6
CONTINUOUS
 62
    3
 10
185.92476906292023
 20
282.92428999705021
 40
2.9344201966065282
 50
180.5092701044689
 51
251.43411997858689
  0
ARC
  8
_0-3_03
  6
CONTINUOUS
 62
    3
 10
185.99239277686348
 20
287.32739345728959
 40
2.7956193001811611
 50
248.99851511727951
 51
269.9604860351439
  0
LINE
  8
_0-3_03
  6
CONTINUOUS
 62
    3
 10
206.99046478155634
 20
284.5317748219274
 11
206.99046478155634
 21
279.9754256358234
  0
LINE
  8
_0-3_03
  6
CONTINUOUS
 62
    3
 10
206.99046478155634
 20
284.5317748219274
 11
207.99046478155634
 21
284.5317748219274
  0
LINE
  8
_0-3_03
  6
CONTINUOUS
 62
    3
 10
216.99046478155634
 20
284.5317748219274
 11
207.99046478155634
 21
284.5317748219274
  0
LINE
  8
_0-3_03
  6
CONTINUOUS
 62
    3
 10
216.99046478155634
 20
284.5317748219274
 11
217.99046478155634
 21
284.5317748219274
  0
LINE
  8
_0-3_03
  6
CONTINUOUS
 62
    3
 10
217.99046478155634
 20
284.5317748219274
 11
217.99046478155634
 21
279.9754256358234
  0
LINE
  8
_0-3_03
  6
CONTINUOUS
 62
    3
 10
232.99046478155634
 20
279.9754256358234
 11
217.99046478155634
 21
279.9754256358234
  0
LINE
  8
_0-3_03
  6
CONTINUOUS
 62
    3
 10
232.99046478155634
 20
279.9754256358234
 11
232.99046478155634
 21
284.5317748219274
  0
LINE
  8
_0-3_03
  6
CONTINUOUS
 62
    3
 10
185.99046478155634
 20
279.9754256358234
 11
185.99046478155634
 21
284.5317748219274
  0
LINE
  8
_0-3_03
  6
CONTINUOUS
 62
    3
 10
206.99046478155634
 20
279.9754256358234
 11
185.99046478155634
 21
279.9754256358234
  0
LINE
  8
_0-3_03
  6
CONTINUOUS
 62
    3
 10
235.99046478155628
 20
289.64291245348363
 11
235.99046478155628
 21
284.87945648619336
  0
LINE
  8
_0-3_03
  6
CONTINUOUS
 62
    3
 10
235.99046478155628
 20
284.19881564547421
 11
235.99046478155628
 21
282.89820792232621
  0
LINE
  8
_0-3_03
  6
CONTINUOUS
 62
    3
 10
233.99046478155634
 20
280.14258235603643
 11
233.99046478155634
 21
284.71748396388352
  0
ARC
  8
_0-3_03
  6
CONTINUOUS
 62
    3
 10
232.9885367862492
 20
287.32739345728959
 40
2.7956193001811398
 50
270.03951396485934
 51
291.00148488272328
  0
ARC
  8
_0-3_03
  6
CONTINUOUS
 62
    3
 10
233.06604514188058
 20
282.91711584261634
 40
2.924480763891653
 50
288.4270522850511
 51
359.6295576319082
  0
LINE
  8
_0-3_03
  6
CONTINUOUS
 62
    3
 10
235.99046478155628
 20
290.44881564547421
 11
235.99046478155628
 21
289.64291245348363
  0
LINE
  8
_0-3_03
  6
CONTINUOUS
 62
    3
 10
235.99046478155628
 20
306.94881564547427
 11
235.99046478155628
 21
304.94881564547427
  0
LINE
  8
_0-3_03
  6
CONTINUOUS
 62
    3
 10
182.99046478155634
 20
336.92381564547418
 11
182.99046478155634
 21
340.9738156454743
  0
ARC
  8
_0-3_03
  6
CONTINUOUS
 62
    3
 10
183.99046478155634
 20
334.94881564547421
 40
1
 50
180
 51
270
  0
LINE
  8
_0-3_03
  6
CONTINUOUS
 62
    3
 10
182.99046478155634
 20
340.9738156454743
 11
182.99046478155634
 21
350.44881564547427
  0
ARC
  8
_0-3_03
  6
CONTINUOUS
 62
    3
 10
183.49046478155634
 20
340.9738156454743
 40
0.5
 50
180
 51
270
  0
ARC
  8
_0-3_03
  6
CONTINUOUS
 62
    3
 10
183.49046478155634
 20
336.92381564547418
 40
0.5
 50
90
 51
180
  0
ARC
  8
_0-3_03
  6
CONTINUOUS
 62
    3
 10
183.99046478155634
 20
326.44881564547421
 40
1
 50
90
 51
180
  0
LINE
  8
_0-3_03
  6
CONTINUOUS
 62
    3
 10
182.99046478155634
 20
334.94881564547421
 11
182.99046478155634
 21
336.92381564547418
  0
LINE
  8
_0-3_03
  6
CONTINUOUS
 62
    3
 10
182.99046478155634
 20
289.44881564547421
 11
182.99046478155634
 21
326.44881564547421
  0
ARC
  8
_0-3_03
  6
CONTINUOUS
 62
    3
 10
185.99046478155634
 20
350.44881564547427
 40
3
 50
90
 51
180
  0
LINE
  8
_0-3_03
  6
CONTINUOUS
 62
    3
 10
184.99046478155634
 20
327.44881564547421
 11
184.99046478155634
 21
333.94881564547427
  0
LINE
  8
_0-3_03
  6
CONTINUOUS
 62
    3
 10
184.99046478155634
 20
337.42381564547418
 11
184.99046478155634
 21
340.4738156454743
  0
LINE
  8
_0-3_03
  6
CONTINUOUS
 62
    3
 10
184.99046478155634
 20
340.4738156454743
 11
183.49046478155634
 21
340.4738156454743
  0
LINE
  8
_0-3_03
  6
CONTINUOUS
 62
    3
 10
184.99046478155634
 20
340.4738156454743
 11
185.99046478155634
 21
341.47381564547436
  0
LINE
  8
_0-3_03
  6
CONTINUOUS
 62
    3
 10
183.49046478155634
 20
337.42381564547418
 11
184.99046478155634
 21
337.42381564547418
  0
LINE
  8
_0-3_03
  6
CONTINUOUS
 62
    3
 10
184.99046478155634
 20
337.42381564547418
 11
185.99046478155634
 21
336.42381564547406
  0
LINE
  8
_0-3_03
  6
CONTINUOUS
 62
    3
 10
185.99046478155634
 20
326.44881564547421
 11
184.99046478155634
 21
327.44881564547421
  0
LINE
  8
_0-3_03
  6
CONTINUOUS
 62
    3
 10
183.99046478155634
 20
327.44881564547421
 11
184.99046478155634
 21
327.44881564547421
  0
LINE
  8
_0-3_03
  6
CONTINUOUS
 62
    3
 10
184.99046478155634
 20
333.94881564547427
 11
183.99046478155634
 21
333.94881564547427
  0
LINE
  8
_0-3_03
  6
CONTINUOUS
 62
    3
 10
185.99046478155634
 20
334.94881564547421
 11
184.99046478155634
 21
333.94881564547427
  0
ARC
  8
_0-3_03
  6
CONTINUOUS
 62
    3
 10
185.99046478155634
 20
289.44881564547421
 40
3
 50
180
 51
270
  0
ARC
  8
_0-3_03
  6
CONTINUOUS
 62
    7
 10
189.8064640218343
 20
300.30248699630943
 40
0.6666905838397039
 50
324.43140554865607
 51
70.708395559732622
  0
ARC
  8
_0-3_03
  6
CONTINUOUS
 62
    7
 10
188.65235864250627
 20
300.86423273765718
 40
1.944073915587726
 50
267.86480636924762
 51
330.7625433342057
  0
ARC
  8
_0-3_03
  6
CONTINUOUS
 62
    7
 10
188.50114013542344
 20
299.74125820221866
 40
0.8235270616976366
 50
171.70683823272171
 51
275.48990272693209
  0
ARC
  8
_0-3_03
  6
CONTINUOUS
 62
    7
 10
189.03652436870453
 20
299.48823961824951
 40
1.4005521681049711
 50
119.66724282911142
 51
164.60520362172721
  0
ARC
  8
_0-3_03
  6
CONTINUOUS
 62
    7
 10
189.86379918263339
 20
301.61809116053541
 40
0.4354123309262059
 50
269.5871965658406
 51
332.44364519801883
  0
CIRCLE
  8
_0-3_03
  6
CONTINUOUS
 62
    3
 10
192.49046478155634
 20
347.94881564547421
 40
3.25
  0
ARC
  8
_0-3_03
  6
CONTINUOUS
 62
    7
 10
193.18355480833435
 20
296.35112678770543
 40
4.6316704976876908
 50
80.440386397493569
 51
102.35650120222139
  0
ARC
  8
_0-3_03
  6
CONTINUOUS
 62
    7
 10
192.63493789830437
 20
300.19228970565132
 40
1.275579555392061
 50
269.651870798782
 51
314.72454057862018
  0
ARC
  8
_0-3_03
  6
CONTINUOUS
 62
    7
 10
193.09278851673963
 20
300.92520125179146
 40
2.1938940580644402
 50
257.92435080888191
 51
298.91508885566668
  0
ARC
  8
_0-3_03
  6
CONTINUOUS
 62
    7
 10
-109.37968407886751
 20
437.55676057137839
 40
337.2479248623664
 50
335.69636882467279
 51
335.93785182119262
  0
ARC
  8
_0-3_03
  6
CONTINUOUS
 62
    7
 10
196.90781616844544
 20
293.59923630420519
 40
7.3665841903611922
 50
82.613254679697079
 51
99.343930296804317
  0
ARC
  8
_0-3_03
  6
CONTINUOUS
 62
    7
 10
86.269158973937294
 20
349.20900859603137
 40
121.6353724872568
 50
335.5022017891331
 51
336.2041468146906
  0
LINE
  8
_0-3_03
  6
CONTINUOUS
 62
    3
 10
185.99046478155634
 20
353.44881564547416
 11
199.99046478155634
 21
353.44881564547416
  0
ARC
  8
_0-3_03
  6
CONTINUOUS
 62
    7
 10
-253.05546043544632
 20
504.29552702737124
 40
498.90348065809951
 50
335.66949108064347
 51
335.93595058071315
  0
ARC
  8
_0-3_03
  6
CONTINUOUS
 62
    7
 10
202.45190099180428
 20
300.8734935370473
 40
0.037777124768961
 50
345.18310737712682
 51
96.178342567598875
  0
ARC
  8
_0-3_03
  6
CONTINUOUS
 62
    7
 10
201.51770288999552
 20
300.84769545602353
 40
0.0634401580211269
 50
87.044682806664412
 51
156.1149500743349
  0
ARC
  8
_0-3_03
  6
CONTINUOUS
 62
    7
 10
51.707345554127471
 20
367.0973234149244
 40
163.74179899031009
 50
335.42491282780549
 51
336.14388112574198
  0
ARC
  8
_0-3_03
  6
CONTINUOUS
 62
    7
 10
200.55619217615214
 20
299.03241427432863
 40
0.0690794790394898
 50
267.12686989818008
 51
331.54366405037342
  0
ARC
  8
_0-3_03
  6
CONTINUOUS
 62
    7
 10
199.33172101651627
 20
300.8493104373394
 40
0.0618348175431814
 50
86.840118036017287
 51
154.93681487961661
  0
ARC
  8
_0-3_03
  6
CONTINUOUS
 62
    7
 10
201.48021777640344
 20
298.77848272854237
 40
0.065059301957315
 50
266.64286027306389
 51
331.55091732599737
  0
ARC
  8
_0-3_03
  6
CONTINUOUS
 62
    7
 10
205.55622977852028
 20
300.73446936715732
 40
0.0659091080114296
 50
268.21305177071338
 51
330.50245531478691
  0
ARC
  8
_0-3_03
  6
CONTINUOUS
 62
    7
 10
202.02611122755962
 20
298.89301953808047
 40
0.0631507977087047
 50
85.717331504121361
 51
151.0050571550189
  0
CIRCLE
  8
_0-3_03
  6
CONTINUOUS
 62
    3
 10
203.99046478155634
 20
290.94881564547421
 40
3.250000000000028
  0
LINE
  8
_0-3_03
  6
CONTINUOUS
 62
    3
 10
208.49046478155634
 20
286.44881564547421
 11
185.99046478155634
 21
286.44881564547421
  0
LINE
  8
_0-3_03
  6
CONTINUOUS
 62
    3
 10
209.49046478155543
 20
295.44881564547421
 11
209.49046478155543
 21
287.44881564547421
  0
ARC
  8
_0-3_03
  6
CONTINUOUS
 62
    3
 10
208.49046478155634
 20
287.44881564547421
 40
1
 50
270
 51
0
  0
ARC
  8
_0-3_03
  6
CONTINUOUS
 62
    3
 10
219.99046478155634
 20
295.44881564547421
 40
10.5
 50
90
 51
180
  0
LINE
  8
_0-3_03
  6
CONTINUOUS
 62
    3
 10
230.99046478155543
 20
335.99881564547439
 11
230.99046478155543
 21
330.89881564547449
  0
LINE
  8
_0-3_03
  6
CONTINUOUS
 62
    3
 10
234.99046478155634
 20
305.94881564547421
 11
219.99046478155634
 21
305.94881564547421
  0
LINE
  8
_0-3_03
  6
CONTINUOUS
 62
    3
 10
235.49046478155628
 20
335.99881564547439
 11
230.99046478155543
 21
335.99881564547439
  0
LINE
  8
_0-3_03
  6
CONTINUOUS
 62
    3
 10
229.99046478155634
 20
336.99881564547439
 11
230.99046478155543
 21
335.99881564547439
  0
LINE
  8
_0-3_03
  6
CONTINUOUS
 62
    3
 10
230.99046478155543
 20
330.89881564547449
 11
235.49046478155628
 21
330.89881564547449
  0
LINE
  8
_0-3_03
  6
CONTINUOUS
 62
    3
 10
229.99046478155634
 20
329.89881564547449
 11
230.99046478155543
 21
330.89881564547449
  0
LINE
  8
_0-3_03
  6
CONTINUOUS
 62
    3
 10
235.99046478155628
 20
330.39881564547449
 11
235.99046478155628
 21
306.94881564547427
  0
LINE
  8
_0-3_03
  6
CONTINUOUS
 62
    3
 10
235.99046478155628
 20
346.24571853602419
 11
235.99046478155628
 21
336.49881564547439
  0
ARC
  8
_0-3_03
  6
CONTINUOUS
 62
    3
 10
234.99046478155634
 20
306.94881564547427
 40
1
 50
270
 51
0
  0
ARC
  8
_0-3_03
  6
CONTINUOUS
 62
    3
 10
235.49046478155628
 20
336.49881564547439
 40
0.5
 50
270
 51
0
  0
ARC
  8
_0-3_03
  6
CONTINUOUS
 62
    3
 10
235.49046478155628
 20
330.39881564547449
 40
0.5
 50
0
 51
90
  0
LINE
  8
_0-3_03
  6
CONTINUOUS
 62
    3
 10
198.39046478155643
 20
334.69881564547421
 11
198.39046478155643
 21
332.19881564547427
  0
LINE
  8
_0-3_03
  6
CONTINUOUS
 62
    3
 10
207.09046478155625
 20
334.69881564547421
 11
198.39046478155643
 21
334.69881564547421
  0
LINE
  8
_0-3_03
  6
CONTINUOUS
 62
    3
 10
207.09046478155625
 20
332.19881564547427
 11
207.09046478155625
 21
334.69881564547421
  0
LINE
  8
_0-3_03
  6
CONTINUOUS
 62
    3
 10
198.39046478155643
 20
332.19881564547427
 11
207.09046478155625
 21
332.19881564547427
  0
LINE
  8
_0-3_03
  6
CONTINUOUS
 62
    3
 10
191.69046478155616
 20
325.62381564547348
 11
194.19046478155616
 21
325.62381564547348
  0
LINE
  8
_0-3_03
  6
CONTINUOUS
 62
    3
 10
191.69046478155616
 20
328.67381564547418
 11
191.69046478155616
 21
325.62381564547348
  0
LINE
  8
_0-3_03
  6
CONTINUOUS
 62
    3
 10
194.19046478155616
 20
328.67381564547418
 11
191.69046478155616
 21
328.67381564547418
  0
LINE
  8
_0-3_03
  6
CONTINUOUS
 62
    3
 10
194.19046478155616
 20
325.62381564547348
 11
194.19046478155616
 21
328.67381564547418
  0
LINE
  8
_0-3_03
  6
CONTINUOUS
 62
    3
 10
221.19046478155616
 20
337.42381564547418
 11
221.19046478155616
 21
340.4738156454743
  0
LINE
  8
_0-3_03
  6
CONTINUOUS
 62
    3
 10
219.19046478155616
 20
337.42381564547418
 11
221.19046478155616
 21
337.42381564547418
  0
LINE
  8
_0-3_03
  6
CONTINUOUS
 62
    3
 10
219.19046478155616
 20
340.4738156454743
 11
219.19046478155616
 21
337.42381564547418
  0
LINE
  8
_0-3_03
  6
CONTINUOUS
 62
    3
 10
221.19046478155616
 20
340.4738156454743
 11
219.19046478155616
 21
340.4738156454743
  0
ARC
  8
_0-3_03
  6
CONTINUOUS
 62
    3
 10
185.99046478155634
 20
297.44881564547421
 40
1
 50
180
 51
270
  0
LINE
  8
_0-3_03
  6
CONTINUOUS
 62
    3
 10
184.99046478155634
 20
302.44881564547421
 11
184.99046478155634
 21
297.44881564547421
  0
ARC
  8
_0-3_03
  6
CONTINUOUS
 62
    3
 10
185.99046478155634
 20
302.44881564547421
 40
1
 50
90
 51
180
  0
LINE
  8
_0-3_03
  6
CONTINUOUS
 62
    3
 10
206.49046478155634
 20
303.44881564547421
 11
185.99046478155634
 21
303.44881564547421
  0
ARC
  8
_0-3_03
  6
CONTINUOUS
 62
    3
 10
206.49046478155634
 20
302.44881564547421
 40
1
 50
0
 51
90
  0
LINE
  8
_0-3_03
  6
CONTINUOUS
 62
    3
 10
207.49046478155634
 20
297.44881564547421
 11
207.49046478155634
 21
302.44881564547421
  0
ARC
  8
_0-3_03
  6
CONTINUOUS
 62
    3
 10
206.49046478155634
 20
297.44881564547421
 40
1
 50
270
 51
0
  0
LINE
  8
_0-3_03
  6
CONTINUOUS
 62
    3
 10
185.99046478155634
 20
296.44881564547427
 11
206.49046478155634
 21
296.44881564547427
  0
LINE
  8
_0-3_03
  6
CONTINUOUS
 62
    3
 10
226.89046478155643
 20
328.67381564547418
 11
224.89046478155643
 21
328.67381564547418
  0
LINE
  8
_0-3_03
  6
CONTINUOUS
 62
    3
 10
226.89046478155643
 20
325.62381564547348
 11
226.89046478155643
 21
328.67381564547418
  0
LINE
  8
_0-3_03
  6
CONTINUOUS
 62
    3
 10
224.89046478155643
 20
325.62381564547348
 11
226.89046478155643
 21
325.62381564547348
  0
LINE
  8
_0-3_03
  6
CONTINUOUS
 62
    3
 10
224.89046478155643
 20
328.67381564547418
 11
224.89046478155643
 21
325.62381564547348
  0
LINE
  8
_0-3_03
  6
CONTINUOUS
 62
    3
 10
235.99046478155628
 20
355.94881564547416
 11
235.9301574023423
 21
355.94881564547416
  0
LINE
  8
_0-3_03
  6
CONTINUOUS
 62
    3
 10
235.99046478155628
 20
356.94881564547427
 11
235.99046478155628
 21
355.94881564547416
  0
LINE
  8
_0-3_03
  6
CONTINUOUS
 62
    3
 10
235.9301574023423
 20
348.44881564547427
 11
235.99046478155628
 21
348.44881564547427
  0
LINE
  8
_0-3_03
  6
CONTINUOUS
 62
    3
 10
235.99046478155628
 20
348.44881564547427
 11
235.99046478155628
 21
347.10679550214866
  0
ARC
  8
_0-3_03
  6
CONTINUOUS
 62
    3
 10
234.99046478155634
 20
356.94881564547427
 40
1.000000000000026
 50
0
 51
90
  0
CIRCLE
  8
_0-3_03
  6
CONTINUOUS
 62
    3
 10
228.99046478155634
 20
342.94881564547421
 40
3.25
  0
ARC
  8
_0-3_03
  6
CONTINUOUS
 62
    3
 10
199.99046478155634
 20
354.44881564547416
 40
1
 50
270
 51
0
  0
LINE
  8
_0-3_03
  6
CONTINUOUS
 62
    3
 10
233.65239118914843
 20
357.94881564547416
 11
234.99046478155634
 21
357.94881564547416
  0
LINE
  8
_0-3_03
  6
CONTINUOUS
 62
    3
 10
235.9301574023423
 20
355.94881564547416
 11
235.26252431302311
 21
355.94881564547416
  0
LINE
  8
_0-3_03
  6
CONTINUOUS
 62
    3
 10
235.26252431302311
 20
348.44881564547427
 11
235.9301574023423
 21
348.44881564547427
  0
LINE
  8
_0-3_03
  6
CONTINUOUS
 62
    3
 10
235.08053919588997
 20
348.94881564547427
 11
235.08330395873756
 21
348.86199155664082
  0
LINE
  8
_0-3_03
  6
CONTINUOUS
 62
    3
 10
235.08330395873756
 20
348.86199155664082
 11
235.09151424136024
 21
348.77780557381146
  0
LINE
  8
_0-3_03
  6
CONTINUOUS
 62
    3
 10
235.09151424136024
 20
348.77780557381146
 11
235.10492057847512
 21
348.69881564547427
  0
LINE
  8
_0-3_03
  6
CONTINUOUS
 62
    3
 10
235.10492057847512
 20
348.69881564547427
 11
235.12311562531292
 21
348.62742184063097
  0
LINE
  8
_0-3_03
  6
CONTINUOUS
 62
    3
 10
235.12311562531292
 20
348.62742184063097
 11
235.14554653458256
 21
348.56579342391478
  0
LINE
  8
_0-3_03
  6
CONTINUOUS
 62
    3
 10
235.14554653458256
 20
348.56579342391478
 11
235.17153175445654
 21
348.51580294358206
  0
LINE
  8
_0-3_03
  6
CONTINUOUS
 62
    3
 10
235.17153175445654
 20
348.51580294358206
 11
235.2002817371781
 21
348.47896933508133
  0
LINE
  8
_0-3_03
  6
CONTINUOUS
 62
    3
 10
235.2002817371781
 20
348.47896933508133
 11
235.23092292907043
 21
348.45641176896817
  0
LINE
  8
_0-3_03
  6
CONTINUOUS
 62
    3
 10
235.23092292907043
 20
348.45641176896817
 11
235.26252431302311
 21
348.44881564547427
  0
LINE
  8
_0-3_03
  6
CONTINUOUS
 62
    3
 10
235.08053919589048
 20
355.44881564547416
 11
235.08053919589048
 21
348.94881564547427
  0
LINE
  8
_0-3_03
  6
CONTINUOUS
 62
    3
 10
235.26252431302311
 20
355.94881564547416
 11
235.23092292907043
 21
355.94121952198026
  0
LINE
  8
_0-3_03
  6
CONTINUOUS
 62
    3
 10
235.23092292907043
 20
355.94121952198026
 11
235.2002817371781
 21
355.91866195586709
  0
LINE
  8
_0-3_03
  6
CONTINUOUS
 62
    3
 10
235.2002817371781
 20
355.91866195586709
 11
235.17153175445654
 21
355.88182834736637
  0
LINE
  8
_0-3_03
  6
CONTINUOUS
 62
    3
 10
235.17153175445654
 20
355.88182834736637
 11
235.14554653458256
 21
355.83183786703364
  0
LINE
  8
_0-3_03
  6
CONTINUOUS
 62
    3
 10
235.14554653458256
 20
355.83183786703364
 11
235.12311562531292
 21
355.77020945031745
  0
LINE
  8
_0-3_03
  6
CONTINUOUS
 62
    3
 10
235.12311562531292
 20
355.77020945031745
 11
235.10492057847512
 21
355.69881564547416
  0
LINE
  8
_0-3_03
  6
CONTINUOUS
 62
    3
 10
235.10492057847512
 20
355.69881564547416
 11
235.09151424136024
 21
355.61982571713696
  0
LINE
  8
_0-3_03
  6
CONTINUOUS
 62
    3
 10
235.09151424136024
 20
355.61982571713696
 11
235.08330395873756
 21
355.53563973430761
  0
LINE
  8
_0-3_03
  6
CONTINUOUS
 62
    3
 10
235.08330395873756
 20
355.53563973430761
 11
235.08053919588997
 21
355.44881564547416
  0
ARC
  8
_0-3_03
  6
CONTINUOUS
 62
    3
 10
234.56259557227924
 20
347.8542535510116
 40
1.4054379331896061
 50
269.98863420589544
 51
279.78420581704358
  0
LINE
  8
_0-3_03
  6
CONTINUOUS
 62
    3
 10
235.99046478155628
 20
347.10679550214866
 11
235.99046478155628
 21
346.92898127741751
  0
LINE
  8
_0-3_03
  6
CONTINUOUS
 62
    3
 10
234.56231677481429
 20
346.44881564547427
 11
233.65239118914843
 21
346.44881564547427
  0
ARC
  8
_0-3_03
  6
CONTINUOUS
 62
    3
 10
201.99046478155634
 20
356.94881564547427
 40
1
 50
90
 51
180
  0
LINE
  8
_0-3_03
  6
CONTINUOUS
 62
    3
 10
200.99046478155634
 20
347.44881564547421
 11
200.99046478155634
 21
356.94881564547427
  0
ARC
  8
_0-3_03
  6
CONTINUOUS
 62
    3
 10
201.99046478155634
 20
347.44881564547421
 40
1
 50
180
 51
270
  0
LINE
  8
_0-3_03
  6
CONTINUOUS
 62
    3
 10
233.65239118914843
 20
346.44881564547427
 11
201.99046478155634
 21
346.44881564547427
  0
LINE
  8
_0-3_03
  6
CONTINUOUS
 62
    3
 10
215.99046478155634
 20
354.94881564547427
 11
215.99046478155634
 21
351.94881564547416
  0
LINE
  8
_0-3_03
  6
CONTINUOUS
 62
    3
 10
215.99046478155634
 20
354.94881564547427
 11
230.99046478155543
 21
354.94881564547427
  0
LINE
  8
_0-3_03
  6
CONTINUOUS
 62
    3
 10
230.99046478155543
 20
354.94881564547427
 11
230.99046478155543
 21
351.94881564547416
  0
LINE
  8
_0-3_03
  6
CONTINUOUS
 62
    3
 10
215.99046478155634
 20
351.94881564547416
 11
230.99046478155543
 21
351.94881564547416
  0
LINE
  8
_0-3_03
  6
CONTINUOUS
 62
    3
 10
201.99046478155634
 20
357.94881564547416
 11
233.65239118914843
 21
357.94881564547416
  0
LINE
  8
_0-4_04
  6
CONTINUOUS
 62
    4
 10
235.99046478155628
 20
284.44881564547421
 11
236.99046478155628
 21
284.44881564547421
  0
LINE
  8
_0-4_04
  6
CONTINUOUS
 62
    4
 10
235.99046478155628
 20
286.44881564547421
 11
236.99046478155628
 21
286.44881564547421
  0
LINE
  8
_0-4_04
  6
CONTINUOUS
 62
    4
 10
182.99046478155634
 20
286.44881564547421
 11
181.99046478155543
 21
286.44881564547421
  0
LINE
  8
_0-4_04
  6
CONTINUOUS
 62
    4
 10
182.99046478155634
 20
284.44881564547421
 11
181.99046478155543
 21
284.44881564547421
  0
LINE
  8
_0-4_04
  6
CONTINUOUS
 62
    4
 10
179.99046478155634
 20
279.44881564547421
 11
179.99046478155634
 21
353.44881564547416
  0
ARC
  8
_0-4_04
  6
CONTINUOUS
 62
    4
 10
182.99046478155634
 20
279.44881564547421
 40
3.0000000000000551
 50
180
 51
270
  0
LINE
  8
_0-4_04
  6
CONTINUOUS
 62
    4
 10
235.99046478155628
 20
276.44881564547421
 11
182.99046478155634
 21
276.44881564547421
  0
ARC
  8
_0-4_04
  6
CONTINUOUS
 62
    4
 10
235.99046478155628
 20
279.44881564547421
 40
2.999999999999984
 50
270
 51
0
  0
LINE
  8
_0-4_04
  6
CONTINUOUS
 62
    4
 10
238.99046478155628
 20
290.44881564547421
 11
238.99046478155628
 21
279.44881564547421
  0
LINE
  8
_0-4_04
  6
CONTINUOUS
 62
    4
 10
238.99046478155628
 20
348.69881564547427
 11
238.99046478155628
 21
304.94881564547427
  0
ARC
  8
_0-4_04
  6
CONTINUOUS
 62
    4
 10
235.99046478155628
 20
353.44881564547416
 40
3.000000000000028
 50
48.590377890730188
 51
90
  0
LINE
  8
_0-4_04
  6
CONTINUOUS
 62
    4
 10
182.99046478155634
 20
356.44881564547416
 11
200.99046478155634
 21
356.44881564547416
  0
ARC
  8
_0-4_04
  6
CONTINUOUS
 62
    4
 10
182.99046478155634
 20
353.44881564547416
 40
3.000000000000028
 50
90
 51
180
  0
LINE
  8
_0-4_04
  6
CONTINUOUS
 62
    4
 10
181.99046478155634
 20
353.44881564547416
 11
181.99046478155634
 21
310.94881564547427
  0
ARC
  8
_0-4_04
  6
CONTINUOUS
 62
    4
 10
182.99046478155634
 20
353.44881564547416
 40
1
 50
90
 51
180
  0
LINE
  8
_0-4_04
  6
CONTINUOUS
 62
    4
 10
183.39238857020274
 20
354.44881564547416
 11
182.99046478155634
 21
354.44881564547416
  0
LINE
  8
_0-4_04
  6
CONTINUOUS
 62
    4
 10
236.99046478155628
 20
308.94881564547427
 11
236.99046478155628
 21
348.69881564547427
  0
LINE
  8
_0-4_04
  6
CONTINUOUS
 62
    4
 10
236.99046478155628
 20
308.94881564547427
 11
235.99046478155628
 21
308.94881564547427
  0
LINE
  8
_0-4_04
  6
CONTINUOUS
 62
    4
 10
236.99046478155628
 20
286.44881564547421
 11
236.99046478155628
 21
290.44881564547421
  0
LINE
  8
_0-4_04
  6
CONTINUOUS
 62
    4
 10
236.99046478155628
 20
279.44881564547421
 11
236.99046478155628
 21
284.44881564547421
  0
ARC
  8
_0-4_04
  6
CONTINUOUS
 62
    4
 10
235.99046478155628
 20
279.44881564547421
 40
0.9999999999999854
 50
270
 51
0
  0
LINE
  8
_0-4_04
  6
CONTINUOUS
 62
    4
 10
216.99046478155634
 20
278.44881564547421
 11
235.99046478155628
 21
278.44881564547421
  0
LINE
  8
_0-4_04
  6
CONTINUOUS
 62
    4
 10
182.99046478155634
 20
278.44881564547421
 11
207.99046478155634
 21
278.44881564547421
  0
ARC
  8
_0-4_04
  6
CONTINUOUS
 62
    4
 10
182.99046478155634
 20
279.44881564547421
 40
1
 50
180
 51
270
  0
LINE
  8
_0-4_04
  6
CONTINUOUS
 62
    4
 10
181.99046478155543
 20
284.44881564547421
 11
181.99046478155634
 21
279.44881564547421
  0
LINE
  8
_0-4_04
  6
CONTINUOUS
 62
    4
 10
181.99046478155634
 20
300.94881564547427
 11
181.99046478155543
 21
286.44881564547421
  0
ARC
  8
_0-4_04
  6
CONTINUOUS
 62
    4
 10
203.99046478155634
 20
290.94881564547421
 40
1.237781662382843
 50
327.36515249003293
 51
359.8741747203336
  0
ARC
  8
_0-4_04
  6
CONTINUOUS
 62
    4
 10
203.99046478155634
 20
290.94881564547421
 40
1.2377816623829181
 50
237.36515249003179
 51
269.87417472034332
  0
ARC
  8
_0-4_04
  6
CONTINUOUS
 62
    4
 10
203.99046478155634
 20
290.94881564547421
 40
1.2377816623829361
 50
147.36515249003287
 51
179.87417472033349
  0
ARC
  8
_0-4_04
  6
CONTINUOUS
 62
    4
 10
203.99046478155634
 20
290.94881564547421
 40
1.237781662382899
 50
57.365152490037651
 51
89.874174720346545
  0
ARC
  8
_0-4_04
  6
CONTINUOUS
 62
    4
 10
192.49046478155634
 20
347.94881564547421
 40
1.237781662382845
 50
42.665699046332875
 51
75.174721276646679
  0
ARC
  8
_0-4_04
  6
CONTINUOUS
 62
    4
 10
192.49046478155634
 20
347.94881564547421
 40
1.237781662382887
 50
312.66569904632598
 51
345.17472127665599
  0
ARC
  8
_0-4_04
  6
CONTINUOUS
 62
    4
 10
192.49046478155634
 20
347.94881564547421
 40
1.237781662382887
 50
222.66569904633059
 51
255.1747212766399
  0
ARC
  8
_0-4_04
  6
CONTINUOUS
 62
    4
 10
192.49046478155634
 20
347.94881564547421
 40
1.2377816623829849
 50
132.66569904632831
 51
165.1747212766559
  0
ARC
  8
_0-4_04
  6
CONTINUOUS
 62
    4
 10
228.99046478155634
 20
342.94881564547421
 40
1.2377816623829141
 50
109.11243226508481
 51
141.62145449538909
  0
ARC
  8
_0-4_04
  6
CONTINUOUS
 62
    4
 10
228.99046478155634
 20
342.94881564547421
 40
1.2377816623829321
 50
19.11243226507451
 51
51.62145449540067
  0
ARC
  8
_0-4_04
  6
CONTINUOUS
 62
    4
 10
228.99046478155634
 20
342.94881564547421
 40
1.237781662382869
 50
289.11243226508481
 51
321.6214544953873
  0
ARC
  8
_0-4_04
  6
CONTINUOUS
 62
    4
 10
228.99046478155634
 20
342.94881564547421
 40
1.237781662382887
 50
199.11243226507449
 51
231.62145449540239
  0
LINE
  8
_0-1_01
  6
CONTINUOUS
 62
    1
 10
244.44316581846152
 20
355.69881564547416
 11
244.4904647815554
 21
355.69881564547416
  0
LINE
  8
_0-1_01
  6
CONTINUOUS
 62
    1
 10
244.4904647815554
 20
348.69881564547427
 11
244.44316581846152
 21
348.69881564547427
  0
LINE
  8
_0-1_01
  6
CONTINUOUS
 62
    1
 10
235.6694816079355
 20
355.69881564547416
 11
244.44316581846152
 21
355.69881564547416
  0
LINE
  8
_0-1_01
  6
CONTINUOUS
 62
    1
 10
244.44316581846152
 20
348.69881564547427
 11
235.6694816079355
 21
348.69881564547427
  0
LINE
  8
_0-1_01
  6
CONTINUOUS
 62
    1
 10
235.3904647815564
 20
348.69881564547427
 11
235.10492057847642
 21
348.69881564547427
  0
LINE
  8
_0-1_01
  6
CONTINUOUS
 62
    1
 10
235.10492057847642
 20
355.69881564547416
 11
235.3904647815564
 21
355.69881564547416
  0
LINE
  8
_0-1_01
  6
CONTINUOUS
 62
    1
 10
235.3904647815564
 20
355.69881564547416
 11
235.6694816079355
 21
355.69881564547416
  0
LINE
  8
_0-1_01
  6
CONTINUOUS
 62
    1
 10
235.6694816079355
 20
348.69881564547427
 11
235.3904647815564
 21
348.69881564547427
  0
LINE
  8
_0-1_01
  6
CONTINUOUS
 62
    1
 10
229.99046478155634
 20
354.69881564547427
 11
223.64597840868811
 21
354.69881564547427
  0
LINE
  8
_0-1_01
  6
CONTINUOUS
 62
    1
 10
229.99046478155634
 20
352.19881564547416
 11
223.64597840868811
 21
352.19881564547416
  0
LINE
  8
_0-1_01
  6
CONTINUOUS
 62
    1
 10
223.64597840868811
 20
354.69881564547427
 11
223.64597840868811
 21
352.19881564547416
  0
LINE
  8
_0-1_01
  6
CONTINUOUS
 62
    1
 10
230.99046478155543
 20
354.69881564547427
 11
229.99046478155634
 21
354.69881564547427
  0
LINE
  8
_0-1_01
  6
CONTINUOUS
 62
    1
 10
230.99046478155543
 20
352.19881564547416
 11
229.99046478155634
 21
352.19881564547416
  0
LINE
  8
_0-1_01
  6
CONTINUOUS
 62
    1
 10
229.99046478155634
 20
354.69881564547427
 11
229.99046478155634
 21
352.19881564547416
  0
ARC
  8
_0-4_04
  6
CONTINUOUS
 62
    4
 10
219.99046478155634
 20
295.44881564547421
 40
2.4984416697691421
 50
113.12536431986889
 51
137.18044416125389
  0
ARC
  8
_0-4_04
  6
CONTINUOUS
 62
    4
 10
141.09673092826262
 20
238.2284553369775
 40
98.044649053877464
 50
36.623758696056576
 51
37.376534158858817
  0
ARC
  8
_0-4_04
  6
CONTINUOUS
 62
    4
 10
180.05849719194049
 20
226.12414912330829
 40
81.003746212517953
 50
60.31623549715404
 51
60.631738462188409
  0
ARC
  8
_0-4_04
  6
CONTINUOUS
 62
    4
 10
234.22420083109347
 20
216.7222497326313
 40
81.003746202325758
 50
99.67407001891084
 51
99.989572983983663
  0
ARC
  8
_0-4_04
  6
CONTINUOUS
 62
    4
 10
274.98603635709361
 20
214.98840312916639
 40
98.044649054215142
 50
122.9292743222728
 51
123.68204978507291
  0
ARC
  8
_0-4_04
  6
CONTINUOUS
 62
    4
 10
219.99046478155634
 20
295.44881564547421
 40
2.4984416697691181
 50
23.125364319863429
 51
47.180444161257981
  0
ARC
  8
_0-4_04
  6
CONTINUOUS
 62
    4
 10
162.77010447187632
 20
374.34254950034324
 40
98.044649055847074
 50
306.62375869606285
 51
307.37653415884824
  0
ARC
  8
_0-4_04
  6
CONTINUOUS
 62
    4
 10
150.66579825965147
 20
335.3807832349396
 40
81.003746212216129
 50
330.31623549714487
 51
330.63173846218399
  0
ARC
  8
_0-4_04
  6
CONTINUOUS
 62
    4
 10
141.26389885421924
 20
281.21507959342637
 40
81.003746217036593
 50
9.6740700189380071
 51
9.9895729839538081
  0
ARC
  8
_0-4_04
  6
CONTINUOUS
 62
    4
 10
139.53005226526449
 20
240.45324406994831
 40
98.044649054196483
 50
32.929274322262913
 51
33.682049785054637
  0
ARC
  8
_0-4_04
  6
CONTINUOUS
 62
    4
 10
219.99046478155634
 20
295.44881564547421
 40
2.498441669769178
 50
293.12536431986888
 51
317.180444161254
  0
ARC
  8
_0-4_04
  6
CONTINUOUS
 62
    4
 10
298.88419863614109
 20
352.66917595494044
 40
98.04464905549149
 50
216.62375869605879
 51
217.376534158857
  0
ARC
  8
_0-4_04
  6
CONTINUOUS
 62
    4
 10
259.92243237462009
 20
364.77348217374333
 40
81.003746219527855
 50
240.31623549716824
 51
240.63173846218302
  0
ARC
  8
_0-4_04
  6
CONTINUOUS
 62
    4
 10
205.75672872881051
 20
374.17538157684135
 40
81.003746221126079
 50
279.67407001894628
 51
279.98957298394805
  0
ARC
  8
_0-4_04
  6
CONTINUOUS
 62
    4
 10
164.99489320602817
 20
375.9092281617684
 40
98.044649054199056
 50
302.92927432227287
 51
303.68204978507299
  0
ARC
  8
_0-4_04
  6
CONTINUOUS
 62
    4
 10
219.99046478155634
 20
295.44881564547421
 40
2.498441669769139
 50
203.12536431986337
 51
227.18044416125798
  0
ARC
  8
_0-4_04
  6
CONTINUOUS
 62
    4
 10
277.21082508909041
 20
216.5550817934483
 40
98.044649052284868
 50
126.62375869603672
 51
127.37653415885593
  0
ARC
  8
_0-4_04
  6
CONTINUOUS
 62
    4
 10
289.31513130250352
 20
255.51684805656231
 40
81.00374621110997
 50
150.31623549714672
 51
150.63173846218584
  0
ARC
  8
_0-4_04
  6
CONTINUOUS
 62
    4
 10
298.71703070553974
 20
309.68255169693043
 40
81.003746213629086
 50
189.6740700189124
 51
189.98957298395379
  0
ARC
  8
_0-4_04
  6
CONTINUOUS
 62
    4
 10
300.4508772953962
 20
350.44438721939116
 40
98.044649051262766
 50
212.92927432225929
 51
213.6820497850799
  0
CIRCLE
  8
_0-4_04
  6
CONTINUOUS
 62
    4
 10
203.99046478155634
 20
290.94881564547421
 40
3.1429781738967311
  0
CIRCLE
  8
_0-4_04
  6
CONTINUOUS
 62
    4
 10
192.49046478155634
 20
347.94881564547421
 40
3.1429781738966782
  0
ARC
  8
_0-1_01
  6
CONTINUOUS
 62
    1
 10
244.4904647815554
 20
355.19881564547427
 40
0.5
 50
0
 51
90
  0
ARC
  8
_0-1_01
  6
CONTINUOUS
 62
    1
 10
244.4904647815554
 20
349.19881564547421
 40
0.5
 50
270
 51
0
  0
LINE
  8
_0-1_01
  6
CONTINUOUS
 62
    1
 10
244.99046478155628
 20
349.19881564547421
 11
244.99046478155628
 21
355.19881564547427
  0
LINE
  8
_0-3_03
  6
CONTINUOUS
 62
    3
 10
303.63039290438269
 20
355.94881564547416
 11
303.63039290438269
 21
356.94881564547427
  0
LINE
  8
_0-3_03
  6
CONTINUOUS
 62
    3
 10
303.63039290438269
 20
347.44881564547421
 11
303.63039290438269
 21
348.44881564547427
  0
LINE
  8
_0-3_03
  6
CONTINUOUS
 62
    3
 10
303.63039290438269
 20
356.94881564547427
 11
303.63696472553261
 21
357.14390596749058
  0
LINE
  8
_0-3_03
  6
CONTINUOUS
 62
    3
 10
303.63696472553261
 20
357.14390596749058
 11
303.65642763758228
 21
357.33149907784059
  0
LINE
  8
_0-3_03
  6
CONTINUOUS
 62
    3
 10
303.65642763758228
 20
357.33149907784059
 11
303.6880336917373
 21
357.50438587849362
  0
LINE
  8
_0-3_03
  6
CONTINUOUS
 62
    3
 10
303.6880336917373
 20
357.50438587849362
 11
303.73056828505946
 21
357.65592242666048
  0
LINE
  8
_0-3_03
  6
CONTINUOUS
 62
    3
 10
303.73056828505946
 20
357.65592242666048
 11
303.7823968369824
 21
357.78028525777756
  0
LINE
  8
_0-3_03
  6
CONTINUOUS
 62
    3
 10
303.7823968369824
 20
357.78028525777756
 11
303.84152760532271
 21
357.87269517798654
  0
LINE
  8
_0-3_03
  6
CONTINUOUS
 62
    3
 10
303.84152760532271
 20
357.87269517798654
 11
303.90568822781029
 21
357.92960092587759
  0
LINE
  8
_0-3_03
  6
CONTINUOUS
 62
    3
 10
303.90568822781029
 20
357.92960092587759
 11
303.97241304770728
 21
357.94881564547416
  0
LINE
  8
_0-2_02
  6
CONTINUOUS
 62
    2
 10
345.71211714998731
 20
331.87729870283943
 11
345.71865822557663
 21
331.87665285017351
  0
LINE
  8
_0-2_02
  6
CONTINUOUS
 62
    2
 10
343.59614017874344
 20
341.53264007754359
 11
343.60181164273024
 21
341.5359623195252
  0
ARC
  8
_0-2_02
  6
CONTINUOUS
 62
    2
 10
343.11696334687008
 20
346.61693883501329
 40
46.571909669100712
 50
270.83553036702813
 51
273.29785092637292
  0
ARC
  8
_0-2_02
  6
CONTINUOUS
 62
    2
 10
343.6185508725946
 20
299.20091941474061
 40
0.8337942451122717
 50
89.501881378701299
 51
170.5440452523514
  0
ARC
  8
_0-2_02
  6
CONTINUOUS
 62
    2
 10
349.75837597775342
 20
293.90849646352137
 40
3.0399756639527542
 50
309.87786147949242
 51
357.78782873833671
  0
ARC
  8
_0-2_02
  6
CONTINUOUS
 62
    2
 10
347.04474550669539
 20
295.86346550359229
 40
6.3345817612047854
 50
276.81185042398545
 51
317.39803955925782
  0
LINE
  8
_0-2_02
  6
CONTINUOUS
 62
    2
 10
343.11494031913048
 20
289.22181685145927
 11
339.79608606699941
 21
289.22181685145927
  0
LINE
  8
_0-4_04
  6
CONTINUOUS
 62
    4
 10
327.39334745273419
 20
286.44881564547421
 11
327.39334745273419
 21
284.44881564547421
  0
LINE
  8
_0-3_03
  6
CONTINUOUS
 62
    3
 10
316.29608606699941
 20
349.69881564547421
 11
316.29608606699941
 21
349.44881564547421
  0
LINE
  8
_0-3_03
  6
CONTINUOUS
 62
    3
 10
316.29608606699941
 20
352.44881564547416
 11
316.29608606699941
 21
352.19881564547416
  0
LINE
  8
_0-3_03
  6
CONTINUOUS
 62
    3
 10
319.79608606699941
 20
284.5317748219274
 11
332.79608606699941
 21
277.44881564547421
  0
LINE
  8
_0-3_03
  6
CONTINUOUS
 62
    3
 10
332.79608606699941
 20
277.44881564547421
 11
334.29608606699941
 21
279.44881564547421
  0
LINE
  8
_0-3_03
  6
CONTINUOUS
 62
    3
 10
334.29608606699941
 20
279.44881564547421
 11
334.11730361385139
 21
279.5381790507501
  0
LINE
  8
_0-3_03
  6
CONTINUOUS
 62
    3
 10
303.79608606699941
 20
287.44881564547421
 11
303.79608606699941
 21
306.94881564547427
  0
LINE
  8
_0-3_03
  6
CONTINUOUS
 62
    3
 10
303.79608606699941
 20
329.89881564547449
 11
303.79608606699941
 21
336.99881564547439
  0
LINE
  8
_0-3_03
  6
CONTINUOUS
 62
    3
 10
303.79608606699941
 20
339.49881564547439
 11
303.79608606699941
 21
345.44881564547421
  0
LINE
  8
_0-3_03
  6
CONTINUOUS
 62
    3
 10
330.79608606699941
 20
279.9754256358234
 11
319.79608606699941
 21
284.5317748219274
  0
LINE
  8
_0-3_03
  6
CONTINUOUS
 62
    3
 10
334.79608606699941
 20
279.44881564547421
 11
330.79608606699941
 21
279.9754256358234
  0
ARC
  8
_0-3_03
  6
CONTINUOUS
 62
    3
 10
300.29608606699941
 20
356.94881564547427
 40
1
 50
90
 51
180
  0
ARC
  8
_0-3_03
  6
CONTINUOUS
 62
    3
 10
300.29608606699941
 20
347.44881564547421
 40
1
 50
180
 51
270
  0
LINE
  8
_0-3_03
  6
CONTINUOUS
 62
    3
 10
299.29608606699941
 20
347.44881564547421
 11
299.29608606699941
 21
356.94881564547427
  0
ARC
  8
_0-3_03
  6
CONTINUOUS
 62
    3
 10
319.29608606699941
 20
354.44881564547416
 40
1
 50
180
 51
270
  0
ARC
  8
_0-3_03
  6
CONTINUOUS
 62
    3
 10
302.79608606699941
 20
345.44881564547421
 40
1
 50
0
 51
90
  0
LINE
  8
_0-3_03
  6
CONTINUOUS
 62
    3
 10
303.63039290438269
 20
355.94881564547416
 11
301.79608606699941
 21
355.94881564547416
  0
LINE
  8
_0-3_03
  6
CONTINUOUS
 62
    3
 10
301.79608606699941
 20
348.44881564547427
 11
303.63039290438269
 21
348.44881564547427
  0
ARC
  8
_0-3_03
  6
CONTINUOUS
 62
    3
 10
301.79608606699941
 20
348.94881564547427
 40
0.4999999999999753
 50
180
 51
270.0000000000033
  0
LINE
  8
_0-3_03
  6
CONTINUOUS
 62
    3
 10
301.29608606699941
 20
355.44881564547416
 11
301.29608606699941
 21
348.94881564547427
  0
ARC
  8
_0-3_03
  6
CONTINUOUS
 62
    3
 10
301.79608606699941
 20
355.44881564547416
 40
0.5
 50
89.999999999996746
 51
180
  0
LINE
  8
_0-3_03
  6
CONTINUOUS
 62
    3
 10
300.29608606699941
 20
357.94881564547416
 11
303.97241304770728
 21
357.94881564547416
  0
LINE
  8
_0-3_03
  6
CONTINUOUS
 62
    3
 10
333.79608606699941
 20
353.44881564547416
 11
334.79608606699941
 21
353.44881564547416
  0
LINE
  8
_0-3_03
  6
CONTINUOUS
 62
    3
 10
330.79608606699941
 20
352.94881564547427
 11
330.79608606699941
 21
355.94881564547416
  0
LINE
  8
_0-3_03
  6
CONTINUOUS
 62
    3
 10
333.46695482303164
 20
355.94881564547416
 11
333.86191231579261
 21
352.94881564547427
  0
LINE
  8
_0-3_03
  6
CONTINUOUS
 62
    3
 10
330.79608606699941
 20
355.94881564547416
 11
333.46695482303164
 21
355.94881564547416
  0
LINE
  8
_0-3_03
  6
CONTINUOUS
 62
    3
 10
334.79608606699941
 20
279.6218690163052
 11
330.84087557519047
 21
280.14258235603643
  0
LINE
  8
_0-3_03
  6
CONTINUOUS
 62
    3
 10
317.79608606699941
 20
350.44881564547427
 11
317.79608606699941
 21
350.98128041944278
  0
LINE
  8
_0-3_03
  6
CONTINUOUS
 62
    3
 10
319.29608606699941
 20
353.44881564547416
 11
330.79608606699941
 21
353.44881564547416
  0
LINE
  8
_0-3_03
  6
CONTINUOUS
 62
    3
 10
317.79608606699941
 20
351.88818938767031
 11
317.79608606699941
 21
352.44881564547416
  0
LINE
  8
_0-3_03
  6
CONTINUOUS
 62
    3
 10
317.79608606699941
 20
352.44881564547416
 11
317.29608606699941
 21
352.44881564547416
  0
LINE
  8
_0-3_03
  6
CONTINUOUS
 62
    3
 10
318.29608606699941
 20
356.94881564547427
 11
318.29608606699941
 21
353.9129172606124
  0
ARC
  8
_0-3_03
  6
CONTINUOUS
 62
    3
 10
317.29608606699941
 20
356.94881564547427
 40
1
 50
0
 51
90
  0
LINE
  8
_0-3_03
  6
CONTINUOUS
 62
    3
 10
326.79608606699941
 20
284.19881564547421
 11
328.43929841576823
 21
284.19881564547421
  0
LINE
  8
_0-3_03
  6
CONTINUOUS
 62
    3
 10
326.79608606699941
 20
284.87945648619336
 11
326.79608606699941
 21
284.19881564547421
  0
LINE
  8
_0-3_03
  6
CONTINUOUS
 62
    3
 10
319.79608606699941
 20
284.5317748219274
 11
314.91340263463439
 21
286.55424852038749
  0
LINE
  8
_0-3_03
  6
CONTINUOUS
 62
    3
 10
319.79608606699941
 20
284.71748396388352
 11
319.79608606699941
 21
284.5317748219274
  0
LINE
  8
_0-3_03
  6
CONTINUOUS
 62
    3
 10
330.84087557519047
 20
280.14258235603643
 11
319.79608606699941
 21
284.71748396388352
  0
LINE
  8
_0-3_03
  6
CONTINUOUS
 62
    3
 10
314.29608606699941
 20
289.64291245348363
 11
314.29608606699941
 21
305.94881564547421
  0
LINE
  8
_0-3_03
  6
CONTINUOUS
 62
    3
 10
314.29608606699941
 20
305.94881564547421
 11
304.79608606699941
 21
305.94881564547421
  0
LINE
  8
_0-3_03
  6
CONTINUOUS
 62
    3
 10
314.29608606699941
 20
305.94881564547421
 11
315.29608606699941
 21
306.94881564547427
  0
LINE
  8
_0-3_03
  6
CONTINUOUS
 62
    3
 10
325.74608606699917
 20
335.99881564547439
 11
304.79608606699941
 21
335.99881564547439
  0
LINE
  8
_0-3_03
  6
CONTINUOUS
 62
    3
 10
304.79608606699941
 20
330.89881564547449
 11
325.74608606699917
 21
330.89881564547449
  0
LINE
  8
_0-3_03
  6
CONTINUOUS
 62
    3
 10
315.79608606699941
 20
355.94881564547416
 11
303.97241304770728
 21
355.94881564547416
  0
LINE
  8
_0-3_03
  6
CONTINUOUS
 62
    3
 10
316.29608606699941
 20
352.44881564547416
 11
316.29608606699941
 21
355.44881564547416
  0
LINE
  8
_0-3_03
  6
CONTINUOUS
 62
    3
 10
317.29608606699941
 20
352.44881564547416
 11
316.29608606699941
 21
352.44881564547416
  0
ARC
  8
_0-3_03
  6
CONTINUOUS
 62
    3
 10
315.79608606699941
 20
355.44881564547416
 40
0.5000000000000071
 50
0
 51
90
  0
ARC
  8
_0-3_03
  6
CONTINUOUS
 62
    3
 10
304.79608606699941
 20
306.94881564547427
 40
1
 50
180
 51
270
  0
LINE
  8
_0-3_03
  6
CONTINUOUS
 62
    3
 10
303.97241304770728
 20
355.94881564547416
 11
303.63039290438269
 21
355.94881564547416
  0
ARC
  8
_0-3_03
  6
CONTINUOUS
 62
    3
 10
304.79608606699941
 20
336.99881564547439
 40
1.000000000000085
 50
180
 51
269.99999999999682
  0
LINE
  8
_0-3_03
  6
CONTINUOUS
 62
    3
 10
303.79608606699941
 20
306.94881564547427
 11
303.79608606699941
 21
329.89881564547449
  0
ARC
  8
_0-3_03
  6
CONTINUOUS
 62
    3
 10
304.79608606699941
 20
329.89881564547449
 40
1.000000000000026
 50
90
 51
180
  0
LINE
  8
_0-3_03
  6
CONTINUOUS
 62
    3
 10
303.97241304770728
 20
357.94881564547416
 11
317.29608606699941
 21
357.94881564547416
  0
LINE
  8
_0-3_03
  6
CONTINUOUS
 62
    3
 10
303.63039290438269
 20
348.44881564547427
 11
303.97241304770728
 21
348.44881564547427
  0
LINE
  8
_0-3_03
  6
CONTINUOUS
 62
    3
 10
303.79608606699941
 20
336.99881564547439
 11
303.79608606699941
 21
345.48970039500841
  0
LINE
  8
_0-3_03
  6
CONTINUOUS
 62
    3
 10
319.79608606699941
 20
309.44881564547421
 11
334.79608606699941
 21
309.44881564547421
  0
LINE
  8
_0-3_03
  6
CONTINUOUS
 62
    3
 10
329.79608606699941
 20
335.99881564547439
 11
334.79608606699941
 21
335.99881564547439
  0
LINE
  8
_0-3_03
  6
CONTINUOUS
 62
    3
 10
334.79608606699941
 20
330.89881564547449
 11
329.79608606699941
 21
330.89881564547449
  0
LINE
  8
_0-3_03
  6
CONTINUOUS
 62
    3
 10
317.79608606699941
 20
349.44881564547421
 11
317.79608606699941
 21
350.44881564547427
  0
LINE
  8
_0-3_03
  6
CONTINUOUS
 62
    3
 10
303.97241304770728
 20
348.44881564547427
 11
315.79608606699941
 21
348.44881564547427
  0
LINE
  8
_0-3_03
  6
CONTINUOUS
 62
    3
 10
316.29608606699941
 20
349.44881564547421
 11
317.79608606699941
 21
349.44881564547421
  0
LINE
  8
_0-3_03
  6
CONTINUOUS
 62
    3
 10
316.29608606699941
 20
348.94881564547427
 11
316.29608606699941
 21
349.44881564547421
  0
ARC
  8
_0-3_03
  6
CONTINUOUS
 62
    3
 10
315.79608606699941
 20
348.94881564547427
 40
0.5000000000000071
 50
270
 51
0
  0
LINE
  8
_0-3_03
  6
CONTINUOUS
 62
    3
 10
325.74608606699917
 20
330.39881564547449
 11
325.74608606699917
 21
336.49881564547439
  0
LINE
  8
_0-3_03
  6
CONTINUOUS
 62
    3
 10
326.79608606699941
 20
284.87945648619336
 11
326.79608606699941
 21
286.69881564547421
  0
LINE
  8
_0-3_03
  6
CONTINUOUS
 62
    3
 10
326.79608606699941
 20
286.69881564547421
 11
330.29608606699941
 21
286.69881564547421
  0
LINE
  8
_0-3_03
  6
CONTINUOUS
 62
    3
 10
330.29608606699941
 20
286.69881564547421
 11
330.29608606699941
 21
284.19881564547421
  0
LINE
  8
_0-3_03
  6
CONTINUOUS
 62
    3
 10
330.29608606699941
 20
284.19881564547421
 11
328.43929841576823
 21
284.19881564547421
  0
LINE
  8
_0-3_03
  6
CONTINUOUS
 62
    3
 10
319.79608606699941
 20
297.44881564547421
 11
334.79608606699941
 21
297.44881564547421
  0
LINE
  8
_0-3_03
  6
CONTINUOUS
 62
    3
 10
319.79608606699941
 20
297.44881564547421
 11
319.79608606699941
 21
298.44881564547427
  0
LINE
  8
_0-3_03
  6
CONTINUOUS
 62
    3
 10
319.79608606699941
 20
308.44881564547421
 11
319.79608606699941
 21
309.44881564547421
  0
ARC
  8
_0-3_03
  6
CONTINUOUS
 62
    3
 10
329.79608606699941
 20
333.44881564547421
 40
2.55000000000001
 50
90
 51
270
  0
LINE
  8
_0-3_03
  6
CONTINUOUS
 62
    3
 10
333.86191231579261
 20
352.94881564547427
 11
334.19104355976128
 21
350.44881564547427
  0
LINE
  8
_0-3_03
  6
CONTINUOUS
 62
    3
 10
330.79608606699941
 20
350.44881564547427
 11
330.79608606699941
 21
352.94881564547427
  0
ARC
  8
_0-3_03
  6
CONTINUOUS
 62
    3
 10
309.33820327088438
 20
352.81460586865035
 40
7.8339519974975884
 50
223.23092021192502
 51
226.76907978807444
  0
LINE
  8
_0-3_03
  6
CONTINUOUS
 62
    3
 10
302.79608606699941
 20
346.44881564547427
 11
300.29608606699941
 21
346.44881564547427
  0
LINE
  8
_0-3_03
  6
CONTINUOUS
 62
    3
 10
333.29608606699941
 20
298.44881564547427
 11
334.29608606699941
 21
298.44881564547427
  0
LINE
  8
_0-3_03
  6
CONTINUOUS
 62
    3
 10
333.29608606699941
 20
308.44881564547421
 11
334.29608606699941
 21
308.44881564547421
  0
LINE
  8
_0-3_03
  6
CONTINUOUS
 62
    3
 10
334.29608606699941
 20
308.44881564547421
 11
334.29608606699941
 21
298.44881564547427
  0
LINE
  8
_0-3_03
  6
CONTINUOUS
 62
    3
 10
319.79608606699941
 20
298.44881564547427
 11
333.29608606699941
 21
298.44881564547427
  0
LINE
  8
_0-3_03
  6
CONTINUOUS
 62
    3
 10
333.29608606699941
 20
308.44881564547421
 11
333.29608606699941
 21
298.44881564547427
  0
LINE
  8
_0-3_03
  6
CONTINUOUS
 62
    3
 10
319.79608606699941
 20
308.44881564547421
 11
333.29608606699941
 21
308.44881564547421
  0
LINE
  8
_0-3_03
  6
CONTINUOUS
 62
    3
 10
319.79608606699941
 20
308.44881564547421
 11
319.79608606699941
 21
298.44881564547427
  0
LINE
  8
_0-2_02
  6
CONTINUOUS
 62
    2
 10
345.73474680592733
 20
332.04913930806759
 11
345.71865822557663
 21
331.87665285017351
  0
LINE
  8
_0-2_02
  6
CONTINUOUS
 62
    2
 10
343.51344258147753
 20
341.68496342551737
 11
343.60181164273024
 21
341.5359623195252
  0
ARC
  8
_0-2_02
  6
CONTINUOUS
 62
    2
 10
329.7960860670035
 20
333.44881564547154
 40
16.00000000000006
 50
354.9813633611468
 51
5.0186366388531534
  0
ARC
  8
_0-2_02
  6
CONTINUOUS
 62
    2
 10
343.74241421356129
 20
334.67353244070023
 40
2.0000000000000222
 50
5.0186366388531232
 51
55.499999999997051
  0
ARC
  8
_0-2_02
  6
CONTINUOUS
 62
    2
 10
343.74241421356129
 20
332.2240988502424
 40
2.0000000000000129
 50
304.50000000000301
 51
354.9813633611468
  0
ARC
  8
_0-2_02
  6
CONTINUOUS
 62
    2
 10
341.79877301716931
 20
340.65544495301333
 40
2.0000000000000111
 50
340.4999999999954
 51
30.981363361126192
  0
LINE
  8
_0-2_02
  6
CONTINUOUS
 62
    2
 10
343.50548743209112
 20
337.26318052637561
 11
344.8752266874115
 21
336.32178481794438
  0
LINE
  8
_0-2_02
  6
CONTINUOUS
 62
    2
 10
344.8752266874115
 20
330.57584647299848
 11
343.50548743209112
 21
329.63445076456833
  0
ARC
  8
_0-2_02
  6
CONTINUOUS
 62
    2
 10
341.79877301716931
 20
326.2421863379293
 40
2.000000000000004
 50
329.01863663887559
 51
19.50000000000469
  0
LINE
  8
_0-2_02
  6
CONTINUOUS
 62
    2
 10
343.68405599935369
 20
339.98783123454649
 11
343.1292521779244
 21
338.4211135742305
  0
LINE
  8
_0-2_02
  6
CONTINUOUS
 62
    2
 10
343.1292521779244
 20
328.47651771671349
 11
343.68405599935369
 21
326.90980005639739
  0
ARC
  8
_0-2_02
  6
CONTINUOUS
 62
    2
 10
344.07189366901707
 20
328.81032457594642
 40
0.9999999999999921
 50
124.50000000000287
 51
199.50000000000458
  0
ARC
  8
_0-2_02
  6
CONTINUOUS
 62
    2
 10
344.07189366901707
 20
338.08730671499751
 40
1.0000000000000011
 50
160.49999999999531
 51
235.4999999999971
  0
ARC
  8
_0-2_02
  6
CONTINUOUS
 62
    2
 10
329.7960860670035
 20
333.44881564547154
 40
16.000000000000028
 50
30.981363361126174
 51
41.01863663886089
  0
ARC
  8
_0-2_02
  6
CONTINUOUS
 62
    2
 10
329.7960860670035
 20
333.44881564547154
 40
16.00000000000005
 50
318.98136336113907
 51
329.01863663887559
  0
LINE
  8
_0-2_02
  6
CONTINUOUS
 62
    2
 10
341.86802436326138
 20
322.94794397825456
 11
341.79772227390259
 21
322.87124716933317
  0
LINE
  8
_0-2_02
  6
CONTINUOUS
 62
    2
 10
341.79772227390259
 20
344.02638412161031
 11
341.86802436326138
 21
343.94968731268932
  0
CIRCLE
  8
_0-2_02
  6
CONTINUOUS
 62
    2
 10
329.79608606699941
 20
333.44881564547421
 40
2.5
  0
LINE
  8
_0-2_02
  6
CONTINUOUS
 62
    2
 10
353.29608606699941
 20
302.40566989496642
 11
353.29608606699941
 21
299.80566989496651
  0
LINE
  8
_0-2_02
  6
CONTINUOUS
 62
    2
 10
342.79608606699941
 20
299.33790294200003
 11
342.79608606699941
 21
293.36597070557457
  0
LINE
  8
_0-2_02
  6
CONTINUOUS
 62
    2
 10
346.79608606699941
 20
293.69377461262661
 11
346.79608606699941
 21
299.82114348043041
  0
LINE
  8
_0-2_02
  6
CONTINUOUS
 62
    2
 10
352.79608606699941
 20
302.7633323814523
 11
352.79608606699941
 21
293.79115315898861
  0
LINE
  8
_0-2_02
  6
CONTINUOUS
 62
    2
 10
352.79608606699941
 20
293.79115315898861
 11
352.79608606699941
 21
288.13429890949624
  0
LINE
  8
_0-4_04
  6
CONTINUOUS
 62
    4
 10
330.1960860669995
 20
286.44881564547421
 11
330.29608606699941
 21
286.44881564547421
  0
LINE
  8
_0-4_04
  6
CONTINUOUS
 62
    4
 10
330.1960860669995
 20
284.44881564547421
 11
330.29608606699941
 21
284.44881564547421
  0
LINE
  8
_0-4_04
  6
CONTINUOUS
 62
    4
 10
326.79608606699941
 20
286.44881564547421
 11
327.39334745273419
 21
286.44881564547421
  0
LINE
  8
_0-4_04
  6
CONTINUOUS
 62
    4
 10
327.39334745273419
 20
284.44881564547421
 11
326.79608606699941
 21
284.44881564547421
  0
ARC
  8
_0-4_04
  6
CONTINUOUS
 62
    4
 10
332.03215404449872
 20
335.44881564547421
 40
0.5
 50
90
 51
221.81031489577271
  0
LINE
  8
_0-4_04
  6
CONTINUOUS
 62
    4
 10
332.03215404449872
 20
330.94881564547421
 11
334.79608606699941
 21
330.94881564547421
  0
LINE
  8
_0-4_04
  6
CONTINUOUS
 62
    4
 10
334.79608606699941
 20
335.94881564547427
 11
332.03215404449872
 21
335.94881564547427
  0
ARC
  8
_0-4_04
  6
CONTINUOUS
 62
    4
 10
332.03215404449872
 20
331.44881564547421
 40
0.5
 50
138.1896851042296
 51
270
  0
LINE
  8
_0-4_04
  6
CONTINUOUS
 62
    4
 10
329.29608606699941
 20
286.44881564547421
 11
330.1960860669995
 21
286.44881564547421
  0
LINE
  8
_0-4_04
  6
CONTINUOUS
 62
    4
 10
330.1960860669995
 20
284.44881564547421
 11
329.29608606699941
 21
284.44881564547421
  0
LINE
  8
_0-4_04
  6
CONTINUOUS
 62
    4
 10
330.1960860669995
 20
286.44881564547421
 11
330.1960860669995
 21
284.44881564547421
  0
LINE
  8
_0-4_04
  6
CONTINUOUS
 62
    4
 10
327.39334745273419
 20
286.44881564547421
 11
329.29608606699941
 21
286.44881564547421
  0
LINE
  8
_0-4_04
  6
CONTINUOUS
 62
    4
 10
329.29608606699941
 20
284.44881564547421
 11
327.39334745273419
 21
284.44881564547421
  0
ARC
  8
_0-4_04
  6
CONTINUOUS
 62
    4
 10
453.0669194003334
 20
333.44881564547421
 40
111.7708333333331
 50
172.151966631384
 51
187.84803336861589
  0
ARC
  8
_0-4_04
  6
CONTINUOUS
 62
    4
 10
342.24702775045648
 20
315.45738346038456
 40
0.5000000000000055
 50
300.25643716352869
 51
9.2214235094747359
  0
ARC
  8
_0-4_04
  6
CONTINUOUS
 62
    4
 10
453.06691939998728
 20
333.44881564542243
 40
111.77083333298459
 50
187.84803336858971
 51
189.2214235094747
  0
LINE
  8
_0-4_04
  6
CONTINUOUS
 62
    4
 10
342.49896326321937
 20
315.02549400993553
 11
339.79608606699941
 21
313.44881564547427
  0
ARC
  8
_0-4_04
  6
CONTINUOUS
 62
    4
 10
342.24702775045648
 20
351.44024783056443
 40
0.5000000000000125
 50
350.77857649052447
 51
59.743562836474254
  0
ARC
  8
_0-4_04
  6
CONTINUOUS
 62
    4
 10
453.0669194004102
 20
333.4488156454633
 40
111.7708333334119
 50
170.7785764905253
 51
172.151966631384
  0
LINE
  8
_0-4_04
  6
CONTINUOUS
 62
    4
 10
339.79608606699941
 20
353.44881564547416
 11
342.49896326321937
 21
351.87213728101335
  0
ARC
  8
_0-4_04
  6
CONTINUOUS
 62
    4
 10
339.29608606699941
 20
276.94881564547421
 40
0.5
 50
270
 51
0
  0
LINE
  8
_0-4_04
  6
CONTINUOUS
 62
    4
 10
339.79608606699941
 20
279.44881564547421
 11
339.79608606699941
 21
276.94881564547421
  0
LINE
  8
_0-4_04
  6
CONTINUOUS
 62
    4
 10
339.79608606699941
 20
353.44881564547416
 11
339.79608606699941
 21
279.44881564547421
  0
ARC
  8
_0-4_04
  6
CONTINUOUS
 62
    4
 10
339.29608606699941
 20
355.94881564547416
 40
0.5
 50
0
 51
90
  0
LINE
  8
_0-4_04
  6
CONTINUOUS
 62
    4
 10
339.79608606699941
 20
355.94881564547416
 11
339.79608606699941
 21
353.44881564547416
  0
LINE
  8
_0-4_04
  6
CONTINUOUS
 62
    4
 10
334.79608606699941
 20
276.44881564547421
 11
334.79608606699941
 21
279.44881564547421
  0
LINE
  8
_0-4_04
  6
CONTINUOUS
 62
    4
 10
339.29608606699941
 20
276.44881564547421
 11
334.79608606699941
 21
276.44881564547421
  0
LINE
  8
_0-4_04
  6
CONTINUOUS
 62
    4
 10
334.79608606699941
 20
356.44881564547416
 11
339.29608606699941
 21
356.44881564547416
  0
LINE
  8
_0-4_04
  6
CONTINUOUS
 62
    4
 10
334.79608606699941
 20
353.44881564547416
 11
334.79608606699941
 21
356.44881564547416
  0
LINE
  8
_0-4_04
  6
CONTINUOUS
 62
    4
 10
334.79608606699941
 20
353.44881564547416
 11
334.79608606699941
 21
279.44881564547421
  0
LINE
  8
_0-0_0
  6
CONTINUOUS
 62
    7
 10
315.54608606699941
 20
348.69881564547427
 11
315.44326355212729
 21
348.69881564547427
  0
LINE
  8
_0-2_02
  6
CONTINUOUS
 62
    2
 10
343.11494031913048
 20
306.42029522308871
 11
339.79608606699941
 21
306.42029522308871
  0
LINE
  8
_0-2_02
  6
CONTINUOUS
 62
    2
 10
343.7522956955911
 20
297.74746484992852
 11
344.69481333627834
 21
297.72351855228021
  0
LINE
  8
_0-2_02
  6
CONTINUOUS
 62
    2
 10
344.69481333627834
 20
297.72351855228021
 11
345.62345036100737
 21
297.6799441172563
  0
LINE
  8
_0-2_02
  6
CONTINUOUS
 62
    2
 10
343.48106423381137
 20
297.72738029119841
 11
343.6779858602743
 21
297.7471833401375
  0
LINE
  8
_0-2_02
  6
CONTINUOUS
 62
    2
 10
343.6779858602743
 20
297.7471833401375
 11
343.83196355281257
 21
297.74466093970898
  0
ARC
  8
_0-2_02
  6
CONTINUOUS
 62
    2
 10
343.62184764164959
 20
354.25081417206025
 40
47.819707698855062
 50
269.39240788054042
 51
274.9160703717946
  0
ARC
  8
_0-2_02
  6
CONTINUOUS
 62
    2
 10
343.6454994288045
 20
295.9253528957554
 40
1.8152716579129791
 50
95.268358788645827
 51
117.89977257372411
  0
ARC
  8
_0-2_02
  6
CONTINUOUS
 62
    2
 10
345.64731904957557
 20
296.03278201622351
 40
1.641536063620167
 50
45.588058670667444
 51
90.829877452139954
  0
ARC
  8
_0-2_02
  6
CONTINUOUS
 62
    2
 10
353.09608606700959
 20
299.80566989496651
 40
0.200000000000017
 50
270
 51
0
  0
ARC
  8
_0-2_02
  6
CONTINUOUS
 62
    2
 10
353.09608606700959
 20
302.40566989496642
 40
0.1999999999999602
 50
0
 51
90
  0
LINE
  8
_0-2_02
  6
CONTINUOUS
 62
    2
 10
352.79608606699941
 20
299.6056698949667
 11
353.09608606700959
 21
299.6056698949667
  0
LINE
  8
_0-2_02
  6
CONTINUOUS
 62
    2
 10
353.09608606700959
 20
302.6056698949667
 11
352.79608606697121
 21
302.6056698949667
  0
ARC
  8
_0-2_02
  6
CONTINUOUS
 62
    2
 10
350.92518999503841
 20
304.75160100691141
 40
0.9999999999999845
 50
45.901368723376521
 51
49.12859053422418
  0
ARC
  8
_0-2_02
  6
CONTINUOUS
 62
    2
 10
348.32528229192064
 20
301.36787484502861
 40
5.2634209978577964
 50
51.843361375322182
 51
96.588395298784747
  0
ARC
  8
_0-2_02
  6
CONTINUOUS
 62
    2
 10
349.19251660999748
 20
302.79777414759769
 40
3.596730470417786
 50
359.87130257829102
 51
47.836845503019205
  0
ARC
  8
_0-2_02
  6
CONTINUOUS
 62
    2
 10
349.30698963707562
 20
288.05507576455943
 40
3.4899957312291829
 50
310.41650499019562
 51
1.3007298910900984
  0
LINE
  8
_0-2_02
  6
CONTINUOUS
 62
    2
 10
339.79608606699941
 20
284.47733606786159
 11
343.11494031913048
 21
284.47733606786159
  0
ARC
  8
_0-2_02
  6
CONTINUOUS
 62
    2
 10
348.4329653484354
 20
289.14117024441543
 40
4.8837132027547332
 50
261.61164036326107
 51
309.96226126699378
  0
ARC
  8
_0-2_02
  6
CONTINUOUS
 62
    2
 10
343.55655987603427
 20
236.65699729923131
 40
47.812861805279859
 50
85.00584862640163
 51
90.529609465225462
  0
ARC
  8
_0-2_02
  6
CONTINUOUS
 62
    2
 10
343.55959375122154
 20
294.68829090220851
 40
1.5257552461466199
 50
233.52807497842059
 51
266.96533009149272
  0
LINE
  8
_0-2_02
  6
CONTINUOUS
 62
    2
 10
345.62345036100737
 20
293.21768717369173
 11
344.68253116022538
 21
293.1736695215065
  0
LINE
  8
_0-2_02
  6
CONTINUOUS
 62
    2
 10
344.68253116022538
 20
293.1736695215065
 11
343.7522956955911
 21
293.15016644101951
  0
LINE
  8
_0-2_02
  6
CONTINUOUS
 62
    2
 10
343.83196355281257
 20
293.15297035123939
 11
343.69339797369031
 21
293.15016609646329
  0
LINE
  8
_0-2_02
  6
CONTINUOUS
 62
    2
 10
343.69339797369031
 20
293.15016609646329
 11
343.48075749171841
 21
293.16997484430362
  0
ARC
  8
_0-2_02
  6
CONTINUOUS
 62
    2
 10
345.64903592606447
 20
294.84058567491934
 40
1.617391525830866
 50
269.1331924954344
 51
318.1869270976282
  0
CIRCLE
  8
_0-4_04
  6
C5
 62
    7
 10
429.17992234327249
 20
295.44881566223029
 40
14.29164271907748
  0
LINE
  8
_0-2_02
  6
CONTINUOUS
 62
    2
 10
431.77992234327149
 20
322.60424847341642
 11
430.17992234327158
 21
322.60424847341642
  0
LINE
  8
_0-2_02
  6
CONTINUOUS
 62
    2
 10
430.17992234327158
 20
326.06123398218426
 11
431.77992234327149
 21
326.06123398218426
  0
LINE
  8
_0-2_02
  6
CONTINUOUS
 62
    2
 10
430.17992234327249
 20
329.05548426347264
 11
431.7799223432724
 21
329.05548426347264
  0
LINE
  8
_0-2_02
  6
CONTINUOUS
 62
    2
 10
430.17992234327249
 20
331.3124929048256
 11
431.7799223432724
 21
331.3124929048256
  0
LINE
  8
_0-2_02
  6
CONTINUOUS
 62
    2
 10
430.17992234327249
 20
335.58513841470329
 11
431.7799223432724
 21
335.58513841470329
  0
LINE
  8
_0-2_02
  6
CONTINUOUS
 62
    2
 10
431.7799223432724
 20
344.29338285104518
 11
430.17992234327249
 21
344.29338285104518
  0
LINE
  8
_0-2_02
  6
CONTINUOUS
 62
    2
 10
430.17992234327249
 20
340.83639734227722
 11
431.7799223432724
 21
340.83639734227722
  0
LINE
  8
_0-2_02
  6
CONTINUOUS
 62
    2
 10
430.17992234327249
 20
337.84214706098942
 11
431.7799223432724
 21
337.84214706098942
  0
LINE
  8
_0-2_02
  6
CONTINUOUS
 62
    2
 10
431.97992234327222
 20
322.50467717567039
 11
431.97992234327222
 21
322.46116976845929
  0
LINE
  8
_0-2_02
  6
CONTINUOUS
 62
    2
 10
429.97992234327222
 20
322.46116976845929
 11
429.97992234327222
 21
322.50467717567039
  0
LINE
  8
_0-2_02
  6
CONTINUOUS
 62
    2
 10
431.97992234327222
 20
344.4364615560014
 11
431.97992234327222
 21
344.39295414879069
  0
LINE
  8
_0-2_02
  6
CONTINUOUS
 62
    2
 10
429.97992234327222
 20
344.39295414879069
 11
429.97992234327222
 21
344.4364615560014
  0
LINE
  8
_0-2_02
  6
CONTINUOUS
 62
    2
 10
429.97992234327222
 20
321.94881566223029
 11
429.97992234327222
 21
322.50508838569908
  0
LINE
  8
_0-2_02
  6
CONTINUOUS
 62
    2
 10
431.97992234327222
 20
322.50508838569908
 11
431.97992234327222
 21
321.94881566223029
  0
LINE
  8
_0-2_02
  6
CONTINUOUS
 62
    2
 10
429.97992234327222
 20
344.3925429387607
 11
429.97992234327222
 21
344.94881566223029
  0
LINE
  8
_0-2_02
  6
CONTINUOUS
 62
    2
 10
431.97992234327222
 20
344.94881566223029
 11
431.97992234327222
 21
344.3925429387607
  0
ARC
  8
_0-2_02
  6
CONTINUOUS
 62
    7
 10
430.8581733691002
 20
333.44885655305251
 40
5.003786843308446
 50
153.51539663159676
 51
206.48460336840319
  0
ARC
  8
_0-2_02
  6
CONTINUOUS
 62
    7
 10
427.6895170456653
 20
334.9528858033047
 40
1.4984288300021731
 50
88.533199731614417
 51
150.95656286225594
  0
ARC
  8
_0-2_02
  6
CONTINUOUS
 62
    7
 10
427.7608366061084
 20
334.94344788438434
 40
1.507736127856605
 50
29.257495282321795
 51
91.252742123788309
  0
ARC
  8
_0-2_02
  6
CONTINUOUS
 62
    7
 10
424.65047504573369
 20
333.45488967577529
 40
4.953779871066355
 50
333.19966407317872
 51
26.695012832379483
  0
ARC
  8
_0-2_02
  6
CONTINUOUS
 62
    7
 10
427.72468960525049
 20
331.99583256711253
 40
1.554183762729739
 50
210.05788663162352
 51
330.10955297015397
  0
LINE
  8
_0-2_02
  6
CONTINUOUS
 62
    2
 10
425.47992234327222
 20
329.94881566223029
 11
425.47992234327222
 21
333.44881566223029
  0
LINE
  8
_0-2_02
  6
CONTINUOUS
 62
    2
 10
425.47992234327222
 20
333.44881566223029
 11
425.47992234327222
 21
336.94881566223029
  0
ARC
  8
_0-2_02
  6
CONTINUOUS
 62
    7
 10
433.31577626118121
 20
333.44672540560407
 40
6.4088693306825224
 50
164.98983215587961
 51
195.01016784412039
  0
ARC
  8
_0-2_02
  6
CONTINUOUS
 62
    7
 10
422.16804744412758
 20
333.44672540560407
 40
6.3817545056375389
 50
344.9245467015416
 51
15.075453298458392
  0
ARC
  8
_0-2_02
  6
CONTINUOUS
 62
    7
 10
427.6780010085871
 20
334.9810163961904
 40
0.6641414708767684
 50
10.896387174530171
 51
85.693434976530057
  0
LINE
  8
_0-2_02
  6
CONTINUOUS
 62
    2
 10
429.97992234327222
 20
322.46055295341444
 11
429.97992234327222
 21
323.07920489085348
  0
LINE
  8
_0-2_02
  6
CONTINUOUS
 62
    2
 10
431.97992234327222
 20
323.07920489085348
 11
431.97992234327222
 21
322.46055295341444
  0
LINE
  8
_0-2_02
  6
CONTINUOUS
 62
    2
 10
429.97992234327222
 20
343.8184264336071
 11
429.97992234327222
 21
344.43707837104529
  0
LINE
  8
_0-2_02
  6
CONTINUOUS
 62
    2
 10
431.97992234327222
 20
344.43707837104529
 11
431.97992234327222
 21
343.8184264336071
  0
LINE
  8
_0-2_02
  6
CONTINUOUS
 62
    2
 10
431.97992234327222
 20
329.79927601905109
 11
431.97992234327222
 21
328.40975636162352
  0
LINE
  8
_0-2_02
  6
CONTINUOUS
 62
    2
 10
429.97992234327222
 20
328.40975636162352
 11
429.97992234327222
 21
329.79927601905109
  0
LINE
  8
_0-2_02
  6
CONTINUOUS
 62
    2
 10
431.97992234327222
 20
338.4878749628362
 11
431.97992234327222
 21
337.09835530540954
  0
LINE
  8
_0-2_02
  6
CONTINUOUS
 62
    2
 10
429.97992234327222
 20
337.09835530540954
 11
429.97992234327222
 21
338.4878749628362
  0
LINE
  8
_0-2_02
  6
CONTINUOUS
 62
    2
 10
431.97992234327222
 20
325.3156197294345
 11
431.97992234327222
 21
323.07920489085348
  0
LINE
  8
_0-2_02
  6
CONTINUOUS
 62
    2
 10
429.97992234327222
 20
323.07920489085348
 11
429.97992234327222
 21
325.3156197294345
  0
LINE
  8
_0-2_02
  6
CONTINUOUS
 62
    2
 10
431.97992234327222
 20
343.8184264336071
 11
431.97992234327222
 21
341.5820115950271
  0
LINE
  8
_0-2_02
  6
CONTINUOUS
 62
    2
 10
429.97992234327222
 20
341.5820115950271
 11
429.97992234327222
 21
343.8184264336071
  0
LINE
  8
_0-2_02
  6
CONTINUOUS
 62
    2
 10
431.97992234327222
 20
328.40975636162352
 11
431.97992234327222
 21
326.84303870130918
  0
LINE
  8
_0-2_02
  6
CONTINUOUS
 62
    2
 10
429.97992234327222
 20
326.84303870130918
 11
429.97992234327222
 21
328.40975636162352
  0
LINE
  8
_0-2_02
  6
CONTINUOUS
 62
    2
 10
431.97992234327222
 20
340.05459262315139
 11
431.97992234327222
 21
338.4878749628362
  0
LINE
  8
_0-2_02
  6
CONTINUOUS
 62
    2
 10
429.97992234327222
 20
338.4878749628362
 11
429.97992234327222
 21
340.05459262315139
  0
LINE
  8
_0-2_02
  6
CONTINUOUS
 62
    2
 10
431.97992234327222
 20
326.84303870130918
 11
431.97992234327222
 21
325.3156197294345
  0
LINE
  8
_0-2_02
  6
CONTINUOUS
 62
    2
 10
429.97992234327222
 20
325.3156197294345
 11
429.97992234327222
 21
326.84303870130918
  0
LINE
  8
_0-2_02
  6
CONTINUOUS
 62
    2
 10
431.97992234327222
 20
341.5820115950271
 11
431.97992234327222
 21
340.05459262315139
  0
LINE
  8
_0-2_02
  6
CONTINUOUS
 62
    2
 10
429.97992234327222
 20
340.05459262315139
 11
429.97992234327222
 21
341.5820115950271
  0
LINE
  8
_0-2_02
  6
CONTINUOUS
 62
    2
 10
431.97992234327222
 20
330.74067172748141
 11
431.97992234327222
 21
329.79927601905109
  0
LINE
  8
_0-2_02
  6
CONTINUOUS
 62
    2
 10
429.97992234327222
 20
329.79927601905109
 11
429.97992234327222
 21
330.74067172748141
  0
LINE
  8
_0-2_02
  6
CONTINUOUS
 62
    2
 10
429.97992234327222
 20
336.15695959697916
 11
429.97992234327222
 21
337.09835530540954
  0
LINE
  8
_0-2_02
  6
CONTINUOUS
 62
    2
 10
431.97992234327222
 20
337.09835530540954
 11
431.97992234327222
 21
336.15695959697916
  0
LINE
  8
_0-2_02
  6
CONTINUOUS
 62
    2
 10
429.97992234327222
 20
330.74067172748141
 11
429.97992234327222
 21
332.06663527904334
  0
LINE
  8
_0-2_02
  6
CONTINUOUS
 62
    2
 10
431.97992234327222
 20
332.06663527904334
 11
431.97992234327222
 21
330.74067172748141
  0
LINE
  8
_0-2_02
  6
CONTINUOUS
 62
    2
 10
429.97992234327222
 20
334.83099604541729
 11
429.97992234327222
 21
336.15695959697916
  0
LINE
  8
_0-2_02
  6
CONTINUOUS
 62
    2
 10
431.97992234327222
 20
336.15695959697916
 11
431.97992234327222
 21
334.83099604541729
  0
LINE
  8
_0-2_02
  6
CONTINUOUS
 62
    2
 10
431.97992234327222
 20
334.83099604541729
 11
431.97992234327222
 21
332.06663527904334
  0
LINE
  8
_0-2_02
  6
CONTINUOUS
 62
    2
 10
429.97992234327222
 20
332.06663527904334
 11
429.97992234327222
 21
334.83099604541729
  0
LINE
  8
_0-4_04
  6
CONTINUOUS
 62
    4
 10
429.7799223432724
 20
341.44881566223029
 11
429.7799223432724
 21
341.14881566223016
  0
LINE
  8
_0-4_04
  6
CONTINUOUS
 62
    4
 10
432.1799223432734
 20
325.74881566223053
 11
432.1799223432734
 21
325.44881566223029
  0
LINE
  8
_0-4_04
  6
CONTINUOUS
 62
    4
 10
429.7799223432724
 20
325.74881566223053
 11
429.7799223432724
 21
325.44881566223029
  0
LINE
  8
_0-0_0
  6
CONTINUOUS
 62
    7
 10
432.1799223432734
 20
341.44881566223029
 11
432.1799223432734
 21
341.14881566223016
  0
LINE
  8
_0-4_04
  6
CONTINUOUS
 62
    4
 10
429.7799223432724
 20
336.94881566223029
 11
429.7799223432724
 21
339.44881566223029
  0
LINE
  8
_0-4_04
  6
CONTINUOUS
 62
    4
 10
425.2799223432724
 20
336.94881566223029
 11
429.7799223432724
 21
336.94881566223029
  0
LINE
  8
_0-4_04
  6
CONTINUOUS
 62
    4
 10
429.7799223432724
 20
327.44881566223029
 11
429.7799223432724
 21
329.94881566223029
  0
LINE
  8
_0-4_04
  6
CONTINUOUS
 62
    4
 10
425.2799223432724
 20
329.94881566223029
 11
429.7799223432724
 21
329.94881566223029
  0
LINE
  8
_0-4_04
  6
CONTINUOUS
 62
    4
 10
429.7799223432724
 20
325.74881566223053
 11
429.7799223432724
 21
327.44881566223029
  0
LINE
  8
_0-4_04
  6
CONTINUOUS
 62
    4
 10
429.7799223432724
 20
339.44881566223029
 11
429.7799223432724
 21
341.14881566223016
  0
LINE
  8
_0-4_04
  6
CONTINUOUS
 62
    4
 10
425.2799223432724
 20
327.44881566223029
 11
429.7799223432724
 21
327.44881566223029
  0
LINE
  8
_0-4_04
  6
CONTINUOUS
 62
    4
 10
425.2799223432724
 20
327.44881566223029
 11
425.2799223432724
 21
339.44881566223029
  0
LINE
  8
_0-4_04
  6
CONTINUOUS
 62
    4
 10
425.2799223432724
 20
339.44881566223029
 11
429.7799223432724
 21
339.44881566223029
  0
LINE
  8
_0-4_04
  6
CONTINUOUS
 62
    4
 10
432.1799223432734
 20
325.74881566223053
 11
432.1799223432734
 21
341.14881566223016
  0
LINE
  8
_0-4_04
  6
CONTINUOUS
 62
    4
 10
429.7799223432724
 20
341.44881566223029
 11
429.7799223432724
 21
344.94881566223029
  0
LINE
  8
_0-4_04
  6
CONTINUOUS
 62
    4
 10
429.7799223432724
 20
344.94881566223029
 11
432.1799223432734
 21
344.94881566223029
  0
LINE
  8
_0-4_04
  6
CONTINUOUS
 62
    4
 10
432.1799223432734
 20
341.44881566223029
 11
432.1799223432734
 21
344.94881566223029
  0
LINE
  8
_0-4_04
  6
CONTINUOUS
 62
    4
 10
432.1799223432734
 20
321.94881566223029
 11
432.1799223432734
 21
325.44881566223029
  0
LINE
  8
_0-4_04
  6
CONTINUOUS
 62
    4
 10
429.7799223432724
 20
321.94881566223029
 11
432.1799223432734
 21
321.94881566223029
  0
LINE
  8
_0-4_04
  6
CONTINUOUS
 62
    4
 10
429.7799223432724
 20
321.94881566223029
 11
429.7799223432724
 21
325.44881566223029
  0
LINE
  8
_0-2_02
  6
CONTINUOUS
 62
    2
 10
441.7799223432724
 20
322.60424847341642
 11
440.17992234327249
 21
322.60424847341642
  0
LINE
  8
_0-2_02
  6
CONTINUOUS
 62
    2
 10
440.17992234327249
 20
326.06123398218426
 11
441.7799223432724
 21
326.06123398218426
  0
LINE
  8
_0-2_02
  6
CONTINUOUS
 62
    2
 10
440.17992234327249
 20
329.05548426347264
 11
441.7799223432724
 21
329.05548426347264
  0
LINE
  8
_0-2_02
  6
CONTINUOUS
 62
    2
 10
440.17992234327249
 20
331.3124929048256
 11
441.7799223432724
 21
331.3124929048256
  0
LINE
  8
_0-2_02
  6
CONTINUOUS
 62
    2
 10
440.17992234327249
 20
335.58513841470329
 11
441.7799223432724
 21
335.58513841470329
  0
LINE
  8
_0-2_02
  6
CONTINUOUS
 62
    2
 10
441.7799223432724
 20
344.29338285104518
 11
440.17992234327249
 21
344.29338285104518
  0
LINE
  8
_0-2_02
  6
CONTINUOUS
 62
    2
 10
440.17992234327249
 20
340.83639734227722
 11
441.7799223432724
 21
340.83639734227722
  0
LINE
  8
_0-2_02
  6
CONTINUOUS
 62
    2
 10
440.17992234327249
 20
337.84214706098942
 11
441.7799223432724
 21
337.84214706098942
  0
LINE
  8
_0-2_02
  6
CONTINUOUS
 62
    2
 10
441.97992234327222
 20
322.50467717567039
 11
441.97992234327222
 21
322.46116976845929
  0
LINE
  8
_0-2_02
  6
CONTINUOUS
 62
    2
 10
439.97992234327222
 20
322.46116976845929
 11
439.97992234327222
 21
322.50467717567039
  0
LINE
  8
_0-2_02
  6
CONTINUOUS
 62
    2
 10
441.97992234327222
 20
344.4364615560014
 11
441.97992234327222
 21
344.39295414879069
  0
LINE
  8
_0-2_02
  6
CONTINUOUS
 62
    2
 10
439.97992234327222
 20
344.39295414879069
 11
439.97992234327222
 21
344.4364615560014
  0
LINE
  8
_0-2_02
  6
CONTINUOUS
 62
    2
 10
439.97992234327222
 20
321.94881566223029
 11
439.97992234327222
 21
322.50508838569908
  0
LINE
  8
_0-2_02
  6
CONTINUOUS
 62
    2
 10
441.97992234327222
 20
322.50508838569908
 11
441.97992234327222
 21
321.94881566223029
  0
LINE
  8
_0-2_02
  6
CONTINUOUS
 62
    2
 10
439.97992234327222
 20
344.3925429387607
 11
439.97992234327222
 21
344.94881566223029
  0
LINE
  8
_0-2_02
  6
CONTINUOUS
 62
    2
 10
441.97992234327222
 20
344.94881566223029
 11
441.97992234327222
 21
344.3925429387607
  0
LINE
  8
_0-2_02
  6
CONTINUOUS
 62
    2
 10
435.47992234327222
 20
329.94881566223029
 11
435.47992234327222
 21
333.44881566223029
  0
LINE
  8
_0-2_02
  6
CONTINUOUS
 62
    2
 10
435.47992234327222
 20
333.44881566223029
 11
435.47992234327222
 21
336.94881566223029
  0
LINE
  8
_0-2_02
  6
CONTINUOUS
 62
    2
 10
439.97992234327222
 20
322.46055295341444
 11
439.97992234327222
 21
323.07920489085348
  0
LINE
  8
_0-2_02
  6
CONTINUOUS
 62
    2
 10
441.97992234327222
 20
323.07920489085348
 11
441.97992234327222
 21
322.46055295341444
  0
LINE
  8
_0-2_02
  6
CONTINUOUS
 62
    2
 10
439.97992234327222
 20
343.8184264336071
 11
439.97992234327222
 21
344.43707837104529
  0
LINE
  8
_0-2_02
  6
CONTINUOUS
 62
    2
 10
441.97992234327222
 20
344.43707837104529
 11
441.97992234327222
 21
343.8184264336071
  0
LINE
  8
_0-2_02
  6
CONTINUOUS
 62
    2
 10
441.97992234327222
 20
329.79927601905109
 11
441.97992234327222
 21
328.40975636162352
  0
LINE
  8
_0-2_02
  6
CONTINUOUS
 62
    2
 10
439.97992234327222
 20
328.40975636162352
 11
439.97992234327222
 21
329.79927601905109
  0
LINE
  8
_0-2_02
  6
CONTINUOUS
 62
    2
 10
441.97992234327222
 20
338.4878749628362
 11
441.97992234327222
 21
337.09835530540954
  0
LINE
  8
_0-2_02
  6
CONTINUOUS
 62
    2
 10
439.97992234327222
 20
337.09835530540954
 11
439.97992234327222
 21
338.4878749628362
  0
LINE
  8
_0-2_02
  6
CONTINUOUS
 62
    2
 10
441.97992234327222
 20
325.3156197294345
 11
441.97992234327222
 21
323.07920489085348
  0
LINE
  8
_0-2_02
  6
CONTINUOUS
 62
    2
 10
439.97992234327222
 20
323.07920489085348
 11
439.97992234327222
 21
325.3156197294345
  0
LINE
  8
_0-2_02
  6
CONTINUOUS
 62
    2
 10
441.97992234327222
 20
343.8184264336071
 11
441.97992234327222
 21
341.5820115950271
  0
LINE
  8
_0-2_02
  6
CONTINUOUS
 62
    2
 10
439.97992234327222
 20
341.5820115950271
 11
439.97992234327222
 21
343.8184264336071
  0
LINE
  8
_0-2_02
  6
CONTINUOUS
 62
    2
 10
441.97992234327222
 20
328.40975636162352
 11
441.97992234327222
 21
326.84303870130918
  0
LINE
  8
_0-2_02
  6
CONTINUOUS
 62
    2
 10
439.97992234327222
 20
326.84303870130918
 11
439.97992234327222
 21
328.40975636162352
  0
LINE
  8
_0-2_02
  6
CONTINUOUS
 62
    2
 10
441.97992234327222
 20
340.05459262315139
 11
441.97992234327222
 21
338.4878749628362
  0
LINE
  8
_0-2_02
  6
CONTINUOUS
 62
    2
 10
439.97992234327222
 20
338.4878749628362
 11
439.97992234327222
 21
340.05459262315139
  0
LINE
  8
_0-2_02
  6
CONTINUOUS
 62
    2
 10
441.97992234327222
 20
326.84303870130918
 11
441.97992234327222
 21
325.3156197294345
  0
LINE
  8
_0-2_02
  6
CONTINUOUS
 62
    2
 10
439.97992234327222
 20
325.3156197294345
 11
439.97992234327222
 21
326.84303870130918
  0
LINE
  8
_0-2_02
  6
CONTINUOUS
 62
    2
 10
441.97992234327222
 20
341.5820115950271
 11
441.97992234327222
 21
340.05459262315139
  0
LINE
  8
_0-2_02
  6
CONTINUOUS
 62
    2
 10
439.97992234327222
 20
340.05459262315139
 11
439.97992234327222
 21
341.5820115950271
  0
LINE
  8
_0-2_02
  6
CONTINUOUS
 62
    2
 10
441.97992234327222
 20
330.74067172748141
 11
441.97992234327222
 21
329.79927601905109
  0
LINE
  8
_0-2_02
  6
CONTINUOUS
 62
    2
 10
439.97992234327222
 20
329.79927601905109
 11
439.97992234327222
 21
330.74067172748141
  0
LINE
  8
_0-2_02
  6
CONTINUOUS
 62
    2
 10
439.97992234327222
 20
336.15695959697916
 11
439.97992234327222
 21
337.09835530540954
  0
LINE
  8
_0-2_02
  6
CONTINUOUS
 62
    2
 10
441.97992234327222
 20
337.09835530540954
 11
441.97992234327222
 21
336.15695959697916
  0
LINE
  8
_0-2_02
  6
CONTINUOUS
 62
    2
 10
439.97992234327222
 20
330.74067172748141
 11
439.97992234327222
 21
332.06663527904334
  0
LINE
  8
_0-2_02
  6
CONTINUOUS
 62
    2
 10
441.97992234327222
 20
332.06663527904334
 11
441.97992234327222
 21
330.74067172748141
  0
LINE
  8
_0-2_02
  6
CONTINUOUS
 62
    2
 10
439.97992234327222
 20
334.83099604541729
 11
439.97992234327222
 21
336.15695959697916
  0
LINE
  8
_0-2_02
  6
CONTINUOUS
 62
    2
 10
441.97992234327222
 20
336.15695959697916
 11
441.97992234327222
 21
334.83099604541729
  0
LINE
  8
_0-2_02
  6
CONTINUOUS
 62
    2
 10
441.97992234327222
 20
334.83099604541729
 11
441.97992234327222
 21
332.06663527904334
  0
LINE
  8
_0-2_02
  6
CONTINUOUS
 62
    2
 10
439.97992234327222
 20
332.06663527904334
 11
439.97992234327222
 21
334.83099604541729
  0
LINE
  8
_0-4_04
  6
CONTINUOUS
 62
    4
 10
439.7799223432724
 20
341.44881566223029
 11
439.7799223432724
 21
341.14881566223016
  0
LINE
  8
_0-0_0
  6
CONTINUOUS
 62
    7
 10
442.17992234327249
 20
325.74881566223053
 11
442.17992234327249
 21
325.44881566223029
  0
LINE
  8
_0-4_04
  6
CONTINUOUS
 62
    4
 10
439.7799223432724
 20
325.74881566223053
 11
439.7799223432724
 21
325.44881566223029
  0
LINE
  8
_0-4_04
  6
CONTINUOUS
 62
    4
 10
442.17992234327249
 20
341.44881566223029
 11
442.17992234327249
 21
341.14881566223016
  0
LINE
  8
_0-4_04
  6
CONTINUOUS
 62
    4
 10
439.7799223432724
 20
336.94881566223029
 11
439.7799223432724
 21
339.44881566223029
  0
LINE
  8
_0-4_04
  6
CONTINUOUS
 62
    4
 10
435.2799223432724
 20
336.94881566223029
 11
439.7799223432724
 21
336.94881566223029
  0
LINE
  8
_0-4_04
  6
CONTINUOUS
 62
    4
 10
439.7799223432724
 20
327.44881566223029
 11
439.7799223432724
 21
329.94881566223029
  0
LINE
  8
_0-4_04
  6
CONTINUOUS
 62
    4
 10
435.2799223432724
 20
329.94881566223029
 11
439.7799223432724
 21
329.94881566223029
  0
LINE
  8
_0-4_04
  6
CONTINUOUS
 62
    4
 10
439.7799223432724
 20
325.74881566223053
 11
439.7799223432724
 21
327.44881566223029
  0
LINE
  8
_0-4_04
  6
CONTINUOUS
 62
    4
 10
439.7799223432724
 20
339.44881566223029
 11
439.7799223432724
 21
341.14881566223016
  0
LINE
  8
_0-4_04
  6
CONTINUOUS
 62
    4
 10
435.2799223432724
 20
327.44881566223029
 11
439.7799223432724
 21
327.44881566223029
  0
LINE
  8
_0-4_04
  6
CONTINUOUS
 62
    4
 10
435.2799223432724
 20
327.44881566223029
 11
435.2799223432724
 21
339.44881566223029
  0
LINE
  8
_0-4_04
  6
CONTINUOUS
 62
    4
 10
435.2799223432724
 20
339.44881566223029
 11
439.7799223432724
 21
339.44881566223029
  0
LINE
  8
_0-4_04
  6
CONTINUOUS
 62
    4
 10
442.17992234327249
 20
325.74881566223053
 11
442.17992234327249
 21
341.14881566223016
  0
LINE
  8
_0-4_04
  6
CONTINUOUS
 62
    4
 10
439.7799223432724
 20
341.44881566223029
 11
439.7799223432724
 21
344.94881566223029
  0
LINE
  8
_0-4_04
  6
CONTINUOUS
 62
    4
 10
439.7799223432724
 20
344.94881566223029
 11
442.17992234327249
 21
344.94881566223029
  0
LINE
  8
_0-4_04
  6
CONTINUOUS
 62
    4
 10
442.17992234327249
 20
341.44881566223029
 11
442.17992234327249
 21
344.94881566223029
  0
LINE
  8
_0-4_04
  6
CONTINUOUS
 62
    4
 10
442.17992234327249
 20
321.94881566223029
 11
442.17992234327249
 21
325.44881566223029
  0
LINE
  8
_0-4_04
  6
CONTINUOUS
 62
    4
 10
439.7799223432724
 20
321.94881566223029
 11
442.17992234327249
 21
321.94881566223029
  0
LINE
  8
_0-4_04
  6
CONTINUOUS
 62
    4
 10
439.7799223432724
 20
321.94881566223029
 11
439.7799223432724
 21
325.44881566223029
  0
LINE
  8
_0-2_02
  6
CONTINUOUS
 62
    2
 10
451.77992234327149
 20
322.60424847341642
 11
450.17992234327158
 21
322.60424847341642
  0
LINE
  8
_0-2_02
  6
CONTINUOUS
 62
    2
 10
450.17992234327158
 20
326.06123398218426
 11
451.77992234327149
 21
326.06123398218426
  0
LINE
  8
_0-2_02
  6
CONTINUOUS
 62
    2
 10
450.17992234327158
 20
329.05548426347264
 11
451.7799223432724
 21
329.05548426347264
  0
LINE
  8
_0-2_02
  6
CONTINUOUS
 62
    2
 10
450.17992234327158
 20
331.3124929048256
 11
451.7799223432724
 21
331.3124929048256
  0
LINE
  8
_0-2_02
  6
CONTINUOUS
 62
    2
 10
450.17992234327158
 20
335.58513841470329
 11
451.7799223432724
 21
335.58513841470329
  0
LINE
  8
_0-2_02
  6
CONTINUOUS
 62
    2
 10
451.7799223432724
 20
344.29338285104518
 11
450.17992234327158
 21
344.29338285104518
  0
LINE
  8
_0-2_02
  6
CONTINUOUS
 62
    2
 10
450.17992234327158
 20
340.83639734227722
 11
451.7799223432724
 21
340.83639734227722
  0
LINE
  8
_0-2_02
  6
CONTINUOUS
 62
    2
 10
450.17992234327158
 20
337.84214706098942
 11
451.7799223432724
 21
337.84214706098942
  0
LINE
  8
_0-2_02
  6
CONTINUOUS
 62
    2
 10
451.97992234327222
 20
322.50467717567039
 11
451.97992234327222
 21
322.46116976845929
  0
LINE
  8
_0-2_02
  6
CONTINUOUS
 62
    2
 10
449.97992234327222
 20
322.46116976845929
 11
449.97992234327222
 21
322.50467717567039
  0
LINE
  8
_0-2_02
  6
CONTINUOUS
 62
    2
 10
451.97992234327222
 20
344.4364615560014
 11
451.97992234327222
 21
344.39295414879069
  0
LINE
  8
_0-2_02
  6
CONTINUOUS
 62
    2
 10
449.97992234327222
 20
344.39295414879069
 11
449.97992234327222
 21
344.4364615560014
  0
LINE
  8
_0-2_02
  6
CONTINUOUS
 62
    2
 10
449.97992234327222
 20
321.94881566223029
 11
449.97992234327222
 21
322.50508838569908
  0
LINE
  8
_0-2_02
  6
CONTINUOUS
 62
    2
 10
451.97992234327222
 20
322.50508838569908
 11
451.97992234327222
 21
321.94881566223029
  0
LINE
  8
_0-2_02
  6
CONTINUOUS
 62
    2
 10
449.97992234327222
 20
344.3925429387607
 11
449.97992234327222
 21
344.94881566223029
  0
LINE
  8
_0-2_02
  6
CONTINUOUS
 62
    2
 10
451.97992234327222
 20
344.94881566223029
 11
451.97992234327222
 21
344.3925429387607
  0
LINE
  8
_0-2_02
  6
CONTINUOUS
 62
    2
 10
445.47992234327222
 20
329.94881566223029
 11
445.47992234327222
 21
333.44881566223029
  0
LINE
  8
_0-2_02
  6
CONTINUOUS
 62
    2
 10
445.47992234327222
 20
333.44881566223029
 11
445.47992234327222
 21
336.94881566223029
  0
LINE
  8
_0-2_02
  6
CONTINUOUS
 62
    2
 10
449.97992234327222
 20
322.46055295341444
 11
449.97992234327222
 21
323.07920489085348
  0
LINE
  8
_0-2_02
  6
CONTINUOUS
 62
    2
 10
451.97992234327222
 20
323.07920489085348
 11
451.97992234327222
 21
322.46055295341444
  0
LINE
  8
_0-2_02
  6
CONTINUOUS
 62
    2
 10
449.97992234327222
 20
343.8184264336071
 11
449.97992234327222
 21
344.43707837104529
  0
LINE
  8
_0-2_02
  6
CONTINUOUS
 62
    2
 10
451.97992234327222
 20
344.43707837104529
 11
451.97992234327222
 21
343.8184264336071
  0
LINE
  8
_0-2_02
  6
CONTINUOUS
 62
    2
 10
451.97992234327222
 20
329.79927601905109
 11
451.97992234327222
 21
328.40975636162352
  0
LINE
  8
_0-2_02
  6
CONTINUOUS
 62
    2
 10
449.97992234327222
 20
328.40975636162352
 11
449.97992234327222
 21
329.79927601905109
  0
LINE
  8
_0-2_02
  6
CONTINUOUS
 62
    2
 10
451.97992234327222
 20
338.4878749628362
 11
451.97992234327222
 21
337.09835530540954
  0
LINE
  8
_0-2_02
  6
CONTINUOUS
 62
    2
 10
449.97992234327222
 20
337.09835530540954
 11
449.97992234327222
 21
338.4878749628362
  0
LINE
  8
_0-2_02
  6
CONTINUOUS
 62
    2
 10
451.97992234327222
 20
325.3156197294345
 11
451.97992234327222
 21
323.07920489085348
  0
LINE
  8
_0-2_02
  6
CONTINUOUS
 62
    2
 10
449.97992234327222
 20
323.07920489085348
 11
449.97992234327222
 21
325.3156197294345
  0
LINE
  8
_0-2_02
  6
CONTINUOUS
 62
    2
 10
451.97992234327222
 20
343.8184264336071
 11
451.97992234327222
 21
341.5820115950271
  0
LINE
  8
_0-2_02
  6
CONTINUOUS
 62
    2
 10
449.97992234327222
 20
341.5820115950271
 11
449.97992234327222
 21
343.8184264336071
  0
LINE
  8
_0-2_02
  6
CONTINUOUS
 62
    2
 10
451.97992234327222
 20
328.40975636162352
 11
451.97992234327222
 21
326.84303870130918
  0
LINE
  8
_0-2_02
  6
CONTINUOUS
 62
    2
 10
449.97992234327222
 20
326.84303870130918
 11
449.97992234327222
 21
328.40975636162352
  0
LINE
  8
_0-2_02
  6
CONTINUOUS
 62
    2
 10
451.97992234327222
 20
340.05459262315139
 11
451.97992234327222
 21
338.4878749628362
  0
LINE
  8
_0-2_02
  6
CONTINUOUS
 62
    2
 10
449.97992234327222
 20
338.4878749628362
 11
449.97992234327222
 21
340.05459262315139
  0
LINE
  8
_0-2_02
  6
CONTINUOUS
 62
    2
 10
451.97992234327222
 20
326.84303870130918
 11
451.97992234327222
 21
325.3156197294345
  0
LINE
  8
_0-2_02
  6
CONTINUOUS
 62
    2
 10
449.97992234327222
 20
325.3156197294345
 11
449.97992234327222
 21
326.84303870130918
  0
LINE
  8
_0-2_02
  6
CONTINUOUS
 62
    2
 10
451.97992234327222
 20
341.5820115950271
 11
451.97992234327222
 21
340.05459262315139
  0
LINE
  8
_0-2_02
  6
CONTINUOUS
 62
    2
 10
449.97992234327222
 20
340.05459262315139
 11
449.97992234327222
 21
341.5820115950271
  0
LINE
  8
_0-2_02
  6
CONTINUOUS
 62
    2
 10
451.97992234327222
 20
330.74067172748141
 11
451.97992234327222
 21
329.79927601905109
  0
LINE
  8
_0-2_02
  6
CONTINUOUS
 62
    2
 10
449.97992234327222
 20
329.79927601905109
 11
449.97992234327222
 21
330.74067172748141
  0
LINE
  8
_0-2_02
  6
CONTINUOUS
 62
    2
 10
449.97992234327222
 20
336.15695959697916
 11
449.97992234327222
 21
337.09835530540954
  0
LINE
  8
_0-2_02
  6
CONTINUOUS
 62
    2
 10
451.97992234327222
 20
337.09835530540954
 11
451.97992234327222
 21
336.15695959697916
  0
LINE
  8
_0-2_02
  6
CONTINUOUS
 62
    2
 10
449.97992234327222
 20
330.74067172748141
 11
449.97992234327222
 21
332.06663527904334
  0
LINE
  8
_0-2_02
  6
CONTINUOUS
 62
    2
 10
451.97992234327222
 20
332.06663527904334
 11
451.97992234327222
 21
330.74067172748141
  0
LINE
  8
_0-2_02
  6
CONTINUOUS
 62
    2
 10
449.97992234327222
 20
334.83099604541729
 11
449.97992234327222
 21
336.15695959697916
  0
LINE
  8
_0-2_02
  6
CONTINUOUS
 62
    2
 10
451.97992234327222
 20
336.15695959697916
 11
451.97992234327222
 21
334.83099604541729
  0
LINE
  8
_0-2_02
  6
CONTINUOUS
 62
    2
 10
451.97992234327222
 20
334.83099604541729
 11
451.97992234327222
 21
332.06663527904334
  0
LINE
  8
_0-2_02
  6
CONTINUOUS
 62
    2
 10
449.97992234327222
 20
332.06663527904334
 11
449.97992234327222
 21
334.83099604541729
  0
LINE
  8
_0-4_04
  6
CONTINUOUS
 62
    4
 10
449.7799223432724
 20
341.44881566223029
 11
449.7799223432724
 21
341.14881566223016
  0
LINE
  8
_0-4_04
  6
CONTINUOUS
 62
    4
 10
452.17992234327249
 20
325.74881566223053
 11
452.17992234327249
 21
325.44881566223029
  0
LINE
  8
_0-4_04
  6
CONTINUOUS
 62
    4
 10
449.7799223432724
 20
325.74881566223053
 11
449.7799223432724
 21
325.44881566223029
  0
LINE
  8
_0-4_04
  6
CONTINUOUS
 62
    4
 10
452.17992234327249
 20
341.44881566223029
 11
452.17992234327249
 21
341.14881566223016
  0
LINE
  8
_0-4_04
  6
CONTINUOUS
 62
    4
 10
449.7799223432724
 20
336.94881566223029
 11
449.7799223432724
 21
339.44881566223029
  0
LINE
  8
_0-4_04
  6
CONTINUOUS
 62
    4
 10
445.2799223432724
 20
336.94881566223029
 11
449.7799223432724
 21
336.94881566223029
  0
LINE
  8
_0-4_04
  6
CONTINUOUS
 62
    4
 10
449.7799223432724
 20
327.44881566223029
 11
449.7799223432724
 21
329.94881566223029
  0
LINE
  8
_0-4_04
  6
CONTINUOUS
 62
    4
 10
445.2799223432724
 20
329.94881566223029
 11
449.7799223432724
 21
329.94881566223029
  0
LINE
  8
_0-4_04
  6
CONTINUOUS
 62
    4
 10
449.7799223432724
 20
325.74881566223053
 11
449.7799223432724
 21
327.44881566223029
  0
LINE
  8
_0-4_04
  6
CONTINUOUS
 62
    4
 10
449.7799223432724
 20
339.44881566223029
 11
449.7799223432724
 21
341.14881566223016
  0
LINE
  8
_0-4_04
  6
CONTINUOUS
 62
    4
 10
445.2799223432724
 20
327.44881566223029
 11
449.7799223432724
 21
327.44881566223029
  0
LINE
  8
_0-4_04
  6
CONTINUOUS
 62
    4
 10
445.2799223432724
 20
327.44881566223029
 11
445.2799223432724
 21
339.44881566223029
  0
LINE
  8
_0-4_04
  6
CONTINUOUS
 62
    4
 10
445.2799223432724
 20
339.44881566223029
 11
449.7799223432724
 21
339.44881566223029
  0
LINE
  8
_0-4_04
  6
CONTINUOUS
 62
    4
 10
452.17992234327249
 20
325.74881566223053
 11
452.17992234327249
 21
341.14881566223016
  0
LINE
  8
_0-4_04
  6
CONTINUOUS
 62
    4
 10
449.7799223432724
 20
341.44881566223029
 11
449.7799223432724
 21
344.94881566223029
  0
LINE
  8
_0-4_04
  6
CONTINUOUS
 62
    4
 10
449.7799223432724
 20
344.94881566223029
 11
452.17992234327249
 21
344.94881566223029
  0
LINE
  8
_0-4_04
  6
CONTINUOUS
 62
    4
 10
452.17992234327249
 20
341.44881566223029
 11
452.17992234327249
 21
344.94881566223029
  0
LINE
  8
_0-4_04
  6
CONTINUOUS
 62
    4
 10
452.17992234327249
 20
321.94881566223029
 11
452.17992234327249
 21
325.44881566223029
  0
LINE
  8
_0-4_04
  6
CONTINUOUS
 62
    4
 10
449.7799223432724
 20
321.94881566223029
 11
452.17992234327249
 21
321.94881566223029
  0
LINE
  8
_0-4_04
  6
CONTINUOUS
 62
    4
 10
449.7799223432724
 20
321.94881566223029
 11
449.7799223432724
 21
325.44881566223029
  0
LINE
  8
_0-2_02
  6
CONTINUOUS
 62
    2
 10
461.77992234327149
 20
322.60424847341642
 11
460.17992234327158
 21
322.60424847341642
  0
LINE
  8
_0-2_02
  6
CONTINUOUS
 62
    2
 10
460.17992234327158
 20
326.06123398218426
 11
461.77992234327149
 21
326.06123398218426
  0
LINE
  8
_0-2_02
  6
CONTINUOUS
 62
    2
 10
460.17992234327158
 20
329.05548426347264
 11
461.7799223432724
 21
329.05548426347264
  0
LINE
  8
_0-2_02
  6
CONTINUOUS
 62
    2
 10
460.17992234327249
 20
331.3124929048256
 11
461.7799223432724
 21
331.3124929048256
  0
LINE
  8
_0-2_02
  6
CONTINUOUS
 62
    2
 10
460.17992234327249
 20
335.58513841470329
 11
461.7799223432724
 21
335.58513841470329
  0
LINE
  8
_0-2_02
  6
CONTINUOUS
 62
    2
 10
461.7799223432724
 20
344.29338285104518
 11
460.17992234327249
 21
344.29338285104518
  0
LINE
  8
_0-2_02
  6
CONTINUOUS
 62
    2
 10
460.17992234327249
 20
340.83639734227722
 11
461.7799223432724
 21
340.83639734227722
  0
LINE
  8
_0-2_02
  6
CONTINUOUS
 62
    2
 10
460.17992234327249
 20
337.84214706098942
 11
461.7799223432724
 21
337.84214706098942
  0
LINE
  8
_0-0_0
  6
PHANTOM
 62
    7
 10
463.67992234327249
 20
315.0254940266916
 11
415.67992234327249
 21
315.0254940266916
  0
LINE
  8
_0-0_0
  6
PHANTOM
 62
    7
 10
415.67992234327249
 20
351.87213729776909
 11
463.67992234327249
 21
351.87213729776909
  0
ARC
  8
_0-0_0
  6
PHANTOM
 62
    7
 10
463.63659737072908
 20
348.82871402903652
 40
3.0437316317161232
 50
359.06339909547188
 51
89.184414985515915
  0
ARC
  8
_0-0_0
  6
PHANTOM
 62
    7
 10
415.72696711012742
 20
318.0725250377875
 40
3.0473941643100759
 50
179.13236446081731
 51
269.11544962015529
  0
ARC
  8
_0-0_0
  6
PHANTOM
 62
    7
 10
463.6468045451054
 20
318.05901759336052
 40
3.0337043392678109
 50
270.62548868976069
 51
1.1266972292636168
  0
ARC
  8
_0-0_0
  6
PHANTOM
 62
    7
 10
415.71304014143948
 20
348.83861373110011
 40
3.0337043392678011
 50
90.625488689760687
 51
181.12669722926361
  0
ARC
  8
_0-4_04
  6
CONTINUOUS
 62
    4
 10
414.17992234327249
 20
356.94881566223034
 40
1
 50
90
 51
180
  0
LINE
  8
_0-4_04
  6
CONTINUOUS
 62
    4
 10
448.1799223432734
 20
356.94881566223034
 11
448.1799223432734
 21
356.44881566223034
  0
LINE
  8
_0-4_04
  6
CONTINUOUS
 62
    4
 10
413.17992234327249
 20
356.44881566223034
 11
413.17992234327249
 21
356.94881566223034
  0
ARC
  8
_0-4_04
  6
CONTINUOUS
 62
    4
 10
447.17992234327249
 20
356.94881566223034
 40
1
 50
0
 51
90
  0
LINE
  8
_0-4_04
  6
CONTINUOUS
 62
    4
 10
414.17992234327249
 20
357.94881566223034
 11
447.17992234327249
 21
357.94881566223034
  0
ARC
  8
_0-0_0
  6
CONTINUOUS
 62
    7
 10
450.37992234327231
 20
306.09712371766841
 40
0.3000000000000023
 50
44.390989084465488
 51
64.925240695089954
  0
LINE
  8
_0-0_0
  6
CONTINUOUS
 62
    7
 10
455.97992234327222
 20
291.23769515404149
 11
455.97992234327222
 21
291.13722736636248
  0
LINE
  8
_0-2_02
  6
CONTINUOUS
 62
    2
 10
461.97992234327222
 20
322.50467717567039
 11
461.97992234327222
 21
322.46116976845929
  0
LINE
  8
_0-2_02
  6
CONTINUOUS
 62
    2
 10
459.97992234327222
 20
322.46116976845929
 11
459.97992234327222
 21
322.50467717567039
  0
LINE
  8
_0-2_02
  6
CONTINUOUS
 62
    2
 10
461.97992234327222
 20
344.4364615560014
 11
461.97992234327222
 21
344.39295414879069
  0
LINE
  8
_0-2_02
  6
CONTINUOUS
 62
    2
 10
459.97992234327222
 20
344.39295414879069
 11
459.97992234327222
 21
344.4364615560014
  0
LINE
  8
_0-2_02
  6
CONTINUOUS
 62
    2
 10
459.97992234327222
 20
321.94881566223029
 11
459.97992234327222
 21
322.50508838569908
  0
LINE
  8
_0-2_02
  6
CONTINUOUS
 62
    2
 10
461.97992234327222
 20
322.50508838569908
 11
461.97992234327222
 21
321.94881566223029
  0
LINE
  8
_0-2_02
  6
CONTINUOUS
 62
    2
 10
459.97992234327222
 20
344.3925429387607
 11
459.97992234327222
 21
344.94881566223029
  0
LINE
  8
_0-2_02
  6
CONTINUOUS
 62
    2
 10
461.97992234327222
 20
344.94881566223029
 11
461.97992234327222
 21
344.3925429387607
  0
LINE
  8
_0-2_02
  6
CONTINUOUS
 62
    2
 10
455.47992234327222
 20
329.94881566223029
 11
455.47992234327222
 21
333.44881566223029
  0
LINE
  8
_0-2_02
  6
CONTINUOUS
 62
    2
 10
455.47992234327222
 20
333.44881566223029
 11
455.47992234327222
 21
336.94881566223029
  0
LINE
  8
_0-2_02
  6
CONTINUOUS
 62
    2
 10
459.97992234327222
 20
322.46055295341444
 11
459.97992234327222
 21
323.07920489085348
  0
LINE
  8
_0-2_02
  6
CONTINUOUS
 62
    2
 10
461.97992234327222
 20
323.07920489085348
 11
461.97992234327222
 21
322.46055295341444
  0
LINE
  8
_0-2_02
  6
CONTINUOUS
 62
    2
 10
459.97992234327222
 20
343.8184264336071
 11
459.97992234327222
 21
344.43707837104529
  0
LINE
  8
_0-2_02
  6
CONTINUOUS
 62
    2
 10
461.97992234327222
 20
344.43707837104529
 11
461.97992234327222
 21
343.8184264336071
  0
LINE
  8
_0-2_02
  6
CONTINUOUS
 62
    2
 10
461.97992234327222
 20
329.79927601905109
 11
461.97992234327222
 21
328.40975636162352
  0
LINE
  8
_0-2_02
  6
CONTINUOUS
 62
    2
 10
459.97992234327222
 20
328.40975636162352
 11
459.97992234327222
 21
329.79927601905109
  0
LINE
  8
_0-2_02
  6
CONTINUOUS
 62
    2
 10
461.97992234327222
 20
338.4878749628362
 11
461.97992234327222
 21
337.09835530540954
  0
LINE
  8
_0-2_02
  6
CONTINUOUS
 62
    2
 10
459.97992234327222
 20
337.09835530540954
 11
459.97992234327222
 21
338.4878749628362
  0
LINE
  8
_0-2_02
  6
CONTINUOUS
 62
    2
 10
461.97992234327222
 20
325.3156197294345
 11
461.97992234327222
 21
323.07920489085348
  0
LINE
  8
_0-2_02
  6
CONTINUOUS
 62
    2
 10
459.97992234327222
 20
323.07920489085348
 11
459.97992234327222
 21
325.3156197294345
  0
LINE
  8
_0-2_02
  6
CONTINUOUS
 62
    2
 10
461.97992234327222
 20
343.8184264336071
 11
461.97992234327222
 21
341.5820115950271
  0
LINE
  8
_0-2_02
  6
CONTINUOUS
 62
    2
 10
459.97992234327222
 20
341.5820115950271
 11
459.97992234327222
 21
343.8184264336071
  0
LINE
  8
_0-2_02
  6
CONTINUOUS
 62
    2
 10
461.97992234327222
 20
328.40975636162352
 11
461.97992234327222
 21
326.84303870130918
  0
LINE
  8
_0-2_02
  6
CONTINUOUS
 62
    2
 10
459.97992234327222
 20
326.84303870130918
 11
459.97992234327222
 21
328.40975636162352
  0
LINE
  8
_0-2_02
  6
CONTINUOUS
 62
    2
 10
461.97992234327222
 20
340.05459262315139
 11
461.97992234327222
 21
338.4878749628362
  0
LINE
  8
_0-2_02
  6
CONTINUOUS
 62
    2
 10
459.97992234327222
 20
338.4878749628362
 11
459.97992234327222
 21
340.05459262315139
  0
LINE
  8
_0-2_02
  6
CONTINUOUS
 62
    2
 10
461.97992234327222
 20
326.84303870130918
 11
461.97992234327222
 21
325.3156197294345
  0
LINE
  8
_0-2_02
  6
CONTINUOUS
 62
    2
 10
459.97992234327222
 20
325.3156197294345
 11
459.97992234327222
 21
326.84303870130918
  0
LINE
  8
_0-2_02
  6
CONTINUOUS
 62
    2
 10
461.97992234327222
 20
341.5820115950271
 11
461.97992234327222
 21
340.05459262315139
  0
LINE
  8
_0-2_02
  6
CONTINUOUS
 62
    2
 10
459.97992234327222
 20
340.05459262315139
 11
459.97992234327222
 21
341.5820115950271
  0
LINE
  8
_0-2_02
  6
CONTINUOUS
 62
    2
 10
461.97992234327222
 20
330.74067172748141
 11
461.97992234327222
 21
329.79927601905109
  0
LINE
  8
_0-2_02
  6
CONTINUOUS
 62
    2
 10
459.97992234327222
 20
329.79927601905109
 11
459.97992234327222
 21
330.74067172748141
  0
LINE
  8
_0-2_02
  6
CONTINUOUS
 62
    2
 10
459.97992234327222
 20
336.15695959697916
 11
459.97992234327222
 21
337.09835530540954
  0
LINE
  8
_0-2_02
  6
CONTINUOUS
 62
    2
 10
461.97992234327222
 20
337.09835530540954
 11
461.97992234327222
 21
336.15695959697916
  0
LINE
  8
_0-2_02
  6
CONTINUOUS
 62
    2
 10
459.97992234327222
 20
330.74067172748141
 11
459.97992234327222
 21
332.06663527904334
  0
LINE
  8
_0-2_02
  6
CONTINUOUS
 62
    2
 10
461.97992234327222
 20
332.06663527904334
 11
461.97992234327222
 21
330.74067172748141
  0
LINE
  8
_0-2_02
  6
CONTINUOUS
 62
    2
 10
459.97992234327222
 20
334.83099604541729
 11
459.97992234327222
 21
336.15695959697916
  0
LINE
  8
_0-2_02
  6
CONTINUOUS
 62
    2
 10
461.97992234327222
 20
336.15695959697916
 11
461.97992234327222
 21
334.83099604541729
  0
LINE
  8
_0-2_02
  6
CONTINUOUS
 62
    2
 10
461.97992234327222
 20
334.83099604541729
 11
461.97992234327222
 21
332.06663527904334
  0
LINE
  8
_0-2_02
  6
CONTINUOUS
 62
    2
 10
459.97992234327222
 20
332.06663527904334
 11
459.97992234327222
 21
334.83099604541729
  0
ARC
  8
_0-2_02
  6
CONTINUOUS
 62
    2
 10
429.17992234327249
 20
295.44881566223029
 40
12.5
 50
249.62431835216518
 51
20.375681647831406
  0
ARC
  8
_0-2_02
  6
CONTINUOUS
 62
    2
 10
429.17992234327249
 20
295.44881566223029
 40
12.50000000000002
 50
69.624318352165233
 51
200.37568164783221
  0
ARC
  8
_0-2_02
  6
CONTINUOUS
 62
    2
 10
429.18127701852728
 20
295.45166757007132
 40
12.49684625337507
 50
60.690435835744083
 51
67.309680784441497
  0
ARC
  8
_0-2_02
  6
CONTINUOUS
 62
    2
 10
429.17992234293638
 20
295.4488156620634
 40
12.49999999962556
 50
202.6910054076501
 51
209.87833468519204
  0
ARC
  8
_0-2_02
  6
CONTINUOUS
 62
    2
 10
429.17992234375862
 20
295.44881566247
 40
12.49999999945906
 50
22.691005407619112
 51
29.878334685248575
  0
ARC
  8
_0-2_02
  6
CONTINUOUS
 62
    2
 10
429.17992234027929
 20
295.44881565617129
 40
12.49999999325645
 50
240.1216653129664
 51
247.30899459417071
  0
LINE
  8
_0-2_02
  6
CONTINUOUS
 62
    2
 10
421.15829882610819
 20
294.49825995693141
 11
430.13047804857138
 21
303.47043917939413
  0
LINE
  8
_0-2_02
  6
CONTINUOUS
 62
    2
 10
437.20154586043628
 20
296.39937136752917
 11
428.22936663797361
 21
287.42719214506559
  0
ARC
  8
_0-2_02
  6
CONTINUOUS
 62
    2
 10
429.17992234327249
 20
295.44881566223029
 40
12.50000000000002
 50
208.03541861028862
 51
241.96458138971431
  0
ARC
  8
_0-2_02
  6
CONTINUOUS
 62
    2
 10
429.17992234327249
 20
295.44881566223029
 40
12.499999999999989
 50
28.035418610288584
 51
61.96458138971434
  0
CIRCLE
  8
_0-2_02
  6
CONTINUOUS
 62
    2
 10
434.83677659276452
 20
301.10566991172232
 40
1.499999999999992
  0
CIRCLE
  8
_0-4_04
  6
CONTINUOUS
 62
    4
 10
429.17992234327249
 20
295.44881566223029
 40
12.599999999999991
  0
ARC
  8
_0-4_04
  6
CONTINUOUS
 62
    4
 10
455.17992234327249
 20
299.44881566223029
 40
8.3499999999999943
 50
336.51432830407998
 51
0
  0
ARC
  8
_0-4_04
  6
CONTINUOUS
 62
    4
 10
455.17992234327249
 20
299.44881566223029
 40
8.3500000000000227
 50
180
 51
203.4856716959215
  0
LINE
  8
_0-4_04
  6
CONTINUOUS
 62
    7
 10
445.67992234327249
 20
308.44881566223029
 11
445.17992234327249
 21
308.44881566223029
  0
LINE
  8
_0-4_04
  6
CONTINUOUS
 62
    7
 10
412.67992234327249
 20
308.44881566223029
 11
412.67992234327249
 21
305.44881566223029
  0
LINE
  8
_0-4_04
  6
CONTINUOUS
 62
    4
 10
446.82992234327213
 20
299.44881566223029
 11
446.82992234327213
 21
291.44881566223029
  0
LINE
  8
_0-4_04
  6
CONTINUOUS
 62
    7
 10
417.17992234327249
 20
305.44881566223029
 11
417.17992234327249
 21
308.44881566223029
  0
LINE
  8
_0-4_04
  6
CONTINUOUS
 62
    7
 10
417.17992234327249
 20
308.44881566223029
 11
416.67992234327249
 21
308.44881566223029
  0
LINE
  8
_0-4_04
  6
CONTINUOUS
 62
    7
 10
441.17992234327249
 20
305.44881566223029
 11
445.67992234327249
 21
305.44881566223029
  0
LINE
  8
_0-4_04
  6
CONTINUOUS
 62
    7
 10
417.42992234327249
 20
310.19881566223029
 11
417.92992234327249
 21
310.19881566223029
  0
LINE
  8
_0-4_04
  6
CONTINUOUS
 62
    7
 10
415.92992234327249
 20
309.44881566223029
 11
415.92992234327249
 21
308.44881566223029
  0
LINE
  8
_0-4_04
  6
CONTINUOUS
 62
    7
 10
416.67992234327249
 20
308.44881566223029
 11
416.67992234327249
 21
309.44881566223029
  0
LINE
  8
_0-4_04
  6
CONTINUOUS
 62
    7
 10
412.67992234327249
 20
305.44881566223029
 11
417.17992234327249
 21
305.44881566223029
  0
ARC
  8
_0-4_04
  6
CONTINUOUS
 62
    4
 10
455.17992234327249
 20
291.44881566223029
 40
8.3500000000000227
 50
180
 51
0
  0
LINE
  8
_0-4_04
  6
CONTINUOUS
 62
    7
 10
419.42992234327249
 20
308.44881566223029
 11
419.42992234327249
 21
309.44881566223029
  0
ARC
  8
_0-4_04
  6
CONTINUOUS
 62
    7
 10
417.42992234327249
 20
309.44881566223029
 40
0.75
 50
90
 51
180
  0
LINE
  8
_0-4_04
  6
CONTINUOUS
 62
    7
 10
441.67992234327249
 20
309.44881566223029
 11
441.67992234327249
 21
308.44881566223029
  0
LINE
  8
_0-4_04
  6
CONTINUOUS
 62
    7
 10
418.67992234327249
 20
309.44881566223029
 11
418.67992234327249
 21
308.44881566223029
  0
LINE
  8
_0-4_04
  6
CONTINUOUS
 62
    7
 10
445.67992234327249
 20
305.44881566223029
 11
445.67992234327249
 21
308.44881566223029
  0
ARC
  8
_0-4_04
  6
CONTINUOUS
 62
    7
 10
443.67992234327249
 20
309.44881566223029
 40
1.5
 50
0
 51
90
  0
ARC
  8
_0-4_04
  6
CONTINUOUS
 62
    4
 10
455.17992234327249
 20
299.44881566223029
 40
8.3500000000000227
 50
0
 51
180
  0
LINE
  8
_0-4_04
  6
CONTINUOUS
 62
    7
 10
443.67992234327249
 20
310.94881566223029
 11
443.17992234327249
 21
310.94881566223029
  0
ARC
  8
_0-4_04
  6
CONTINUOUS
 62
    7
 10
417.92992234327249
 20
309.44881566223029
 40
0.75
 50
0
 51
90
  0
LINE
  8
_0-4_04
  6
CONTINUOUS
 62
    7
 10
418.67992234327249
 20
308.44881566223029
 11
419.42992234327249
 21
308.44881566223029
  0
LINE
  8
_0-4_04
  6
CONTINUOUS
 62
    7
 10
441.17992234327249
 20
308.44881566223029
 11
441.17992234327249
 21
305.44881566223029
  0
ARC
  8
_0-4_04
  6
CONTINUOUS
 62
    7
 10
417.92992234327249
 20
309.44881566223029
 40
1.5
 50
0
 51
90
  0
ARC
  8
_0-4_04
  6
CONTINUOUS
 62
    7
 10
443.17992234327249
 20
309.44881566223029
 40
1.5
 50
90
 51
180
  0
LINE
  8
_0-4_04
  6
CONTINUOUS
 62
    7
 10
445.17992234327249
 20
308.44881566223029
 11
445.17992234327249
 21
309.44881566223029
  0
ARC
  8
_0-4_04
  6
CONTINUOUS
 62
    7
 10
417.42992234327249
 20
309.44881566223029
 40
1.5
 50
90
 51
180
  0
LINE
  8
_0-4_04
  6
CONTINUOUS
 62
    7
 10
415.92992234327249
 20
308.44881566223029
 11
412.67992234327249
 21
308.44881566223029
  0
LINE
  8
_0-4_04
  6
CONTINUOUS
 62
    7
 10
417.92992234327249
 20
310.94881566223029
 11
417.42992234327249
 21
310.94881566223029
  0
LINE
  8
_0-4_04
  6
CONTINUOUS
 62
    7
 10
441.67992234327249
 20
308.44881566223029
 11
441.17992234327249
 21
308.44881566223029
  0
LINE
  8
_0-4_04
  6
CONTINUOUS
 62
    4
 10
463.5299223432724
 20
299.44881566223029
 11
463.5299223432724
 21
291.44881566223029
  0
ARC
  8
_0-4_04
  6
CONTINUOUS
 62
    7
 10
443.67992234327249
 20
309.44881566223029
 40
0.75
 50
0
 51
90
  0
LINE
  8
_0-4_04
  6
CONTINUOUS
 62
    7
 10
444.42992234327249
 20
308.44881566223029
 11
444.42992234327249
 21
309.44881566223029
  0
LINE
  8
_0-4_04
  6
CONTINUOUS
 62
    7
 10
442.42992234327249
 20
308.44881566223029
 11
444.42992234327249
 21
308.44881566223029
  0
LINE
  8
_0-4_04
  6
CONTINUOUS
 62
    7
 10
442.42992234327249
 20
309.44881566223029
 11
442.42992234327249
 21
308.44881566223029
  0
LINE
  8
_0-4_04
  6
CONTINUOUS
 62
    7
 10
443.67992234327249
 20
310.19881566223029
 11
443.17992234327249
 21
310.19881566223029
  0
ARC
  8
_0-4_04
  6
CONTINUOUS
 62
    7
 10
443.17992234327249
 20
309.44881566223029
 40
0.75
 50
90
 51
180
  0
LINE
  8
_0-4_04
  6
CONTINUOUS
 62
    7
 10
463.0299223432724
 20
296.08132401413349
 11
463.0299223432724
 21
291.44881566223029
  0
ARC
  8
_0-4_04
  6
CONTINUOUS
 62
    7
 10
462.92992234327249
 20
296.08132401413349
 40
0.10000000000002
 50
0
 51
156.51432830410511
  0
ARC
  8
_0-4_04
  6
CONTINUOUS
 62
    4
 10
455.17992234327249
 20
299.44881566223029
 40
8.3500000000000032
 50
203.4856716959215
 51
336.51432830407998
  0
ARC
  8
_0-4_04
  6
CONTINUOUS
 62
    7
 10
447.4299223432734
 20
296.08132401413349
 40
0.10000000000002
 50
23.485671695894904
 51
180
  0
LINE
  8
_0-4_04
  6
CONTINUOUS
 62
    7
 10
447.32992234327213
 20
296.08132401413349
 11
447.32992234327213
 21
291.44881566223029
  0
ARC
  8
_0-4_04
  6
CONTINUOUS
 62
    7
 10
455.17992234327249
 20
291.44881566223029
 40
7.8499999999999943
 50
180
 51
0
  0
LINE
  8
_0-4_04
  6
CONTINUOUS
 62
    7
 10
416.97992234327222
 20
305.64881566223016
 11
416.97992234327222
 21
308.24881566223053
  0
ARC
  8
_0-4_04
  6
CONTINUOUS
 62
    7
 10
417.42992234327249
 20
309.44881566223029
 40
1.30000000000001
 50
90
 51
180
  0
LINE
  8
_0-4_04
  6
CONTINUOUS
 62
    7
 10
416.12992234327231
 20
309.44881566223029
 11
416.12992234327231
 21
308.24881566223053
  0
LINE
  8
_0-4_04
  6
CONTINUOUS
 62
    7
 10
416.12992234327231
 20
308.24881566223053
 11
412.87992234327231
 21
308.24881566223053
  0
LINE
  8
_0-4_04
  6
CONTINUOUS
 62
    7
 10
412.87992234327231
 20
308.24881566223053
 11
412.87992234327231
 21
305.64881566223016
  0
LINE
  8
_0-4_04
  6
CONTINUOUS
 62
    7
 10
412.87992234327231
 20
305.64881566223016
 11
416.97992234327222
 21
305.64881566223016
  0
LINE
  8
_0-4_04
  6
CONTINUOUS
 62
    7
 10
416.97992234327222
 20
308.24881566223053
 11
416.47992234327222
 21
308.24881566223053
  0
LINE
  8
_0-4_04
  6
CONTINUOUS
 62
    7
 10
416.47992234327222
 20
308.24881566223053
 11
416.47992234327222
 21
309.44881566223029
  0
ARC
  8
_0-4_04
  6
CONTINUOUS
 62
    7
 10
417.42992234327249
 20
309.44881566223029
 40
0.950000000000017
 50
90
 51
180
  0
LINE
  8
_0-4_04
  6
CONTINUOUS
 62
    7
 10
417.42992234327249
 20
310.39881566223011
 11
417.92992234327249
 21
310.39881566223011
  0
ARC
  8
_0-4_04
  6
CONTINUOUS
 62
    7
 10
417.92992234327249
 20
309.44881566223029
 40
0.950000000000017
 50
0
 51
90
  0
LINE
  8
_0-4_04
  6
CONTINUOUS
 62
    7
 10
418.87992234327231
 20
309.44881566223029
 11
418.87992234327231
 21
308.64881566223011
  0
LINE
  8
_0-4_04
  6
CONTINUOUS
 62
    7
 10
418.87992234327231
 20
308.64881566223011
 11
419.22992234327222
 21
308.64881566223011
  0
LINE
  8
_0-4_04
  6
CONTINUOUS
 62
    7
 10
419.22992234327222
 20
308.64881566223011
 11
419.22992234327222
 21
309.44881566223029
  0
ARC
  8
_0-4_04
  6
CONTINUOUS
 62
    7
 10
417.92992234327249
 20
309.44881566223029
 40
1.30000000000001
 50
0
 51
90
  0
LINE
  8
_0-4_04
  6
CONTINUOUS
 62
    7
 10
417.92992234327249
 20
310.74881566223053
 11
417.42992234327249
 21
310.74881566223053
  0
LINE
  8
_0-4_04
  6
CONTINUOUS
 62
    4
 10
410.17992234327249
 20
279.44881566223029
 11
410.17992234327249
 21
353.44881566223034
  0
ARC
  8
_0-4_04
  6
CONTINUOUS
 62
    4
 10
413.17992234327249
 20
353.44881566223034
 40
3
 50
90
 51
180
  0
ARC
  8
_0-4_04
  6
CONTINUOUS
 62
    4
 10
466.17992234327158
 20
279.44881566223029
 40
3
 50
270
 51
0
  0
LINE
  8
_0-4_04
  6
CONTINUOUS
 62
    4
 10
413.17992234327249
 20
356.44881566223034
 11
466.17992234327158
 21
356.44881566223034
  0
ARC
  8
_0-4_04
  6
CONTINUOUS
 62
    4
 10
466.17992234327158
 20
353.44881566223034
 40
3
 50
0
 51
90
  0
ARC
  8
_0-4_04
  6
CONTINUOUS
 62
    4
 10
413.17992234327249
 20
279.44881566223029
 40
3
 50
180
 51
270
  0
LINE
  8
_0-4_04
  6
CONTINUOUS
 62
    4
 10
466.17992234327158
 20
276.44881566223029
 11
413.17992234327249
 21
276.44881566223029
  0
LINE
  8
_0-4_04
  6
CONTINUOUS
 62
    4
 10
459.7799223432724
 20
341.44881566223029
 11
459.7799223432724
 21
341.14881566223016
  0
LINE
  8
_0-4_04
  6
CONTINUOUS
 62
    4
 10
462.17992234327249
 20
325.74881566223053
 11
462.17992234327249
 21
325.44881566223029
  0
LINE
  8
_0-4_04
  6
CONTINUOUS
 62
    4
 10
459.7799223432724
 20
325.74881566223053
 11
459.7799223432724
 21
325.44881566223029
  0
LINE
  8
_0-4_04
  6
CONTINUOUS
 62
    4
 10
462.17992234327249
 20
341.44881566223029
 11
462.17992234327249
 21
341.14881566223016
  0
LINE
  8
_0-4_04
  6
CONTINUOUS
 62
    4
 10
459.7799223432724
 20
336.94881566223029
 11
459.7799223432724
 21
339.44881566223029
  0
LINE
  8
_0-4_04
  6
CONTINUOUS
 62
    4
 10
455.2799223432724
 20
336.94881566223029
 11
459.7799223432724
 21
336.94881566223029
  0
LINE
  8
_0-4_04
  6
CONTINUOUS
 62
    4
 10
459.7799223432724
 20
327.44881566223029
 11
459.7799223432724
 21
329.94881566223029
  0
LINE
  8
_0-4_04
  6
CONTINUOUS
 62
    4
 10
455.2799223432724
 20
329.94881566223029
 11
459.7799223432724
 21
329.94881566223029
  0
LINE
  8
_0-4_04
  6
CONTINUOUS
 62
    7
 10
432.1799223432734
 20
325.74881566223053
 11
439.7799223432724
 21
325.74881566223053
  0
LINE
  8
_0-4_04
  6
CONTINUOUS
 62
    7
 10
439.7799223432724
 20
341.14881566223016
 11
432.1799223432734
 21
341.14881566223016
  0
LINE
  8
_0-4_04
  6
CONTINUOUS
 62
    4
 10
459.7799223432724
 20
339.44881566223029
 11
459.7799223432724
 21
341.14881566223016
  0
LINE
  8
_0-4_04
  6
CONTINUOUS
 62
    7
 10
459.7799223432724
 20
341.14881566223016
 11
452.17992234327249
 21
341.14881566223016
  0
LINE
  8
_0-4_04
  6
CONTINUOUS
 62
    7
 10
452.17992234327249
 20
325.74881566223053
 11
459.7799223432724
 21
325.74881566223053
  0
LINE
  8
_0-4_04
  6
CONTINUOUS
 62
    4
 10
455.2799223432724
 20
327.44881566223029
 11
459.7799223432724
 21
327.44881566223029
  0
LINE
  8
_0-4_04
  6
CONTINUOUS
 62
    4
 10
455.2799223432724
 20
327.44881566223029
 11
455.2799223432724
 21
339.44881566223029
  0
LINE
  8
_0-4_04
  6
CONTINUOUS
 62
    4
 10
455.2799223432724
 20
339.44881566223029
 11
459.7799223432724
 21
339.44881566223029
  0
LINE
  8
_0-4_04
  6
CONTINUOUS
 62
    4
 10
462.17992234327249
 20
325.74881566223053
 11
462.17992234327249
 21
341.14881566223016
  0
LINE
  8
_0-4_04
  6
CONTINUOUS
 62
    7
 10
462.17992234327249
 20
325.74881566223053
 11
465.17992234327249
 21
325.74881566223053
  0
LINE
  8
_0-4_04
  6
CONTINUOUS
 62
    7
 10
465.17992234327249
 20
341.14881566223016
 11
462.17992234327249
 21
341.14881566223016
  0
LINE
  8
_0-4_04
  6
CONTINUOUS
 62
    7
 10
442.17992234327249
 20
325.74881566223053
 11
449.7799223432724
 21
325.74881566223053
  0
LINE
  8
_0-4_04
  6
CONTINUOUS
 62
    7
 10
449.7799223432724
 20
341.14881566223016
 11
442.17992234327249
 21
341.14881566223016
  0
ARC
  8
_0-4_04
  6
CONTINUOUS
 62
    7
 10
422.67992234327249
 20
328.44881566223029
 40
2.6999999999999882
 50
180
 51
270
  0
LINE
  8
_0-4_04
  6
CONTINUOUS
 62
    7
 10
422.67992234327249
 20
325.74881566223053
 11
429.7799223432724
 21
325.74881566223053
  0
LINE
  8
_0-4_04
  6
CONTINUOUS
 62
    7
 10
429.7799223432724
 20
341.14881566223016
 11
422.67992234327249
 21
341.14881566223016
  0
ARC
  8
_0-4_04
  6
CONTINUOUS
 62
    7
 10
422.67992234327249
 20
338.44881566223029
 40
2.6999999999999882
 50
90
 51
180
  0
LINE
  8
_0-4_04
  6
CONTINUOUS
 62
    7
 10
419.97992234327222
 20
338.44881566223029
 11
419.97992234327222
 21
328.44881566223029
  0
ARC
  8
_0-4_04
  6
CONTINUOUS
 62
    7
 10
425.0799588608632
 20
318.30695022953449
 40
0.7649272788083496
 50
169.42494506939869
 51
263.51529305463202
  0
ARC
  8
_0-4_04
  6
CONTINUOUS
 62
    7
 10
432.51389693948732
 20
313.9667648546594
 40
5.032050807570708
 50
60.000000000005706
 51
89.999999999993506
  0
LINE
  8
_0-4_04
  6
CONTINUOUS
 62
    7
 10
435.0299223432724
 20
318.3246486871505
 11
435.37992234327231
 21
318.93086646979941
  0
LINE
  8
_0-4_04
  6
CONTINUOUS
 62
    7
 10
435.37992234327231
 20
318.93086646979941
 11
436.37992234327231
 21
317.19881566223029
  0
LINE
  8
_0-4_04
  6
CONTINUOUS
 62
    7
 10
436.37992234327231
 20
317.19881566223029
 11
434.37992234327231
 21
317.19881566223029
  0
LINE
  8
_0-4_04
  6
CONTINUOUS
 62
    7
 10
434.37992234327231
 20
317.19881566223029
 11
434.72992234327222
 21
317.8050334448792
  0
LINE
  8
_0-4_04
  6
CONTINUOUS
 62
    7
 10
432.51389693948732
 20
318.39881566223011
 11
432.51389693948732
 21
318.99881566223053
  0
LINE
  8
_0-4_04
  6
CONTINUOUS
 62
    7
 10
431.32169449517028
 20
317.19881566223029
 11
430.34216522301841
 21
318.53732436476253
  0
LINE
  8
_0-4_04
  6
CONTINUOUS
 62
    7
 10
430.69916680529718
 20
317.19881566223029
 11
431.32169449517028
 21
317.19881566223029
  0
LINE
  8
_0-4_04
  6
CONTINUOUS
 62
    7
 10
429.94115652048851
 20
318.23421914324376
 11
430.69916680529718
 21
317.19881566223029
  0
LINE
  8
_0-4_04
  6
CONTINUOUS
 62
    7
 10
429.77106158377848
 20
318.02308385843321
 11
429.9411565204872
 21
318.23421914324376
  0
LINE
  8
_0-4_04
  6
CONTINUOUS
 62
    7
 10
429.77106158377848
 20
317.19881566223029
 11
429.77106158377848
 21
318.02308385843321
  0
LINE
  8
_0-4_04
  6
CONTINUOUS
 62
    7
 10
429.26473246985438
 20
317.19881566223029
 11
429.77106158377848
 21
317.19881566223029
  0
LINE
  8
_0-4_04
  6
CONTINUOUS
 62
    7
 10
429.26473246985438
 20
319.69881566223029
 11
429.26473246985438
 21
317.19881566223029
  0
LINE
  8
_0-4_04
  6
CONTINUOUS
 62
    7
 10
429.77106158377848
 20
319.69881566223029
 11
429.26473246985438
 21
319.69881566223029
  0
LINE
  8
_0-4_04
  6
CONTINUOUS
 62
    7
 10
429.77106158377848
 20
318.51111787742019
 11
429.77106158377848
 21
319.69881566223029
  0
LINE
  8
_0-4_04
  6
CONTINUOUS
 62
    7
 10
430.69768341922219
 20
319.69881566223029
 11
429.77106158377848
 21
318.51111787742019
  0
LINE
  8
_0-4_04
  6
CONTINUOUS
 62
    7
 10
431.29004892555059
 20
319.69881566223029
 11
430.69768341922219
 21
319.69881566223029
  0
LINE
  8
_0-4_04
  6
CONTINUOUS
 62
    7
 10
430.34216522301841
 20
318.53732436476253
 11
431.29004892555059
 21
319.69881566223029
  0
ARC
  8
_0-4_04
  6
CONTINUOUS
 62
    7
 10
425.03414279781452
 20
318.3328644091273
 40
1.1980957404842061
 50
267.96467503109562
 51
5.4824873820014508
  0
ARC
  8
_0-4_04
  6
CONTINUOUS
 62
    7
 10
424.94448848007261
 20
318.32678855809422
 40
1.1921949126185341
 50
174.19686419948499
 51
272.26432379586817
  0
ARC
  8
_0-4_04
  6
CONTINUOUS
 62
    7
 10
424.95012075176038
 20
318.56528464368296
 40
1.197540442961865
 50
88.015447022980311
 51
185.652542356346
  0
ARC
  8
_0-4_04
  6
CONTINUOUS
 62
    7
 10
425.03946859137551
 20
318.56950859445817
 40
1.193558831882332
 50
354.12473847217848
 51
92.29890889378477
  0
LINE
  8
_0-4_04
  6
CONTINUOUS
 62
    7
 10
423.52946743820831
 20
317.19881566223029
 11
423.52946743820831
 21
317.61020806729329
  0
LINE
  8
_0-4_04
  6
CONTINUOUS
 62
    7
 10
421.79637803947418
 20
317.19881566223029
 11
423.52946743820831
 21
317.19881566223029
  0
LINE
  8
_0-4_04
  6
CONTINUOUS
 62
    7
 10
421.79637803947418
 20
319.69881566223029
 11
421.79637803947418
 21
317.19881566223029
  0
LINE
  8
_0-4_04
  6
CONTINUOUS
 62
    7
 10
422.33435272301932
 20
319.69881566223029
 11
421.79637803947418
 21
319.69881566223029
  0
LINE
  8
_0-4_04
  6
CONTINUOUS
 62
    7
 10
422.33435272301932
 20
317.61020806729329
 11
422.33435272301932
 21
319.69881566223029
  0
LINE
  8
_0-4_04
  6
CONTINUOUS
 62
    7
 10
423.52946743820831
 20
317.61020806729329
 11
422.33435272301932
 21
317.61020806729329
  0
LINE
  8
_0-4_04
  6
CONTINUOUS
 62
    7
 10
428.7584033559304
 20
317.36446044071158
 11
428.7584033559304
 21
317.8950181938755
  0
ARC
  8
_0-4_04
  6
CONTINUOUS
 62
    7
 10
427.87868402350728
 20
318.94002107851043
 40
1.804521384528639
 50
270.30056388308299
 51
299.17694705971888
  0
ARC
  8
_0-4_04
  6
CONTINUOUS
 62
    7
 10
427.82880295605162
 20
318.33025457144606
 40
1.196203152907811
 50
174.47840040598899
 51
272.84378335967557
  0
ARC
  8
_0-4_04
  6
CONTINUOUS
 62
    7
 10
427.85241370561732
 20
318.54438073512642
 40
1.218294747388704
 50
88.249296035312724
 51
184.66230014612509
  0
ARC
  8
_0-4_04
  6
CONTINUOUS
 62
    7
 10
427.87532796106939
 20
317.8879497549753
 40
1.874211643755495
 50
61.889622141795613
 51
89.562664438796546
  0
LINE
  8
_0-4_04
  6
CONTINUOUS
 62
    7
 10
428.7584033559304
 20
319.00261313058468
 11
428.7584033559304
 21
319.54108227615438
  0
LINE
  8
_0-4_04
  6
CONTINUOUS
 62
    7
 10
428.69906791289242
 20
319.00261313058468
 11
428.7584033559304
 21
319.00261313058468
  0
ARC
  8
_0-4_04
  6
CONTINUOUS
 62
    7
 10
427.83115395971009
 20
318.11330842998831
 40
1.242633284854834
 50
45.697431143387391
 51
84.742757879142388
  0
ARC
  8
_0-4_04
  6
CONTINUOUS
 62
    7
 10
427.97789903249833
 20
318.32552917985254
 40
0.7791680424173258
 50
171.2639735521374
 51
267.83576961977616
  0
ARC
  8
_0-4_04
  6
CONTINUOUS
 62
    7
 10
427.89730602382753
 20
318.65195695525722
 40
1.1062240644011589
 50
272.65116951319931
 51
316.82299635235319
  0
LINE
  8
_0-4_04
  6
CONTINUOUS
 62
    7
 10
428.7584033559304
 20
317.8950181938755
 11
428.70401253314532
 21
317.8950181938755
  0
ARC
  8
_0-4_04
  6
CONTINUOUS
 62
    7
 10
421.17992234327249
 20
319.19881566223029
 40
1.199999999999988
 50
90
 51
180
  0
LINE
  8
_0-4_04
  6
CONTINUOUS
 62
    7
 10
419.97992234327222
 20
319.19881566223029
 11
419.97992234327222
 21
316.69881566223029
  0
LINE
  8
_0-4_04
  6
CONTINUOUS
 62
    7
 10
438.37992234327231
 20
316.69881566223029
 11
438.37992234327231
 21
319.19881566223029
  0
ARC
  8
_0-4_04
  6
CONTINUOUS
 62
    7
 10
437.17992234327249
 20
319.19881566223029
 40
1.2000000000000171
 50
0
 51
90
  0
LINE
  8
_0-4_04
  6
CONTINUOUS
 62
    7
 10
437.17992234327249
 20
320.39881566223011
 11
421.17992234327249
 21
320.39881566223011
  0
LINE
  8
_0-4_04
  6
CONTINUOUS
 62
    7
 10
432.1799223432734
 20
341.44881566223029
 11
439.7799223432724
 21
341.44881566223029
  0
LINE
  8
_0-4_04
  6
CONTINUOUS
 62
    7
 10
442.17992234327249
 20
341.44881566223029
 11
449.7799223432724
 21
341.44881566223029
  0
LINE
  8
_0-4_04
  6
CONTINUOUS
 62
    7
 10
452.17992234327249
 20
341.44881566223029
 11
459.7799223432724
 21
341.44881566223029
  0
LINE
  8
_0-4_04
  6
CONTINUOUS
 62
    4
 10
459.7799223432724
 20
341.44881566223029
 11
459.7799223432724
 21
344.94881566223029
  0
LINE
  8
_0-4_04
  6
CONTINUOUS
 62
    4
 10
459.7799223432724
 20
344.94881566223029
 11
462.17992234327249
 21
344.94881566223029
  0
LINE
  8
_0-4_04
  6
CONTINUOUS
 62
    4
 10
462.17992234327249
 20
341.44881566223029
 11
462.17992234327249
 21
344.94881566223029
  0
LINE
  8
_0-4_04
  6
CONTINUOUS
 62
    7
 10
462.17992234327249
 20
341.44881566223029
 11
465.17992234327249
 21
341.44881566223029
  0
LINE
  8
_0-4_04
  6
CONTINUOUS
 62
    7
 10
419.67992234327158
 20
316.69881566223029
 11
419.67992234327158
 21
319.19881566223029
  0
ARC
  8
_0-4_04
  6
CONTINUOUS
 62
    7
 10
421.17992234327249
 20
319.19881566223029
 40
1.4999999999999709
 50
90
 51
180
  0
LINE
  8
_0-4_04
  6
CONTINUOUS
 62
    7
 10
421.17992234327249
 20
320.69881566223029
 11
437.17992234327249
 21
320.69881566223029
  0
ARC
  8
_0-4_04
  6
CONTINUOUS
 62
    7
 10
437.17992234327249
 20
319.19881566223029
 40
1.4999999999999429
 50
0
 51
90.000000000003254
  0
LINE
  8
_0-4_04
  6
CONTINUOUS
 62
    7
 10
438.67992234327249
 20
319.19881566223029
 11
438.67992234327249
 21
316.69881566223029
  0
LINE
  8
_0-4_04
  6
CONTINUOUS
 62
    7
 10
465.17992234327249
 20
325.44881566223029
 11
462.17992234327249
 21
325.44881566223029
  0
LINE
  8
_0-4_04
  6
CONTINUOUS
 62
    4
 10
462.17992234327249
 20
321.94881566223029
 11
462.17992234327249
 21
325.44881566223029
  0
LINE
  8
_0-4_04
  6
CONTINUOUS
 62
    4
 10
459.7799223432724
 20
321.94881566223029
 11
462.17992234327249
 21
321.94881566223029
  0
LINE
  8
_0-4_04
  6
CONTINUOUS
 62
    4
 10
459.7799223432724
 20
321.94881566223029
 11
459.7799223432724
 21
325.44881566223029
  0
LINE
  8
_0-4_04
  6
CONTINUOUS
 62
    7
 10
459.7799223432724
 20
325.44881566223029
 11
452.17992234327249
 21
325.44881566223029
  0
LINE
  8
_0-4_04
  6
CONTINUOUS
 62
    7
 10
449.7799223432724
 20
325.44881566223029
 11
442.17992234327249
 21
325.44881566223029
  0
LINE
  8
_0-4_04
  6
CONTINUOUS
 62
    7
 10
439.7799223432724
 20
325.44881566223029
 11
432.1799223432734
 21
325.44881566223029
  0
LINE
  8
_0-4_04
  6
CONTINUOUS
 62
    7
 10
429.7799223432724
 20
325.44881566223029
 11
422.67992234327249
 21
325.44881566223029
  0
ARC
  8
_0-4_04
  6
CONTINUOUS
 62
    7
 10
422.67992234327249
 20
328.44881566223029
 40
3
 50
180
 51
270
  0
LINE
  8
_0-4_04
  6
CONTINUOUS
 62
    7
 10
419.67992234327158
 20
328.44881566223029
 11
419.67992234327158
 21
338.44881566223029
  0
ARC
  8
_0-4_04
  6
CONTINUOUS
 62
    7
 10
422.67992234327249
 20
338.44881566223029
 40
3.000000000000028
 50
90
 51
180
  0
LINE
  8
_0-4_04
  6
CONTINUOUS
 62
    7
 10
422.67992234327249
 20
341.44881566223029
 11
429.7799223432724
 21
341.44881566223029
  0
LINE
  8
_0-4_04
  6
CONTINUOUS
 62
    4
 10
466.67992234327249
 20
348.77896106532012
 11
466.67992234327249
 21
318.11867025913961
  0
LINE
  8
_0-4_04
  6
CONTINUOUS
 62
    4
 10
412.67992234327249
 20
318.11867025913961
 11
412.67992234327249
 21
348.77896106532012
  0
LINE
  8
_0-4_04
  6
CONTINUOUS
 62
    4
 10
463.67992234327249
 20
313.44881566223029
 11
415.67992234327249
 21
313.44881566223029
  0
LINE
  8
_0-4_04
  6
CONTINUOUS
 62
    4
 10
463.67992234327249
 20
353.44881566223034
 11
415.67992234327249
 21
353.44881566223034
  0
LINE
  8
_0-4_04
  6
CONTINUOUS
 62
    4
 10
412.67992234327249
 20
316.92192665959351
 11
412.67992234327249
 21
318.11867025913961
  0
ARC
  8
_0-4_04
  6
CONTINUOUS
 62
    4
 10
415.93513067660552
 20
316.70148308592547
 40
3.262664043779897
 50
176.12582971445781
 51
265.51369293361932
  0
LINE
  8
_0-4_04
  6
CONTINUOUS
 62
    4
 10
466.67992234327249
 20
349.97570466486718
 11
466.67992234327249
 21
348.77896106532012
  0
ARC
  8
_0-4_04
  6
CONTINUOUS
 62
    4
 10
463.42471400993952
 20
350.19614823853431
 40
3.262664043779838
 50
356.12582971445778
 51
85.513692933622508
  0
LINE
  8
_0-4_04
  6
CONTINUOUS
 62
    4
 10
466.67992234327249
 20
318.11867025913961
 11
466.67992234327249
 21
316.92192665959351
  0
ARC
  8
_0-4_04
  6
CONTINUOUS
 62
    4
 10
463.43519940028438
 20
316.69242602697949
 40
3.2528291558473801
 50
274.31466033671529
 51
4.0458170152038546
  0
LINE
  8
_0-4_04
  6
CONTINUOUS
 62
    4
 10
412.67992234327249
 20
348.77896106532012
 11
412.67992234327249
 21
349.97570466486718
  0
ARC
  8
_0-4_04
  6
CONTINUOUS
 62
    4
 10
415.93513067660552
 20
350.19614823853431
 40
3.2626640437798349
 50
94.486307066377435
 51
183.87417028554219
  0
ARC
  8
_0-4_04
  6
CONTINUOUS
 62
    4
 10
415.67992234327249
 20
318.19881566223029
 40
1.500000000000026
 50
180
 51
270
  0
LINE
  8
_0-4_04
  6
CONTINUOUS
 62
    4
 10
414.17992234327249
 20
318.19881566223029
 11
414.17992234327249
 21
348.69881566223029
  0
ARC
  8
_0-4_04
  6
CONTINUOUS
 62
    4
 10
415.67992234327249
 20
348.69881566223029
 40
1.500000000000026
 50
90
 51
180
  0
LINE
  8
_0-4_04
  6
CONTINUOUS
 62
    4
 10
415.67992234327249
 20
350.19881566223029
 11
463.67992234327249
 21
350.19881566223029
  0
ARC
  8
_0-4_04
  6
CONTINUOUS
 62
    4
 10
463.67992234327249
 20
348.69881566223029
 40
1.4999999999999709
 50
0
 51
90
  0
LINE
  8
_0-4_04
  6
CONTINUOUS
 62
    4
 10
465.17992234327249
 20
348.69881566223029
 11
465.17992234327249
 21
318.19881566223029
  0
ARC
  8
_0-4_04
  6
CONTINUOUS
 62
    4
 10
463.67992234327249
 20
318.19881566223029
 40
1.5
 50
270
 51
0
  0
LINE
  8
_0-4_04
  6
CONTINUOUS
 62
    4
 10
463.67992234327249
 20
316.69881566223029
 11
415.67992234327249
 21
316.69881566223029
  0
LINE
  8
_0-1_01
  6
CONTINUOUS
 62
    1
 10
406.82109337690042
 20
348.69881566223029
 11
406.67992234327249
 21
348.69881566223029
  0
LINE
  8
_0-1_01
  6
CONTINUOUS
 62
    1
 10
406.67992234327249
 20
355.69881566223034
 11
406.82109337690042
 21
355.69881566223034
  0
LINE
  8
_0-1_01
  6
CONTINUOUS
 62
    1
 10
410.17992234327249
 20
348.69881566223029
 11
406.82109337690042
 21
348.69881566223029
  0
LINE
  8
_0-1_01
  6
CONTINUOUS
 62
    1
 10
406.82109337690042
 20
355.69881566223034
 11
411.1956088599743
 21
355.69881566223034
  0
LINE
  8
_0-2_02
  6
CONTINUOUS
 62
    2
 10
454.04992234327239
 20
297.34881566223044
 11
456.30992234327221
 21
297.34881566223044
  0
LINE
  8
_0-2_02
  6
CONTINUOUS
 62
    2
 10
454.04992234327239
 20
304.44881566223029
 11
456.30992234327221
 21
304.44881566223029
  0
LINE
  8
_0-2_02
  6
CONTINUOUS
 62
    2
 10
456.30992234327221
 20
296.40158741347716
 11
456.30992234327221
 21
295.84881566223044
  0
LINE
  8
_0-2_02
  6
CONTINUOUS
 62
    2
 10
456.30992234327221
 20
305.34881566223044
 11
456.30992234327221
 21
302.49604391098342
  0
LINE
  8
_0-2_02
  6
CONTINUOUS
 62
    2
 10
454.04992234327239
 20
305.34881566223044
 11
454.04992234327239
 21
302.49604391098342
  0
LINE
  8
_0-2_02
  6
CONTINUOUS
 62
    2
 10
454.04992234327239
 20
296.40158741347716
 11
454.04992234327239
 21
295.84881566223044
  0
CIRCLE
  8
_0-2_02
  6
CONTINUOUS
 62
    2
 10
455.17992234327249
 20
299.44881566223029
 40
8.25
  0
LINE
  8
_0-2_02
  6
CONTINUOUS
 62
    2
 10
454.04992234327239
 20
305.34881566223044
 11
456.30992234327221
 21
305.34881566223044
  0
LINE
  8
_0-2_02
  6
CONTINUOUS
 62
    2
 10
454.04992234327239
 20
295.84881566223044
 11
456.30992234327221
 21
295.84881566223044
  0
ARC
  8
_0-2_02
  6
CONTINUOUS
 62
    2
 10
455.17992234327249
 20
299.44881566223029
 40
3.2500000000000129
 50
110.3462311433465
 51
249.65376885665347
  0
ARC
  8
_0-2_02
  6
CONTINUOUS
 62
    2
 10
455.17992234327249
 20
299.44881566223029
 40
3.2500000000000031
 50
290.34623114334647
 51
69.653768856653485
  0
LINE
  8
_0-2_02
  6
CONTINUOUS
 62
    2
 10
440.08452163489238
 20
301.56038306268852
 11
440.08334127407647
 21
301.56258577128324
  0
LINE
  8
_0-2_02
  6
CONTINUOUS
 62
    2
 10
418.27532305165352
 20
289.33724826177206
 11
418.2765034124684
 21
289.33504555317739
  0
LINE
  8
_0-0_0
  6
CONTINUOUS
 62
    7
 10
435.2982740910773
 20
306.34935181257026
 11
435.30051019488053
 21
306.34833240173361
  0
LINE
  8
_0-0_0
  6
CONTINUOUS
 62
    7
 10
435.30051019488053
 20
306.34833240173361
 11
435.27703299053411
 21
306.36124266121141
  0
LINE
  8
_0-0_0
  6
CONTINUOUS
 62
    7
 10
423.06157059546723
 20
284.54827951189071
 11
423.05933449166452
 21
284.54929892272662
  0
LINE
  8
_0-0_0
  6
CONTINUOUS
 62
    7
 10
423.05933449166452
 20
284.54929892272662
 11
423.08281169601042
 21
284.53638866324923
  0
ARC
  8
_0-2_02
  6
CONTINUOUS
 62
    2
 10
434.49731898461619
 20
303.42325051848343
 40
3.1051237057969812
 50
79.842975170329922
 51
136.39752650786804
  0
ARC
  8
_0-2_02
  6
CONTINUOUS
 62
    2
 10
432.8258534552163
 20
304.75160102366749
 40
1.0000000000000071
 50
125.0506201695249
 51
134.9999999999954
  0
ARC
  8
_0-2_02
  6
CONTINUOUS
 62
    2
 10
423.86252570192829
 20
287.47438080597721
 40
3.10512370579728
 50
259.84297517033332
 51
316.39752650786579
  0
ARC
  8
_0-2_02
  6
CONTINUOUS
 62
    2
 10
425.53399123132732
 20
286.14603030079451
 40
1.000000000000026
 50
305.05062016952797
 51
314.99999999999545
  0
ARC
  8
_0-2_02
  6
CONTINUOUS
 62
    2
 10
419.87713698183541
 20
291.80288455028654
 40
0.9999999999999944
 50
134.9999999999954
 51
144.94937983048081
  0
LINE
  8
_0-2_02
  6
CONTINUOUS
 62
    2
 10
419.06258679848338
 20
292.37932580482561
 11
418.75782824920663
 21
291.92895057213923
  0
LINE
  8
_0-2_02
  6
CONTINUOUS
 62
    2
 10
418.75782824920663
 20
291.92895057213923
 11
418.46476659326828
 21
291.44049544682161
  0
LINE
  8
_0-2_02
  6
CONTINUOUS
 62
    2
 10
418.46476659326828
 20
291.44049544682161
 11
418.23561322290408
 21
290.98740799747759
  0
LINE
  8
_0-2_02
  6
CONTINUOUS
 62
    2
 10
418.23561322290408
 20
290.98740799747759
 11
418.07178331110509
 21
290.54048714588328
  0
LINE
  8
_0-2_02
  6
CONTINUOUS
 62
    2
 10
418.07178331110509
 20
290.54048714588328
 11
418.01710408685523
 21
290.23219282124251
  0
LINE
  8
_0-2_02
  6
CONTINUOUS
 62
    2
 10
418.01710408685523
 20
290.23219282124251
 11
418.02135359921141
 21
289.97942342752339
  0
LINE
  8
_0-2_02
  6
CONTINUOUS
 62
    2
 10
418.02135359921141
 20
289.97942342752339
 11
418.0876436107722
 21
289.70428914029321
  0
LINE
  8
_0-2_02
  6
CONTINUOUS
 62
    2
 10
418.0876436107722
 20
289.70428914029321
 11
418.1555073874286
 21
289.58081446119172
  0
LINE
  8
_0-2_02
  6
CONTINUOUS
 62
    2
 10
439.2972578880607
 20
298.51830551963462
 11
439.60201643733842
 21
298.9686807523214
  0
LINE
  8
_0-2_02
  6
CONTINUOUS
 62
    2
 10
439.60201643733842
 20
298.9686807523214
 11
439.89507809327529
 21
299.45713587763896
  0
LINE
  8
_0-2_02
  6
CONTINUOUS
 62
    2
 10
439.89507809327529
 20
299.45713587763896
 11
440.12423146364142
 21
299.91022332698338
  0
LINE
  8
_0-2_02
  6
CONTINUOUS
 62
    2
 10
440.12423146364142
 20
299.91022332698338
 11
440.28806137543853
 21
300.3571441785773
  0
LINE
  8
_0-2_02
  6
CONTINUOUS
 62
    2
 10
440.28806137543853
 20
300.3571441785773
 11
440.34274059968982
 21
300.66543850321716
  0
LINE
  8
_0-2_02
  6
CONTINUOUS
 62
    2
 10
440.34274059968982
 20
300.66543850321716
 11
440.33849108733358
 21
300.91820789693719
  0
LINE
  8
_0-2_02
  6
CONTINUOUS
 62
    2
 10
440.33849108733358
 20
300.91820789693719
 11
440.27220107577233
 21
301.19334218416736
  0
LINE
  8
_0-2_02
  6
CONTINUOUS
 62
    2
 10
440.27220107577233
 20
301.19334218416736
 11
440.2043372991173
 21
301.31681686326942
  0
ARC
  8
_0-2_02
  6
CONTINUOUS
 62
    2
 10
438.48270770470918
 20
299.0947467741741
 40
1.000000000000026
 50
314.9999999999954
 51
324.94937983048135
  0
LINE
  8
_0-1_01
  6
CONTINUOUS
 62
    1
 10
406.17992234327249
 20
355.19881566223034
 11
406.17992234327249
 21
349.19881566223029
  0
ARC
  8
_0-1_01
  6
CONTINUOUS
 62
    1
 10
406.67992234327249
 20
349.19881566223029
 40
0.5
 50
180
 51
270
  0
ARC
  8
_0-1_01
  6
CONTINUOUS
 62
    1
 10
406.67992234327249
 20
355.19881566223034
 40
0.5
 50
90
 51
180
  0
INSERT
  2
-025-_D26
  8
_0-8_S
 10
135.3129820553234
 20
95.444542909180399
 41
1
 42
1
 50
0
  0
INSERT
  2
-000-_D1
  8
_0-8_S
 10
135.3129820553234
 20
95.444542909180399
 41
1
 42
1
 50
0
  0
INSERT
  2
-001-_D2
  8
_0-8_S
 10
135.3129820553234
 20
95.444542909180399
 41
1
 42
1
 50
0
  0
INSERT
  2
-002-_D3
  8
_0-8_S
 10
135.3129820553234
 20
95.444542909180399
 41
1
 42
1
 50
0
  0
INSERT
  2
-003-_D4
  8
_0-8_S
 10
135.3129820553234
 20
95.444542909180399
 41
1
 42
1
 50
0
  0
INSERT
  2
-004-_D5
  8
_0-8_S
 10
135.3129820553234
 20
95.444542909180399
 41
1
 42
1
 50
0
  0
INSERT
  2
-005-_D6
  8
_0-8_S
 10
135.3129820553234
 20
95.444542909180399
 41
1
 42
1
 50
0
  0
LINE
  8
_0-9_T
  6
CENTER2_17
 62
    5
 10
429.1799223384354
 20
384.1808526734842
 11
429.17992233843438
 21
454.69211814643518
  0
LINE
  8
_0-9_T
  6
CENTER2_17
 62
    5
 10
356.34268446737337
 20
295.44881564856746
 11
299.32005322772039
 21
295.44881564856746
  0
INSERT
  2
-006-_D7
  8
_0-8_S
 10
135.3129820553234
 20
95.444542909180399
 41
1
 42
1
 50
0
  0
INSERT
  2
-007-_D8
  8
_0-8_S
 10
135.3129820553234
 20
95.444542909180399
 41
1
 42
1
 50
0
  0
INSERT
  2
-008-_D9
  8
_0-8_S
 10
135.3129820553234
 20
95.444542909180399
 41
1
 42
1
 50
0
  0
INSERT
  2
-009-_D10
  8
_0-8_S
 10
135.3129820553234
 20
95.444542909180399
 41
1
 42
1
 50
0
  0
LINE
  8
_0-9_T
  6
CENTER2_17
 62
    5
 10
207.46931370170597
 20
295.44881564547421
 11
262.65177829978143
 21
295.44881564547421
  0
LINE
  8
_0-9_T
  6
CENTER2_17
 62
    5
 10
219.99046478155634
 20
307.96996672532464
 11
219.99046478155634
 21
282.9276645656239
  0
INSERT
  2
-010-_D11
  8
_0-8_S
 10
135.3129820553234
 20
95.444542909180399
 41
1
 42
1
 50
0
  0
INSERT
  2
-011-_D12
  8
_0-8_S
 10
135.3129820553234
 20
95.444542909180399
 41
1
 42
1
 50
0
  0
INSERT
  2
-012-_D13
  8
_0-8_S
 10
135.3129820553234
 20
95.444542909180399
 41
1
 42
1
 50
0
  0
INSERT
  2
-013-_D14
  8
_0-8_S
 10
135.3129820553234
 20
95.444542909180399
 41
1
 42
1
 50
0
  0
INSERT
  2
-014-_D15
  8
_0-8_S
 10
135.3129820553234
 20
95.444542909180399
 41
1
 42
1
 50
0
  0
INSERT
  2
-015-_D16
  8
_0-8_S
 10
135.3129820553234
 20
95.444542909180399
 41
1
 42
1
 50
0
  0
INSERT
  2
-026-_D27
  8
_0-8_S
 10
135.3129820553234
 20
95.444542909180399
 41
1
 42
1
 50
0
  0
INSERT
  2
-027-_D28
  8
_0-8_S
 10
135.3129820553234
 20
95.444542909180399
 41
1
 42
1
 50
0
  0
LINE
  8
_0-9_T
  6
CENTER2_17
 62
    5
 10
455.17992234469631
 20
310.0593280504583
 11
455.17992234469631
 21
288.83830324049063
  0
LINE
  8
_0-9_T
  6
CENTER2_17
 62
    5
 10
444.56940993971222
 20
299.44881564547421
 11
465.79043474968131
 21
299.44881564547421
  0
INSERT
  2
-028-_D29
  8
_0-8_S
 10
135.3129820553234
 20
95.444542909180399
 41
1
 42
1
 50
0
  0
INSERT
  2
-017-_D18
  8
_0-8_S
 10
135.3129820553234
 20
95.444542909180399
 41
1
 42
1
 50
0
  0
INSERT
  2
-018-_D19
  8
_0-8_S
 10
135.3129820553234
 20
95.444542909180399
 41
1
 42
1
 50
0
  0
INSERT
  2
-019-_D20
  8
_0-8_S
 10
135.3129820553234
 20
95.444542909180399
 41
1
 42
1
 50
0
  0
INSERT
  2
-020-_D21
  8
_0-8_S
 10
135.3129820553234
 20
95.444542909180399
 41
1
 42
1
 50
0
  0
INSERT
  2
-029-_D30
  8
_0-8_S
 10
135.3129820553234
 20
95.444542909180399
 41
1
 42
1
 50
0
  0
INSERT
  2
-030-_D31
  8
_0-8_S
 10
135.3129820553234
 20
95.444542909180399
 41
1
 42
1
 50
0
  0
LINE
  8
_0-9_T
  6
CENTER2_17
 62
    5
 10
429.17992233843438
 20
312.14641062517029
 11
429.17992234412293
 21
278.75122069929029
  0
LINE
  8
_0-9_T
  6
CENTER2_17
 62
    5
 10
445.87751731503732
 20
295.44881564856746
 11
389.26790894301064
 21
295.44881564856746
  0
TEXT
  8
_0-8_S
 62
    7
 10
187.07570316175617
 20
420.04742859215025
 40
3
 41
1
 50
0
  1
対応板厚：t0.7～1.0mm
  0
TEXT
  8
_0-8_S
 62
    7
 10
187.07570316175617
 20
426.04742859215025
 40
3
 41
1
 50
0
  1
鋼製扉用キリカキ穴形状
  0
LINE
  8
_0-1_01
  6
CONTINUOUS
 62
    1
 10
182.98854099291003
 20
466.21199161353729
 11
236.68854099290888
 21
466.21199161353729
  0
LINE
  8
_0-1_01
  6
CONTINUOUS
 62
    1
 10
236.68854099290888
 20
466.21199161353729
 11
236.68854099290888
 21
392.01199161353748
  0
LINE
  8
_0-1_01
  6
CONTINUOUS
 62
    1
 10
182.98854099291003
 20
392.01199161353748
 11
236.68854099290888
 21
392.01199161353748
  0
LINE
  8
_0-1_01
  6
CONTINUOUS
 62
    1
 10
182.98854099291003
 20
466.21199161353729
 11
182.98854099291003
 21
392.01199161353748
  0
LINE
  8
_0-9_T
  6
CENTER2_17
 62
    5
 10
476.40428928374268
 20
333.44881564547421
 11
403.16986598167921
 21
333.44881564547421
  0
ARC
  8
_0-2_02
  6
CONTINUOUS
 62
    2
 10
212.99046478155634
 20
310.94881564547427
 40
3.9999999999999298
 50
257.846802530986
 51
282.153197469014
  0
ARC
  8
_0-2_02
  6
CONTINUOUS
 62
    2
 10
212.99046478155634
 20
310.94881564547427
 40
4.0000000000000471
 50
77.846802530985983
 51
102.153197469014
  0
ARC
  8
_0-2_02
  6
CONTINUOUS
 62
    2
 10
212.99046478155407
 20
310.94881564548518
 40
4.0000000000111751
 50
282.153197469014
 51
288.40848017058119
  0
ARC
  8
_0-2_02
  6
CONTINUOUS
 62
    2
 10
212.99046478156316
 20
310.9488156454488
 40
4.0000000000263727
 50
102.1531974690398
 51
108.40848017055632
  0
ARC
  8
_0-2_02
  6
CONTINUOUS
 62
    2
 10
212.99046478152724
 20
310.94881564537059
 40
3.999999999892927
 50
251.59151982933639
 51
257.84680253109332
  0
ARC
  8
_0-2_02
  6
CONTINUOUS
 62
    2
 10
212.99046478153406
 20
310.94881564539423
 40
4.0000000000818901
 50
71.591519829467657
 51
77.846802530929295
  0
LINE
  8
_0-2_02
  6
CONTINUOUS
 62
    2
 10
213.99046478155634
 20
307.66095920091971
 11
213.99046478155634
 21
314.23667209002883
  0
LINE
  8
_0-2_02
  6
CONTINUOUS
 62
    2
 10
211.99046478155634
 20
314.23667209002883
 11
211.99046478155634
 21
307.66095920091971
  0
ARC
  8
_0-2_02
  6
CONTINUOUS
 62
    2
 10
211.79046478155607
 20
314.55436692093713
 40
0.2000000000000284
 50
0
 51
108.40848017058121
  0
ARC
  8
_0-2_02
  6
CONTINUOUS
 62
    2
 10
214.19046478155616
 20
314.55436692093713
 40
0.2000000000000284
 50
71.591519829418729
 51
180
  0
ARC
  8
_0-2_02
  6
CONTINUOUS
 62
    2
 10
211.79046478155607
 20
307.3432643700105
 40
0.200000000000017
 50
251.59151982944371
 51
0.0000000000000127
  0
ARC
  8
_0-2_02
  6
CONTINUOUS
 62
    2
 10
214.19046478155616
 20
307.3432643700105
 40
0.2000000000000284
 50
180
 51
288.40848017058113
  0
ARC
  8
_0-2_02
  6
CONTINUOUS
 62
    2
 10
212.99046478155634
 20
310.94881564547427
 40
4.0000000000000391
 50
288.40848017058124
 51
71.591519829418715
  0
ARC
  8
_0-2_02
  6
CONTINUOUS
 62
    2
 10
212.99046478155634
 20
310.94881564547427
 40
4.0000000000000391
 50
108.40848017058121
 51
251.59151982941873
  0
CIRCLE
  8
_0-3_03
  6
CONTINUOUS
 62
    3
 10
212.99046478155634
 20
310.94881564547427
 40
4.100000000000021
  0
LINE
  8
_0-3_03
  6
CONTINUOUS
 62
    7
 10
215.0783986064078
 20
321.07388307938913
 11
213.90082263086407
 21
322.48558960699177
  0
ARC
  8
_0-3_03
  6
CONTINUOUS
 62
    7
 10
214.10868795648895
 20
322.60339310520499
 40
0.2389260508779111
 50
140.820153117123
 51
209.54152520377809
  0
ARC
  8
_0-3_03
  6
CONTINUOUS
 62
    7
 10
214.07861052945447
 20
322.52585970488622
 40
0.2761645775192447
 50
44.953477309598419
 51
124.17556730911322
  0
LINE
  8
_0-3_03
  6
CONTINUOUS
 62
    7
 10
214.27404687110885
 20
322.72097892546003
 11
215.3345575706233
 21
321.34766477332892
  0
LINE
  8
_0-3_03
  6
CONTINUOUS
 62
    7
 10
215.3345575706233
 20
321.34766477332892
 11
216.4076559342264
 21
322.73671350557129
  0
ARC
  8
_0-3_03
  6
CONTINUOUS
 62
    7
 10
216.584053642019
 20
322.53073480039052
 40
0.2711888240733709
 50
50.040828206021502
 51
130.5763555515411
  0
ARC
  8
_0-3_03
  6
CONTINUOUS
 62
    7
 10
216.61277525674888
 20
322.6053256602288
 40
0.1972748241285002
 50
327.75290877006609
 51
42.499627959256898
  0
LINE
  8
_0-3_03
  6
CONTINUOUS
 62
    7
 10
216.7796214080625
 20
322.5000654206944
 11
215.59952789970049
 21
321.07325369618434
  0
LINE
  8
_0-3_03
  6
CONTINUOUS
 62
    7
 10
215.59952789970049
 20
321.07325369618434
 11
216.88095210398097
 21
319.57909796879744
  0
ARC
  8
_0-3_03
  6
CONTINUOUS
 62
    7
 10
216.69407244129144
 20
319.53381793768187
 40
0.2682018349052147
 50
231.19008378988173
 51
302.33486956595129
  0
LINE
  8
_0-3_03
  6
CONTINUOUS
 62
    7
 10
216.52597997666527
 20
319.32482715419587
 11
215.33392818741851
 21
320.8001013854493
  0
LINE
  8
_0-3_03
  6
CONTINUOUS
 62
    7
 10
215.33392818741851
 20
320.8001013854493
 11
214.17712185762213
 21
319.3632195296679
  0
ARC
  8
_0-3_03
  6
CONTINUOUS
 62
    7
 10
213.98028614677042
 20
319.5087153599045
 40
0.2447720034695949
 50
237.27329238536697
 51
323.5291532030684
  0
ARC
  8
_0-3_03
  6
CONTINUOUS
 62
    7
 10
213.98083080264934
 20
319.46478821785126
 40
0.2095154351725122
 50
142.50624481348018
 51
230.63873343857611
  0
LINE
  8
_0-3_03
  6
CONTINUOUS
 62
    7
 10
213.81459713185342
 20
319.59231501609088
 11
215.0783986064078
 21
321.07388307938913
  0
ARC
  8
_0-3_03
  6
CONTINUOUS
 62
    7
 10
212.78242178458714
 20
322.56442262231508
 40
0.2017213924885135
 50
83.991272580096677
 51
186.49496874078051
  0
LINE
  8
_0-3_03
  6
CONTINUOUS
 62
    7
 10
213.05088556918491
 20
322.5416047121891
 11
213.05088556918491
 21
319.48909617055983
  0
LINE
  8
_0-3_03
  6
CONTINUOUS
 62
    7
 10
212.58199508186209
 20
319.48909617055983
 11
212.58199508186209
 21
322.5416047121891
  0
ARC
  8
_0-3_03
  6
CONTINUOUS
 62
    7
 10
212.83782902815148
 20
322.55436975956331
 40
0.2134386003310994
 50
356.57128538007458
 51
99.245210524522918
  0
ARC
  8
_0-3_03
  6
CONTINUOUS
 62
    7
 10
212.7827625658727
 20
319.46605080873059
 40
0.2020858019202869
 50
173.4518867267978
 51
275.90071022334672
  0
LINE
  8
_0-3_03
  6
CONTINUOUS
 62
    7
 10
211.58289420072543
 20
322.41698683770591
 11
209.69789150336948
 21
322.41698683770591
  0
LINE
  8
_0-3_03
  6
CONTINUOUS
 62
    7
 10
209.6953739705512
 20
322.37481816300738
 11
209.6953739705512
 21
321.28095015365648
  0
LINE
  8
_0-3_03
  6
CONTINUOUS
 62
    7
 10
209.6953739705512
 20
321.28095015365648
 11
211.33239968535128
 21
321.28095015365648
  0
LINE
  8
_0-3_03
  6
CONTINUOUS
 62
    7
 10
211.33239968535128
 20
320.93290124159029
 11
209.6953739705512
 21
320.93290124159029
  0
LINE
  8
_0-3_03
  6
CONTINUOUS
 62
    7
 10
209.6953739705512
 20
320.93290124159029
 11
209.6953739705512
 21
319.48909617055983
  0
ARC
  8
_0-3_03
  6
CONTINUOUS
 62
    7
 10
209.42725096723899
 20
319.46605080873059
 40
0.2020858019202903
 50
173.4518867267978
 51
275.90071022334672
  0
LINE
  8
_0-3_03
  6
CONTINUOUS
 62
    7
 10
209.22648348322838
 20
319.48909617055983
 11
209.22648348322838
 21
322.42453943615942
  0
ARC
  8
_0-3_03
  6
CONTINUOUS
 62
    7
 10
209.54099576520258
 20
322.45193586074686
 40
0.315703246091566
 50
82.636846261100033
 51
184.97833442882992
  0
LINE
  8
_0-3_03
  6
CONTINUOUS
 62
    7
 10
209.58145561054408
 20
322.7650357497721
 11
211.58289420072543
 21
322.7650357497721
  0
LINE
  8
_0-3_03
  6
CONTINUOUS
 62
    7
 10
211.82706732193475
 20
317.59881564547436
 11
212.90386224117793
 21
315.73375213601344
  0
ARC
  8
_0-3_03
  6
CONTINUOUS
 62
    7
 10
211.91366986231316
 20
317.64881564547409
 40
0.1000000000000095
 50
90
 51
209.99999999999719
  0
ARC
  8
_0-3_03
  6
CONTINUOUS
 62
    7
 10
212.99046478155634
 20
315.78375213601311
 40
0.1000000000000236
 50
209.99999999999716
 51
330.00000000000279
  0
LINE
  8
_0-3_03
  6
CONTINUOUS
 62
    7
 10
214.06725970079953
 20
317.74881564547439
 11
211.91366986231316
 21
317.74881564547439
  0
LINE
  8
_0-3_03
  6
CONTINUOUS
 62
    7
 10
213.07706732193475
 20
315.73375213601344
 11
214.15386224117793
 21
317.59881564547436
  0
ARC
  8
_0-3_03
  6
CONTINUOUS
 62
    7
 10
214.06725970079953
 20
317.64881564547409
 40
0.1000000000000095
 50
330.00000000000279
 51
90
  0
LINE
  8
_0-3_03
  6
CONTINUOUS
 62
    7
 10
206.3404647815567
 20
309.78541818585268
 11
208.20552829101763
 21
310.8622131050958
  0
ARC
  8
_0-3_03
  6
CONTINUOUS
 62
    7
 10
206.29046478155652
 20
309.87202072623097
 40
0.1000000000000236
 50
180
 51
299.99999999999721
  0
LINE
  8
_0-3_03
  6
CONTINUOUS
 62
    7
 10
206.19046478155616
 20
312.0256105647174
 11
206.19046478155616
 21
309.87202072623097
  0
ARC
  8
_0-3_03
  6
CONTINUOUS
 62
    7
 10
206.29046478155652
 20
312.0256105647174
 40
0.1000000000000236
 50
60.000000000002792
 51
180
  0
LINE
  8
_0-3_03
  6
CONTINUOUS
 62
    7
 10
208.20552829101763
 20
311.03541818585256
 11
206.3404647815567
 21
312.1122131050958
  0
ARC
  8
_0-3_03
  6
CONTINUOUS
 62
    7
 10
208.15552829101745
 20
310.94881564547427
 40
0.1000000000000236
 50
300.00000000003303
 51
60.000000000002835
  0
LINE
  8
_0-3_03
  6
CONTINUOUS
 62
    7
 10
205.17136749689581
 20
314.71698683770609
 11
203.13657159687756
 21
314.71698683770609
  0
LINE
  8
_0-3_03
  6
CONTINUOUS
 62
    7
 10
203.13405406405928
 20
314.6748181630071
 11
203.13405406405928
 21
313.61430746349259
  0
LINE
  8
_0-3_03
  6
CONTINUOUS
 62
    7
 10
203.13405406405928
 20
313.61430746349259
 11
204.90450901820424
 21
313.61430746349259
  0
LINE
  8
_0-3_03
  6
CONTINUOUS
 62
    7
 10
204.90450901820424
 20
313.26625855142652
 11
203.13405406405928
 21
313.26625855142652
  0
LINE
  8
_0-3_03
  6
CONTINUOUS
 62
    7
 10
203.13405406405928
 20
313.26625855142652
 11
203.13405406405928
 21
311.95588271974134
  0
LINE
  8
_0-3_03
  6
CONTINUOUS
 62
    7
 10
203.13657159687756
 20
311.91308466183841
 11
205.17136749689581
 21
311.91308466183841
  0
LINE
  8
_0-3_03
  6
CONTINUOUS
 62
    7
 10
205.17136749689581
 20
311.56503574977216
 11
203.02013570405217
 21
311.56503574977216
  0
ARC
  8
_0-3_03
  6
CONTINUOUS
 62
    7
 10
202.97901662773694
 20
311.8775007768906
 40
0.3151589624447824
 50
174.7822923546816
 51
277.4968051854496
  0
LINE
  8
_0-3_03
  6
CONTINUOUS
 62
    7
 10
202.66516357673737
 20
311.90616144658929
 11
202.66516357673737
 21
314.7245394361596
  0
ARC
  8
_0-3_03
  6
CONTINUOUS
 62
    7
 10
202.97967585871157
 20
314.7519358607467
 40
0.3157032460914359
 50
82.63684626107046
 51
184.97833442885531
  0
LINE
  8
_0-3_03
  6
CONTINUOUS
 62
    7
 10
203.02013570405217
 20
315.06503574977228
 11
205.17136749689581
 21
315.06503574977228
  0
LINE
  8
_0-3_03
  6
CONTINUOUS
 62
    7
 10
203.68395516098445
 20
309.71698683770609
 11
202.63036767671912
 21
309.71698683770609
  0
LINE
  8
_0-3_03
  6
CONTINUOUS
 62
    7
 10
202.63036767671912
 20
309.71698683770609
 11
202.63036767671912
 21
306.7890961705595
  0
ARC
  8
_0-3_03
  6
CONTINUOUS
 62
    7
 10
202.36224467340691
 20
306.76605080873031
 40
0.2020858019203118
 50
173.45188672682403
 51
275.90071022334672
  0
LINE
  8
_0-3_03
  6
CONTINUOUS
 62
    7
 10
202.1614771893972
 20
306.7890961705595
 11
202.1614771893972
 21
309.71698683770609
  0
LINE
  8
_0-3_03
  6
CONTINUOUS
 62
    7
 10
202.1614771893972
 20
309.71698683770609
 11
201.08208499374888
 21
309.71698683770609
  0
ARC
  8
_0-3_03
  6
CONTINUOUS
 62
    7
 10
201.05666163570714
 20
309.88005272474061
 40
0.1650358465563628
 50
176.08319268098299
 51
278.8615580271574
  0
ARC
  8
_0-3_03
  6
CONTINUOUS
 62
    7
 10
201.05779439809868
 20
309.90077009580466
 40
0.1660519139015476
 50
81.588409855631781
 51
183.26042503174847
  0
LINE
  8
_0-3_03
  6
CONTINUOUS
 62
    7
 10
201.08208499374888
 20
310.06503574977216
 11
203.68395516098445
 21
310.06503574977216
  0
LINE
  8
_0-3_03
  6
CONTINUOUS
 62
    7
 10
201.85847413239281
 20
314.71698683770609
 11
199.82367823237456
 21
314.71698683770609
  0
LINE
  8
_0-3_03
  6
CONTINUOUS
 62
    7
 10
199.8211606995572
 20
314.6748181630071
 11
199.8211606995572
 21
313.61430746349259
  0
LINE
  8
_0-3_03
  6
CONTINUOUS
 62
    7
 10
199.8211606995572
 20
313.61430746349259
 11
201.59161565370124
 21
313.61430746349259
  0
LINE
  8
_0-3_03
  6
CONTINUOUS
 62
    7
 10
201.59161565370124
 20
313.26625855142652
 11
199.8211606995572
 21
313.26625855142652
  0
LINE
  8
_0-3_03
  6
CONTINUOUS
 62
    7
 10
199.8211606995572
 20
313.26625855142652
 11
199.8211606995572
 21
311.95588271974134
  0
LINE
  8
_0-3_03
  6
CONTINUOUS
 62
    7
 10
199.82367823237456
 20
311.91308466183841
 11
201.85847413239281
 21
311.91308466183841
  0
LINE
  8
_0-3_03
  6
CONTINUOUS
 62
    7
 10
201.85847413239281
 20
311.56503574977216
 11
199.70724233954917
 21
311.56503574977216
  0
ARC
  8
_0-3_03
  6
CONTINUOUS
 62
    7
 10
199.66612326323394
 20
311.8775007768906
 40
0.3151589624447628
 50
174.7822923546816
 51
277.49680518547501
  0
LINE
  8
_0-3_03
  6
CONTINUOUS
 62
    7
 10
199.35227021223437
 20
311.90616144658929
 11
199.35227021223437
 21
314.7245394361596
  0
ARC
  8
_0-3_03
  6
CONTINUOUS
 62
    7
 10
199.66678249420858
 20
314.7519358607467
 40
0.3157032460914641
 50
82.63684626107046
 51
184.9783344288299
  0
LINE
  8
_0-3_03
  6
CONTINUOUS
 62
    7
 10
199.70724233954917
 20
315.06503574977228
 11
201.85847413239281
 21
315.06503574977228
  0
LINE
  8
_0-3_03
  6
CONTINUOUS
 62
    7
 10
200.20202745014177
 20
309.71698683770609
 11
198.16723155012352
 21
309.71698683770609
  0
LINE
  8
_0-3_03
  6
CONTINUOUS
 62
    7
 10
198.16471401730524
 20
309.6748181630071
 11
198.16471401730524
 21
308.61430746349259
  0
LINE
  8
_0-3_03
  6
CONTINUOUS
 62
    7
 10
198.16471401730524
 20
308.61430746349259
 11
199.9351689714502
 21
308.61430746349259
  0
LINE
  8
_0-3_03
  6
CONTINUOUS
 62
    7
 10
199.9351689714502
 20
308.26625855142652
 11
198.16471401730524
 21
308.26625855142652
  0
LINE
  8
_0-3_03
  6
CONTINUOUS
 62
    7
 10
198.16471401730524
 20
308.26625855142652
 11
198.16471401730524
 21
306.95588271974134
  0
LINE
  8
_0-3_03
  6
CONTINUOUS
 62
    7
 10
198.16723155012352
 20
306.91308466183841
 11
200.20202745014177
 21
306.91308466183841
  0
LINE
  8
_0-3_03
  6
CONTINUOUS
 62
    7
 10
200.20202745014177
 20
306.56503574977228
 11
198.05079565729812
 21
306.56503574977228
  0
ARC
  8
_0-3_03
  6
CONTINUOUS
 62
    7
 10
198.00967658098199
 20
306.8775007768906
 40
0.3151589624447556
 50
174.7822923546816
 51
277.4968051854496
  0
LINE
  8
_0-3_03
  6
CONTINUOUS
 62
    7
 10
197.69582352998333
 20
306.90616144658929
 11
197.69582352998333
 21
309.7245394361596
  0
ARC
  8
_0-3_03
  6
CONTINUOUS
 62
    7
 10
198.01033581195753
 20
309.7519358607467
 40
0.3157032460915119
 50
82.636846261100033
 51
184.97833442882992
  0
LINE
  8
_0-3_03
  6
CONTINUOUS
 62
    7
 10
198.05079565729812
 20
310.06503574977216
 11
200.20202745014177
 21
310.06503574977216
  0
LINE
  8
_0-3_03
  6
CONTINUOUS
 62
    7
 10
196.34714523471285
 20
314.6748181630071
 11
196.34714523471285
 21
313.53059949729931
  0
LINE
  8
_0-3_03
  6
CONTINUOUS
 62
    7
 10
196.34714523471285
 20
313.53059949729931
 11
197.58388323147557
 21
313.53059949729931
  0
LINE
  8
_0-3_03
  6
CONTINUOUS
 62
    7
 10
197.61724054131156
 20
314.71698683770609
 11
196.34966276753022
 21
314.71698683770609
  0
ARC
  8
_0-3_03
  6
CONTINUOUS
 62
    7
 10
197.65157546614029
 20
313.71189909187274
 40
1.356904501206833
 50
49.034110654938473
 51
94.270807061713569
  0
ARC
  8
_0-3_03
  6
CONTINUOUS
 62
    7
 10
198.55725208773111
 20
311.8176208300867
 40
0.2616146220374023
 50
200.02269268809493
 51
288.00107011599391
  0
ARC
  8
_0-3_03
  6
CONTINUOUS
 62
    7
 10
197.44367158010374
 20
312.2354281027549
 40
0.9517058005963018
 50
51.283903057495863
 51
95.625365173829252
  0
LINE
  8
_0-3_03
  6
CONTINUOUS
 62
    7
 10
197.35038206262089
 20
313.18255058523323
 11
196.34714523471285
 21
313.18255058523323
  0
LINE
  8
_0-3_03
  6
CONTINUOUS
 62
    7
 10
196.34714523471285
 20
313.18255058523323
 11
196.34714523471285
 21
311.78909617055956
  0
ARC
  8
_0-3_03
  6
CONTINUOUS
 62
    7
 10
196.07902223140064
 20
311.76605080873082
 40
0.2020858019203838
 50
173.45188672684941
 51
275.90071022332131
  0
LINE
  8
_0-3_03
  6
CONTINUOUS
 62
    7
 10
195.87825474739003
 20
311.78909617055956
 11
195.87825474739003
 21
314.7245394361596
  0
ARC
  8
_0-3_03
  6
CONTINUOUS
 62
    7
 10
196.19276702936423
 20
314.7519358607467
 40
0.3157032460915413
 50
82.636846261100033
 51
184.97833442882992
  0
LINE
  8
_0-3_03
  6
CONTINUOUS
 62
    7
 10
196.23322687470483
 20
315.06503574977228
 11
197.55052592163958
 21
315.06503574977228
  0
ARC
  8
_0-3_03
  6
CONTINUOUS
 62
    7
 10
196.70114662067118
 20
309.29496950621541
 40
0.2166133843348853
 50
286.2163076303338
 51
14.56062803520491
  0
ARC
  8
_0-3_03
  6
CONTINUOUS
 62
    7
 10
196.69581031240779
 20
309.31165175671197
 40
0.234122622075937
 50
210.53264466365709
 51
286.3301638661174
  0
ARC
  8
_0-3_03
  6
CONTINUOUS
 62
    7
 10
195.65053707443968
 20
308.73158668250346
 40
0.9931500317012748
 50
49.041434320743761
 51
96.865071410539358
  0
LINE
  8
_0-3_03
  6
CONTINUOUS
 62
    7
 10
195.17999903798483
 20
308.6464060069199
 11
196.11463309660741
 21
308.46262611121779
  0
ARC
  8
_0-3_03
  6
CONTINUOUS
 62
    7
 10
195.44754525548325
 20
308.11024597987148
 40
1.552570039164594
 50
225.8544855394839
 51
275.58106414133169
  0
ARC
  8
_0-3_03
  6
CONTINUOUS
 62
    7
 10
194.27168550378775
 20
307.5091366922731
 40
0.1980916378531805
 50
110.4214100005522
 51
205.60951878918689
  0
ARC
  8
_0-3_03
  6
CONTINUOUS
 62
    7
 10
194.2901902643369
 20
307.44938850402349
 40
0.2605650596158882
 50
25.14141859248582
 51
109.6505153843714
  0
ARC
  8
_0-3_03
  6
CONTINUOUS
 62
    7
 10
195.49306345151655
 20
308.02371289098187
 40
1.1156254420966529
 50
226.39928169934859
 51
275.42506065405541
  0
ARC
  8
_0-3_03
  6
CONTINUOUS
 62
    7
 10
195.73995682688002
 20
308.04741235816232
 40
1.143109076804373
 50
262.89353527342541
 51
309.70628616030638
  0
LINE
  8
_0-3_03
  6
CONTINUOUS
 62
    7
 10
196.02400191516591
 20
308.08373742213303
 11
195.10699058626761
 21
308.2675173178352
  0
ARC
  8
_0-3_03
  6
CONTINUOUS
 62
    7
 10
195.36737240418444
 20
308.60328962256131
 40
1.469228287620824
 50
84.21516500431413
 51
128.51615846885886
  0
ARC
  8
_0-3_03
  6
CONTINUOUS
 62
    7
 10
195.70613724553715
 20
308.6418303712864
 40
1.435921743084946
 50
47.544275503218877
 51
97.630882335905284
  0
ARC
  8
_0-3_03
  6
CONTINUOUS
 62
    7
 10
195.77516450798231
 20
308.2312921863865
 40
1.6755915758092881
 50
263.94915843337594
 51
307.98106339890523
  0
LINE
  8
_0-3_03
  6
CONTINUOUS
 62
    7
 10
195.08289420072543
 20
314.71698683770609
 11
193.19789150336948
 21
314.71698683770609
  0
LINE
  8
_0-3_03
  6
CONTINUOUS
 62
    7
 10
193.1953739705512
 20
314.6748181630071
 11
193.1953739705512
 21
313.5809501536562
  0
LINE
  8
_0-3_03
  6
CONTINUOUS
 62
    7
 10
193.1953739705512
 20
313.5809501536562
 11
194.83239968535037
 21
313.5809501536562
  0
LINE
  8
_0-3_03
  6
CONTINUOUS
 62
    7
 10
194.83239968535037
 20
313.23290124159007
 11
193.1953739705512
 21
313.23290124159007
  0
LINE
  8
_0-3_03
  6
CONTINUOUS
 62
    7
 10
193.1953739705512
 20
313.23290124159007
 11
193.1953739705512
 21
311.78909617055956
  0
ARC
  8
_0-3_03
  6
CONTINUOUS
 62
    7
 10
192.92725096723899
 20
311.76605080873037
 40
0.2020858019202894
 50
173.45188672682403
 51
275.90071022334672
  0
LINE
  8
_0-3_03
  6
CONTINUOUS
 62
    7
 10
192.72648348322838
 20
311.78909617055956
 11
192.72648348322838
 21
314.7245394361596
  0
ARC
  8
_0-3_03
  6
CONTINUOUS
 62
    7
 10
193.04099576520258
 20
314.7519358607467
 40
0.3157032460915685
 50
82.636846261100033
 51
184.97833442882992
  0
LINE
  8
_0-3_03
  6
CONTINUOUS
 62
    7
 10
193.08145561054408
 20
315.06503574977228
 11
195.08289420072543
 21
315.06503574977228
  0
LINE
  8
_0-3_03
  6
CONTINUOUS
 62
    3
 10
217.99046478155634
 20
310.94881564547427
 11
217.99046478155634
 21
320.94881564547421
  0
ARC
  8
_0-3_03
  6
CONTINUOUS
 62
    3
 10
212.99046478155634
 20
310.94881564547427
 40
5
 50
270
 51
0
  0
LINE
  8
_0-3_03
  6
CONTINUOUS
 62
    3
 10
193.99046478155634
 20
305.94881564547421
 11
212.99046478155634
 21
305.94881564547421
  0
ARC
  8
_0-3_03
  6
CONTINUOUS
 62
    3
 10
193.99046478155634
 20
310.94881564547427
 40
5
 50
90
 51
270
  0
LINE
  8
_0-3_03
  6
CONTINUOUS
 62
    3
 10
205.99046478155634
 20
315.94881564547421
 11
193.99046478155634
 21
315.94881564547421
  0
ARC
  8
_0-3_03
  6
CONTINUOUS
 62
    3
 10
205.99046478155634
 20
317.94881564547421
 40
2
 50
270
 51
0
  0
LINE
  8
_0-3_03
  6
CONTINUOUS
 62
    3
 10
207.99046478155634
 20
320.94881564547421
 11
207.99046478155634
 21
317.94881564547421
  0
ARC
  8
_0-3_03
  6
CONTINUOUS
 62
    3
 10
212.99046478155634
 20
320.94881564547421
 40
5
 50
0
 51
180
  0
LINE
  8
_0-2_02
  6
CONTINUOUS
 62
    2
 10
299.79608606699941
 20
307.44881564547421
 11
299.79608606699941
 21
314.44881564547421
  0
ARC
  8
_0-2_02
  6
CONTINUOUS
 62
    2
 10
300.29608606699941
 20
314.44881564547421
 40
0.5000000000000035
 50
90
 51
180
  0
ARC
  8
_0-2_02
  6
CONTINUOUS
 62
    2
 10
300.29608606699941
 20
307.44881564547421
 40
0.5000000000000035
 50
180
 51
270
  0
LINE
  8
_0-2_02
  6
CONTINUOUS
 62
    2
 10
300.29608606699941
 20
306.94881564547427
 11
303.59608606699959
 21
306.94881564547472
  0
LINE
  8
_0-2_02
  6
CONTINUOUS
 62
    2
 10
303.59608606699959
 20
314.94881564547421
 11
300.29608606699941
 21
314.94881564547421
  0
LINE
  8
_0-3_03
  6
CONTINUOUS
 62
    3
 10
303.5960860670005
 20
325.94881564547427
 11
303.79608606699941
 21
325.94881564547381
  0
LINE
  8
_0-3_03
  6
CONTINUOUS
 62
    3
 10
303.59608606699908
 20
305.94881564547472
 11
303.7960860669989
 21
305.94881564547472
  0
LINE
  8
_0-3_03
  6
CONTINUOUS
 62
    3
 10
303.59608606699908
 20
305.94881564547472
 11
303.5960860670005
 21
325.94881564547427
  0
LINE
  8
_0-3_03
  6
CONTINUOUS
 62
    3
 10
303.39608606700017
 20
322.801919691097
 11
303.5960860670005
 21
322.801919691097
  0
LINE
  8
_0-3_03
  6
CONTINUOUS
 62
    3
 10
303.39608606700017
 20
319.2656161027769
 11
303.5960860670005
 21
319.2656161027769
  0
LINE
  8
_0-3_03
  6
CONTINUOUS
 62
    3
 10
303.39608606699971
 20
317.748815645474
 11
303.59608606699959
 21
317.748815645474
  0
LINE
  8
_0-3_03
  6
CONTINUOUS
 62
    3
 10
303.39608606699932
 20
315.6837521360128
 11
303.59608606699959
 21
315.6837521360132
  0
LINE
  8
_0-3_03
  6
CONTINUOUS
 62
    3
 10
303.39608606699932
 20
315.6837521360128
 11
303.39608606699971
 21
317.748815645474
  0
LINE
  8
_0-3_03
  6
CONTINUOUS
 62
    3
 10
303.39608606700062
 20
319.2656161027769
 11
303.39608606700017
 21
322.801919691097
  0
ARC
  8
_0-2_02
  6
CONTINUOUS
 62
    2
 10
397.17992234469722
 20
293.44881564547563
 40
3.0000000000000142
 50
180
 51
270
  0
LINE
  8
_0-2_02
  6
CONTINUOUS
 62
    2
 10
394.17992234469722
 20
293.44881564547563
 11
394.17992234469722
 21
301.94881564547563
  0
ARC
  8
_0-2_02
  6
CONTINUOUS
 62
    2
 10
397.17992234469722
 20
301.94881564547563
 40
3
 50
90
 51
180
  0
LINE
  8
_0-2_02
  6
CONTINUOUS
 62
    2
 10
397.17992234469722
 20
290.44881564547563
 11
410.17992234327249
 21
290.44881564547597
  0
LINE
  8
_0-2_02
  6
CONTINUOUS
 62
    2
 10
410.17992234327249
 20
304.94881564547563
 11
397.17992234469722
 21
304.94881564547563
  0
ARC
  8
_0-2_02
  6
CONTINUOUS
 62
    2
 10
219.99046478155634
 20
295.44881564547421
 40
9.5
 50
90
 51
322.50475023544249
  0
ARC
  8
_0-2_02
  6
CONTINUOUS
 62
    2
 10
229.11460857700359
 20
288.44881564547421
 40
2.000000000000004
 50
90
 51
142.5047502354424
  0
LINE
  8
_0-2_02
  6
CONTINUOUS
 62
    2
 10
235.49046478155628
 20
290.44881564547421
 11
229.11460857700359
 21
290.44881564547421
  0
LINE
  8
_0-2_02
  6
CONTINUOUS
 62
    2
 10
219.99046478155634
 20
304.94881564547427
 11
235.49046478155628
 21
304.94881564547427
  0
LINE
  8
_0-2_02
  6
CONTINUOUS
 62
    2
 10
235.49046478155628
 20
290.44881564547421
 11
238.09046478155619
 21
290.44881564547421
  0
LINE
  8
_0-2_02
  6
CONTINUOUS
 62
    2
 10
238.09046478155619
 20
304.94881564547427
 11
235.49046478155628
 21
304.94881564547427
  0
ARC
  8
_0-2_02
  6
CONTINUOUS
 62
    2
 10
251.99046478155628
 20
293.44881564547421
 40
3.0000000000000142
 50
270
 51
0
  0
LINE
  8
_0-2_02
  6
CONTINUOUS
 62
    2
 10
254.99046478155628
 20
293.44881564547421
 11
254.99046478155628
 21
301.94881564547421
  0
ARC
  8
_0-2_02
  6
CONTINUOUS
 62
    2
 10
251.99046478155628
 20
301.94881564547421
 40
3
 50
0
 51
90
  0
LINE
  8
_0-2_02
  6
CONTINUOUS
 62
    2
 10
251.99046478155628
 20
290.44881564547421
 11
238.09046478155619
 21
290.44881564547421
  0
LINE
  8
_0-2_02
  6
CONTINUOUS
 62
    2
 10
238.09046478155619
 20
304.94881564547427
 11
251.99046478155628
 21
304.94881564547427
  0
INSERT
  2
-031-_D32
  8
_0-8_S
 10
135.3129820553234
 20
95.444542909180399
 41
1
 42
1
 50
0
  0
INSERT
  2
-032-_D33
  8
_0-8_S
 10
135.3129820553234
 20
95.444542909180399
 41
1
 42
1
 50
0
  0
LINE
  8
_0-2_02
  6
DASHED2_18
 62
    7
 10
229.49046478155634
 20
288.8158392524021
 11
229.49046478155634
 21
263.44881564547421
  0
LINE
  8
_0-2_02
  6
DASHED2_18
 62
    7
 10
214.99046478155634
 20
286.3246718500269
 11
214.99046478155634
 21
263.44881564547421
  0
ARC
  8
_0-2_02
  6
DASHED2_18
 62
    7
 10
217.99046478155634
 20
263.44881564547421
 40
3.0000000000000142
 50
180
 51
270
  0
LINE
  8
_0-2_02
  6
DASHED2_18
 62
    7
 10
217.99046478155634
 20
260.44881564547421
 11
226.49046478155634
 21
260.44881564547421
  0
ARC
  8
_0-2_02
  6
DASHED2_18
 62
    7
 10
226.49046478155634
 20
263.44881564547421
 40
3
 50
270
 51
0
  0
INSERT
  2
-033-_D34
  8
_0-8_S
 10
135.3129820553234
 20
95.444542909180399
 41
1
 42
1
 50
0
  0
INSERT
  2
-034-_D35
  8
_0-8_S
 10
135.3129820553234
 20
95.444542909180399
 41
1
 42
1
 50
0
  0
TEXT
  8
_0-a_W
 62
    7
 10
158.58310959840151
 20
488.14083749963015
 40
1.5
 41
1
 50
180
  1
WAKU1-A2.DWG
  0
LINE
  8
_0-a_W
  6
CONTINUOUS
 62
    7
 10
135.3129820553234
 20
95.444542909180399
 11
135.3129820553234
 21
79.052447409886753
  0
LINE
  8
_0-a_W
  6
CONTINUOUS
 62
    7
 10
135.3129820553234
 20
95.444542909180399
 11
109.97219602215893
 21
95.444542909180399
  0
LINE
  8
_0-a_W
  6
CONTINUOUS
 62
    7
 10
700.91298205532325
 20
494.74454290918061
 11
700.91298205532325
 21
514.98080417873484
  0
LINE
  8
_0-a_W
  6
CONTINUOUS
 62
    7
 10
700.91298205532325
 20
494.74454290918061
 11
731.07518025103423
 21
494.74454290918061
  0
LINE
  8
_0-a_W
  6
CONTINUOUS
 62
    2
 10
694.91298205532325
 20
101.4445429091804
 11
694.91298205532325
 21
488.74454290918061
  0
LINE
  8
_0-a_W
  6
CONTINUOUS
 62
    2
 10
141.3129820553234
 20
101.4445429091804
 11
694.91298205532325
 21
101.4445429091804
  0
LINE
  8
_0-a_W
  6
CONTINUOUS
 62
    2
 10
141.3129820553234
 20
488.74454290918061
 11
141.3129820553234
 21
101.4445429091804
  0
LINE
  8
_0-a_W
  6
CONTINUOUS
 62
    2
 10
694.91298205532325
 20
488.74454290918061
 11
141.3129820553234
 21
488.74454290918061
  0
TEXT
  8
_0-a_W
 62
    7
 10
139.65502750986866
 20
110.5729520000894
 40
2
 41
1
 50
0
  1
I
  0
TEXT
  8
_0-a_W
 62
    7
 10
139.08116387350503
 20
150.5729520000894
 40
2
 41
1
 50
0
  1
H
  0
TEXT
  8
_0-a_W
 62
    7
 10
139.02434569168685
 20
190.55022472736212
 40
2
 41
1
 50
0
  1
G
  0
TEXT
  8
_0-a_W
 62
    7
 10
139.21184569168685
 20
230.5729520000894
 40
2
 41
1
 50
0
  1
F
  0
TEXT
  8
_0-a_W
 62
    7
 10
139.18918214841068
 20
270.5729520000894
 40
2
 41
1
 50
0
  1
E
  0
TEXT
  8
_0-a_W
 62
    7
 10
139.06980023714141
 20
310.5729520000894
 40
2
 41
1
 50
0
  1
D
  0
TEXT
  8
_0-a_W
 62
    7
 10
139.06980023714141
 20
350.5729520000894
 40
2
 41
1
 50
0
  1
D
  0
TEXT
  8
_0-a_W
 62
    7
 10
139.04707296441461
 20
390.55022472736209
 40
2
 41
1
 50
0
  1
C
  0
TEXT
  8
_0-a_W
 62
    7
 10
139.0868456916873
 20
430.57295200008934
 40
2
 41
1
 50
0
  1
B
  0
TEXT
  8
_0-a_W
 62
    7
 10
139.09252750986911
 20
470.56158836372572
 40
2
 41
1
 50
0
  1
A
  0
TEXT
  8
_0-a_W
 62
    7
 10
676.78854772230466
 20
489.04454290918034
 40
2
 41
1
 50
0
  1
14
  0
TEXT
  8
_0-a_W
 62
    7
 10
636.96099115560651
 20
489.04454290918034
 40
2
 41
1
 50
0
  1
13
  0
TEXT
  8
_0-a_W
 62
    7
 10
597.30587802221021
 20
489.04454290918034
 40
2
 41
1
 50
0
  1
12
  0
TEXT
  8
_0-a_W
 62
    7
 10
557.47832145551251
 20
489.04454290918034
 40
2
 41
1
 50
0
  1
11
  0
TEXT
  8
_0-a_W
 62
    7
 10
517.30587802221032
 20
489.04454290918034
 40
2
 41
1
 50
0
  1
10
  0
TEXT
  8
_0-a_W
 62
    7
 10
477.66408152526651
 20
489.04454290918034
 40
2
 41
1
 50
0
  1
9
  0
TEXT
  8
_0-a_W
 62
    7
 10
437.87630665778062
 20
489.04454290918034
 40
2
 41
1
 50
0
  1
8
  0
TEXT
  8
_0-a_W
 62
    7
 10
397.83131044408378
 20
489.04454290918034
 40
2
 41
1
 50
0
  1
7
  0
TEXT
  8
_0-a_W
 62
    7
 10
357.55864179958814
 20
489.04454290918034
 40
2
 41
1
 50
0
  1
6
  0
TEXT
  8
_0-a_W
 62
    7
 10
317.96764476633172
 20
489.04454290918034
 40
2
 41
1
 50
0
  1
5
  0
TEXT
  8
_0-a_W
 62
    7
 10
277.55864179958814
 20
489.04454290918034
 40
2
 41
1
 50
0
  1
4
  0
TEXT
  8
_0-a_W
 62
    7
 10
237.87636272782879
 20
489.04454290918034
 40
2
 41
1
 50
0
  1
3
  0
TEXT
  8
_0-a_W
 62
    7
 10
197.39889823220784
 20
489.04454290918034
 40
2
 41
1
 50
0
  1
2
  0
TEXT
  8
_0-a_W
 62
    7
 10
158.51298205532322
 20
489.04454290918034
 40
2
 41
1
 50
0
  1
1
  0
LINE
  8
_0-a_W
  6
CONTINUOUS
 62
    6
 10
658.51298205532316
 20
488.54454290918034
 11
658.51298205532316
 21
491.54454290918034
  0
LINE
  8
_0-a_W
  6
CONTINUOUS
 62
    6
 10
618.51298205532316
 20
488.54454290918034
 11
618.51298205532316
 21
491.54454290918034
  0
LINE
  8
_0-a_W
  6
CONTINUOUS
 62
    6
 10
578.51298205532316
 20
488.54454290918034
 11
578.51298205532316
 21
491.54454290918034
  0
LINE
  8
_0-a_W
  6
CONTINUOUS
 62
    6
 10
538.51298205532316
 20
488.54454290918034
 11
538.51298205532316
 21
491.54454290918034
  0
LINE
  8
_0-a_W
  6
CONTINUOUS
 62
    6
 10
498.51298205532322
 20
488.54454290918034
 11
498.51298205532322
 21
491.54454290918034
  0
LINE
  8
_0-a_W
  6
CONTINUOUS
 62
    6
 10
458.51298205532322
 20
488.54454290918034
 11
458.51298205532322
 21
491.54454290918034
  0
LINE
  8
_0-a_W
  6
CONTINUOUS
 62
    6
 10
418.51298205532322
 20
488.54454290918034
 11
418.51298205532322
 21
491.54454290918034
  0
LINE
  8
_0-a_W
  6
CONTINUOUS
 62
    6
 10
378.51298205532316
 20
488.54454290918034
 11
378.51298205532316
 21
491.54454290918034
  0
LINE
  8
_0-a_W
  6
CONTINUOUS
 62
    6
 10
338.51298205532316
 20
488.54454290918034
 11
338.51298205532316
 21
491.54454290918034
  0
LINE
  8
_0-a_W
  6
CONTINUOUS
 62
    6
 10
298.51298205532316
 20
488.54454290918034
 11
298.51298205532316
 21
491.54454290918034
  0
LINE
  8
_0-a_W
  6
CONTINUOUS
 62
    6
 10
258.51298205532322
 20
488.54454290918034
 11
258.51298205532322
 21
491.54454290918034
  0
LINE
  8
_0-a_W
  6
CONTINUOUS
 62
    6
 10
218.51298205532322
 20
488.54454290918034
 11
218.51298205532322
 21
491.54454290918034
  0
LINE
  8
_0-a_W
  6
CONTINUOUS
 62
    6
 10
178.51298205532322
 20
488.54454290918034
 11
178.51298205532322
 21
491.54454290918034
  0
LINE
  8
_0-a_W
  6
CONTINUOUS
 62
    6
 10
178.51298205532322
 20
488.54454290918034
 11
178.51298205532322
 21
491.54454290918034
  0
LINE
  8
_0-a_W
  6
CONTINUOUS
 62
    6
 10
141.51298205532322
 20
131.54454290918031
 11
138.51298205532322
 21
131.54454290918031
  0
LINE
  8
_0-a_W
  6
CONTINUOUS
 62
    6
 10
141.51298205532322
 20
171.54454290918031
 11
138.51298205532322
 21
171.54454290918031
  0
LINE
  8
_0-a_W
  6
CONTINUOUS
 62
    6
 10
141.51298205532322
 20
211.54454290918028
 11
138.51298205532322
 21
211.54454290918028
  0
LINE
  8
_0-a_W
  6
CONTINUOUS
 62
    6
 10
141.51298205532322
 20
251.54454290918031
 11
138.51298205532322
 21
251.54454290918031
  0
LINE
  8
_0-a_W
  6
CONTINUOUS
 62
    6
 10
141.51298205532322
 20
291.54454290918034
 11
138.51298205532322
 21
291.54454290918034
  0
LINE
  8
_0-a_W
  6
CONTINUOUS
 62
    6
 10
141.51298205532322
 20
331.54454290918034
 11
138.51298205532322
 21
331.54454290918034
  0
LINE
  8
_0-a_W
  6
CONTINUOUS
 62
    6
 10
141.51298205532322
 20
371.54454290918034
 11
138.51298205532322
 21
371.54454290918034
  0
LINE
  8
_0-a_W
  6
CONTINUOUS
 62
    6
 10
141.51298205532322
 20
411.54454290918034
 11
138.51298205532322
 21
411.54454290918034
  0
LINE
  8
_0-a_W
  6
CONTINUOUS
 62
    6
 10
141.51298205532368
 20
451.54454290918034
 11
138.51298205532322
 21
451.54454290918034
  0
LINE
  8
_0-a_W
  6
CONTINUOUS
 62
    6
 10
141.51298205532368
 20
451.54454290918034
 11
138.51298205532322
 21
451.54454290918034
  0
LINE
  8
_0-a_W
  6
CONTINUOUS
 62
    2
 10
141.51298205532322
 20
488.54454290918034
 11
141.51298205532322
 21
101.64454290918022
  0
LINE
  8
_0-a_W
  6
CONTINUOUS
 62
    2
 10
694.71298205532344
 20
488.54454290918034
 11
141.51298205532322
 21
488.54454290918034
  0
LINE
  8
_0-a_W
  6
CONTINUOUS
 62
    2
 10
694.71298205532344
 20
101.64454290918022
 11
694.71298205532344
 21
488.54454290918034
  0
LINE
  8
_0-a_W
  6
CONTINUOUS
 62
    2
 10
141.51298205532322
 20
101.64454290918022
 11
694.71298205532344
 21
101.64454290918022
  0
TEXT
  8
_0-8_S
 62
    7
 10
596.71298205532298
 20
113.14454290918067
 40
4
 41
1
 50
0
  1
数字合わせ錠
  0
TEXT
  8
_0-8_S
 62
    7
 10
596.71298205532298
 20
104.14454290918067
 40
4.5
 41
1
 50
0
  1
NW50A-S*AF
  0
ARC
  8
_0-a_W
  6
CONTINUOUS
 62
    7
 10
644.71298205532298
 20
110.64454290918022
 40
0.0999999999998806
 50
180
 51
0
  0
LINE
  8
_0-a_W
  6
CONTINUOUS
 62
    7
 10
644.81298205532289
 20
110.64454290918022
 11
644.61298205532307
 21
110.64454290918022
  0
INSERT
  2
-035-_D36
  8
_0-8_S
 10
135.3129820553234
 20
95.444542909180399
 41
1
 42
1
 50
0
  0
INSERT
  2
-036-_D37
  8
_0-8_S
 10
135.3129820553234
 20
95.444542909180399
 41
1
 42
1
 50
0
  0
LINE
  8
_0-3_03
  6
CONTINUOUS
 62
    3
 10
242.266731020268
 20
198.32927585099111
 11
242.266731020268
 21
194.35353991970302
  0
ARC
  8
_0-3_03
  6
CONTINUOUS
 62
    3
 10
242.56673102026801
 20
194.35353991970311
 40
0.2999999999999971
 50
180
 51
270
  0
LINE
  8
_0-3_03
  6
CONTINUOUS
 62
    3
 10
242.56673102026801
 20
194.0535399197031
 11
242.85613654117299
 21
194.0535399197031
  0
ARC
  8
_0-3_03
  6
CONTINUOUS
 62
    3
 10
246.54246695155609
 20
194.35353991970311
 40
0.2999999999999943
 50
270
 51
45.000000000002288
  0
LINE
  8
_0-3_03
  6
CONTINUOUS
 62
    3
 10
246.754598985912
 20
194.5656719540591
 11
242.77886305462391
 21
198.5414078853471
  0
ARC
  8
_0-3_03
  6
CONTINUOUS
 62
    3
 10
242.56673102026801
 20
198.32927585099119
 40
0.3000000000000043
 50
45
 51
180
  0
ARC
  8
_0-3_03
  6
CONTINUOUS
 62
    3
 10
266.76673102026814
 20
199.5535399197031
 40
0.5
 50
270
 51
0
  0
LINE
  8
_0-3_03
  6
CONTINUOUS
 62
    3
 10
263.7498208608738
 20
199.05353991970298
 11
266.76673102026814
 21
199.05353991970298
  0
ARC
  8
_0-3_03
  6
CONTINUOUS
 62
    3
 10
263.7498208608738
 20
197.0535399197031
 40
2
 50
90
 51
142.3523793598917
  0
LINE
  8
_0-3_03
  6
CONTINUOUS
 62
    3
 10
257.6669683555287
 20
192.44273646541126
 11
262.1662563497469
 21
198.27514682828669
  0
ARC
  8
_0-3_03
  6
CONTINUOUS
 62
    3
 10
256.87518609996522
 20
193.05353991970316
 40
1
 50
270
 51
322.35237935989409
  0
LINE
  8
_0-3_03
  6
CONTINUOUS
 62
    3
 10
243.15537629206941
 20
192.05353991970307
 11
256.87518609996522
 21
192.05353991970307
  0
ARC
  8
_0-3_03
  6
CONTINUOUS
 62
    3
 10
263.76673102026814
 20
203.5535399197031
 40
24.999999999999989
 50
154.05552022763169
 51
205.74221161207751
  0
ARC
  8
_0-3_03
  6
CONTINUOUS
 62
    3
 10
242.18548916536082
 20
214.0535399197031
 40
1.0000000000000091
 50
90
 51
154.05552022763166
  0
LINE
  8
_0-3_03
  6
CONTINUOUS
 62
    3
 10
256.87518609996522
 20
215.05353991970298
 11
242.18548916536082
 21
215.05353991970298
  0
ARC
  8
_0-3_03
  6
CONTINUOUS
 62
    3
 10
256.87518609996522
 20
214.0535399197031
 40
1.000000000000014
 50
37.647620640108229
 51
90
  0
LINE
  8
_0-3_03
  6
CONTINUOUS
 62
    3
 10
262.1662563497469
 20
208.8319330111195
 11
257.6669683555287
 21
214.66434337399488
  0
ARC
  8
_0-3_03
  6
CONTINUOUS
 62
    3
 10
263.7498208608738
 20
210.0535399197031
 40
2
 50
217.64762064010819
 51
270
  0
LINE
  8
_0-3_03
  6
CONTINUOUS
 62
    3
 10
266.76673102026814
 20
208.05353991970298
 11
263.7498208608738
 21
208.05353991970298
  0
ARC
  8
_0-3_03
  6
CONTINUOUS
 62
    3
 10
266.76673102026814
 20
207.5535399197031
 40
0.5
 50
0
 51
90
  0
LINE
  8
_0-3_03
  6
CONTINUOUS
 62
    3
 10
267.26673102026803
 20
206.72853991970311
 11
267.26673102026803
 21
207.5535399197031
  0
LINE
  8
_0-3_03
  6
CONTINUOUS
 62
    3
 10
282.61056090510249
 20
206.72853991970311
 11
267.26673102026803
 21
206.72853991970311
  0
ARC
  8
_0-3_03
  6
CONTINUOUS
 62
    3
 10
282.61056090510249
 20
206.4285399197031
 40
0.3000000000000114
 50
34.999999999997371
 51
90
  0
LINE
  8
_0-3_03
  6
CONTINUOUS
 62
    3
 10
285.37892421660433
 20
202.99794141313021
 11
282.8563065183892
 21
206.60061285060829
  0
ARC
  8
_0-3_03
  6
CONTINUOUS
 62
    3
 10
284.68264497895859
 20
202.51040144223168
 40
0.8499999999999944
 50
318.00000000000068
 51
34.999999999999822
  0
LINE
  8
_0-3_03
  6
CONTINUOUS
 62
    3
 10
283.99627090440691
 20
200.47780073779552
 11
285.31431808061438
 21
201.94164042682669
  0
ARC
  8
_0-3_03
  6
CONTINUOUS
 62
    3
 10
283.7733274567637
 20
200.67853991970298
 40
0.3000000000000114
 50
270
 51
318.00000000000358
  0
LINE
  8
_0-3_03
  6
CONTINUOUS
 62
    3
 10
267.26673102026803
 20
200.378539919703
 11
283.7733274567637
 21
200.378539919703
  0
LINE
  8
_0-3_03
  6
CONTINUOUS
 62
    3
 10
267.26673102026803
 20
199.55353991970298
 11
267.26673102026803
 21
200.378539919703
  0
LINE
  8
_0-3_03
  6
CONTINUOUS
 62
    3
 10
242.266731020268
 20
154.3618121964781
 11
242.266731020268
 21
150.38607626518998
  0
ARC
  8
_0-3_03
  6
CONTINUOUS
 62
    3
 10
242.56673102026801
 20
150.38607626519004
 40
0.3000000000000114
 50
180
 51
270
  0
LINE
  8
_0-3_03
  6
CONTINUOUS
 62
    3
 10
242.56673102026801
 20
150.08607626519003
 11
242.85613654117299
 21
150.08607626519003
  0
ARC
  8
_0-3_03
  6
CONTINUOUS
 62
    3
 10
246.54246695155609
 20
150.38607626519004
 40
0.3000000000000114
 50
270
 51
45
  0
LINE
  8
_0-3_03
  6
CONTINUOUS
 62
    3
 10
246.754598985912
 20
150.59820829954592
 11
242.77886305462408
 21
154.57394423083403
  0
ARC
  8
_0-3_03
  6
CONTINUOUS
 62
    3
 10
242.56673102026801
 20
154.36181219647816
 40
0.2999999999999971
 50
45
 51
180
  0
ARC
  8
_0-3_03
  6
CONTINUOUS
 62
    3
 10
266.76673102026814
 20
155.58607626519009
 40
0.5
 50
270
 51
0
  0
LINE
  8
_0-3_03
  6
CONTINUOUS
 62
    3
 10
263.7498208608738
 20
155.08607626519003
 11
266.76673102026814
 21
155.08607626519003
  0
ARC
  8
_0-3_03
  6
CONTINUOUS
 62
    3
 10
263.7498208608738
 20
153.08607626519009
 40
2
 50
90
 51
142.3523793598917
  0
LINE
  8
_0-3_03
  6
CONTINUOUS
 62
    3
 10
257.66696835552881
 20
148.47527281089819
 11
262.1662563497469
 21
154.3076831737736
  0
ARC
  8
_0-3_03
  6
CONTINUOUS
 62
    3
 10
256.87518609996522
 20
149.08607626519009
 40
1.000000000000014
 50
270
 51
322.35237935989181
  0
LINE
  8
_0-3_03
  6
CONTINUOUS
 62
    3
 10
243.15537629206941
 20
148.08607626519003
 11
256.87518609996511
 21
148.08607626519003
  0
ARC
  8
_0-3_03
  6
CONTINUOUS
 62
    3
 10
263.76673102026814
 20
159.58607626519009
 40
25
 50
154.05552022763169
 51
205.74221161207751
  0
ARC
  8
_0-3_03
  6
CONTINUOUS
 62
    3
 10
242.18548916536082
 20
170.08607626519006
 40
1
 50
90
 51
154.05552022763166
  0
LINE
  8
_0-3_03
  6
CONTINUOUS
 62
    3
 10
256.87518609996511
 20
171.08607626519003
 11
242.18548916536091
 21
171.08607626519003
  0
ARC
  8
_0-3_03
  6
CONTINUOUS
 62
    3
 10
256.87518609996522
 20
170.08607626519006
 40
1.000000000000014
 50
37.647620640108229
 51
90
  0
LINE
  8
_0-3_03
  6
CONTINUOUS
 62
    3
 10
262.1662563497469
 20
164.86446935660635
 11
257.66696835552881
 21
170.69687971948187
  0
ARC
  8
_0-3_03
  6
CONTINUOUS
 62
    3
 10
263.7498208608738
 20
166.08607626519009
 40
2
 50
217.64762064010819
 51
270
  0
LINE
  8
_0-3_03
  6
CONTINUOUS
 62
    3
 10
266.76673102026814
 20
164.08607626519003
 11
263.7498208608738
 21
164.08607626519003
  0
ARC
  8
_0-3_03
  6
CONTINUOUS
 62
    3
 10
266.76673102026814
 20
163.58607626519009
 40
0.5
 50
0
 51
90
  0
LINE
  8
_0-3_03
  6
CONTINUOUS
 62
    3
 10
267.26673102026803
 20
162.76107626518998
 11
267.26673102026803
 21
163.58607626519003
  0
LINE
  8
_0-3_03
  6
CONTINUOUS
 62
    3
 10
285.1105609051026
 20
162.76107626518998
 11
267.26673102026803
 21
162.76107626518998
  0
ARC
  8
_0-3_03
  6
CONTINUOUS
 62
    3
 10
285.11056090510249
 20
162.46107626519003
 40
0.3000000000000114
 50
34.999999999997371
 51
90
  0
LINE
  8
_0-3_03
  6
CONTINUOUS
 62
    3
 10
287.87892421660422
 20
159.03047775861702
 11
285.3563065183892
 21
162.63314919609533
  0
ARC
  8
_0-3_03
  6
CONTINUOUS
 62
    3
 10
287.18264497895859
 20
158.54293778771873
 40
0.8500000000000154
 50
318.00000000000068
 51
34.999999999997378
  0
LINE
  8
_0-3_03
  6
CONTINUOUS
 62
    3
 10
286.49627090440691
 20
156.51033708328234
 11
287.81431808061438
 21
157.9741767723136
  0
ARC
  8
_0-3_03
  6
CONTINUOUS
 62
    3
 10
286.27332745676358
 20
156.71107626519003
 40
0.3000000000000114
 50
270
 51
318.00000000000068
  0
LINE
  8
_0-3_03
  6
CONTINUOUS
 62
    3
 10
267.26673102026803
 20
156.41107626518996
 11
286.27332745676358
 21
156.41107626518996
  0
LINE
  8
_0-3_03
  6
CONTINUOUS
 62
    3
 10
267.26673102026803
 20
155.58607626519003
 11
267.26673102026803
 21
156.41107626518996
  0
LINE
  8
_1-4_2
  6
CONTINUOUS
 62
    2
 10
174.60461371221453
 20
194.47507912721002
 11
210.00911176164408
 21
187.95422658571377
  0
LINE
  8
_1-4_2
  6
CONTINUOUS
 62
    2
 10
214.71861637494686
 20
213.52414184363511
 11
179.31411832551731
 21
220.04499438513142
  0
CIRCLE
  8
_1-4_2
  6
CONTINUOUS
 62
    2
 10
169.58342892523473
 20
208.61854770231571
 40
2.5
  0
LINE
  8
_1-4_2
  6
CONTINUOUS
 62
    2
 10
174.57339140350069
 20
200.37838541838602
 11
214.50179753702406
 21
193.02431282992077
  0
LINE
  8
_1-4_2
  6
CONTINUOUS
 62
    2
 10
214.50179753702406
 20
193.02431282992077
 11
217.11013855362268
 21
207.18611204969261
  0
LINE
  8
_1-4_2
  6
CONTINUOUS
 62
    2
 10
217.11013855362268
 20
207.18611204969261
 11
177.18173242009931
 21
214.54018463815788
  0
LINE
  8
_1-4_2
  6
CONTINUOUS
 62
    2
 10
177.18173242009931
 20
214.54018463815788
 11
174.57339140350069
 21
200.37838541838602
  0
CIRCLE
  8
_1-5_6
  6
CONTINUOUS
 62
    6
 10
220.74079167755082
 20
198.61973773444819
 40
0.5
  0
ARC
  8
_1-5_6
  6
CONTINUOUS
 62
    6
 10
221.09566050707389
 20
199.6289319436799
 40
0.5
 50
74.120083603253846
 51
271.18820137515735
  0
LINE
  8
_1-5_6
  6
CONTINUOUS
 62
    6
 10
221.232415180033
 20
200.10986447569871
 11
226.22024413791138
 21
198.8806646214536
  0
LINE
  8
_1-5_6
  6
CONTINUOUS
 62
    6
 10
220.94503918903575
 20
199.15215818333621
 11
228.30140777292837
 21
197.3633225328887
  0
LINE
  8
_1-5_6
  6
CONTINUOUS
 62
    6
 10
220.63072677900112
 20
198.13200333966449
 11
221.11757850320424
 21
198.01336290807961
  0
ARC
  8
_1-5_6
  6
CONTINUOUS
 62
    6
 10
228.9251290419441
 20
212.48953444472141
 40
15.9220186199924
 50
258.22183972602312
 51
260.20835343429559
  0
ARC
  8
_1-5_6
  6
CONTINUOUS
 62
    6
 10
228.63040460115059
 20
197.1887279779875
 40
0.6194752939094545
 50
272.38203259992218
 51
59.988928607447107
  0
ARC
  8
_1-5_6
  6
CONTINUOUS
 62
    6
 10
222.51949563607053
 20
186.3902574035225
 40
13.027118328457
 50
60.470230072262339
 51
73.496114698586481
  0
LINE
  8
_1-5_6
  6
CONTINUOUS
 62
    6
 10
228.30140777292837
 20
197.3633225328887
 11
227.38536540579895
 21
197.5773661094419
  0
LINE
  8
_1-5_6
  6
DASHED2_18
 62
    6
 10
221.92437543478667
 20
198.8533876853655
 11
220.90861671767885
 21
199.0907311058518
  0
LINE
  8
_1-5_6
  6
CONTINUOUS
 62
    6
 10
224.84553030405942
 20
197.10490189501502
 11
225.67508015521099
 21
196.90274968425098
  0
LINE
  8
_1-2_4
  6
CONTINUOUS
 62
    4
 10
236.5829097178013
 20
192.83136354901282
 11
236.42401817879312
 21
191.96867341040141
  0
LINE
  8
_1-2_4
  6
CONTINUOUS
 62
    4
 10
234.48005362184227
 20
192.20372767263456
 11
235.85997974941876
 21
192.01148368420405
  0
LINE
  8
_1-2_4
  6
CONTINUOUS
 62
    4
 10
235.85997974941876
 20
192.01148368420405
 11
237.22003564081103
 21
191.94484390698821
  0
LINE
  8
_1-2_4
  6
CONTINUOUS
 62
    4
 10
237.22003564081103
 20
191.94484390698821
 11
238.51889668598065
 21
192.00583315689633
  0
LINE
  8
_1-2_4
  6
CONTINUOUS
 62
    4
 10
238.51889668598065
 20
192.00583315689633
 11
239.71709764932552
 21
192.19259830643202
  0
LINE
  8
_1-2_4
  6
CONTINUOUS
 62
    4
 10
239.71709764932552
 20
192.19259830643202
 11
240.77823180089337
 21
192.49946459103435
  0
LINE
  8
_1-2_4
  6
CONTINUOUS
 62
    4
 10
240.77823180089337
 20
192.49946459103435
 11
241.67005711644856
 21
192.91710803392755
  0
LINE
  8
_1-2_4
  6
CONTINUOUS
 62
    4
 10
241.67005711644856
 20
192.91710803392755
 11
242.36547593506339
 21
193.43283875043704
  0
LINE
  8
_1-2_4
  6
CONTINUOUS
 62
    4
 10
242.36547593506339
 20
193.43283875043704
 11
242.84335830783309
 21
194.03098652371406
  0
LINE
  8
_1-2_4
  6
CONTINUOUS
 62
    4
 10
242.84335830783309
 20
194.03098652371406
 11
243.08918402068124
 21
194.69337693634492
  0
LINE
  8
_1-2_4
  6
CONTINUOUS
 62
    4
 10
243.08918402068124
 20
194.69337693634492
 11
243.09548378371673
 21
195.39988359082759
  0
LINE
  8
_1-2_4
  6
CONTINUOUS
 62
    4
 10
243.09548378371673
 20
195.39988359082759
 11
242.8620661818276
 21
196.12903963997522
  0
LINE
  8
_1-2_4
  6
CONTINUOUS
 62
    4
 10
242.8620661818276
 20
196.12903963997522
 11
242.39602349073223
 21
196.8586900462052
  0
LINE
  8
_1-2_4
  6
CONTINUOUS
 62
    4
 10
242.39602349073223
 20
196.8586900462052
 11
242.26673102026803
 21
197.01342133568082
  0
LINE
  8
_1-2_4
  6
CONTINUOUS
 62
    4
 10
234.31872776089034
 20
191.32782055879508
 11
235.85320446491565
 21
191.12086962581154
  0
LINE
  8
_1-2_4
  6
CONTINUOUS
 62
    4
 10
235.85320446491565
 20
191.12086962581154
 11
237.36801679634792
 21
191.06658376153445
  0
LINE
  8
_1-2_4
  6
CONTINUOUS
 62
    4
 10
237.36801679634792
 20
191.06658376153445
 11
238.81713794902862
 21
191.16661241447986
  0
LINE
  8
_1-2_4
  6
CONTINUOUS
 62
    4
 10
238.81713794902862
 20
191.16661241447986
 11
240.15653711002423
 21
191.41791626464499
  0
LINE
  8
_1-2_4
  6
CONTINUOUS
 62
    4
 10
240.15653711002423
 20
191.41791626464499
 11
241.34551731359656
 21
191.81285957170843
  0
LINE
  8
_1-2_4
  6
CONTINUOUS
 62
    4
 10
241.34551731359656
 20
191.81285957170843
 11
242.3479519979131
 21
192.33944218313604
  0
LINE
  8
_1-2_4
  6
CONTINUOUS
 62
    4
 10
242.3479519979131
 20
192.33944218313604
 11
243.13338269234731
 21
192.98166415274324
  0
LINE
  8
_1-2_4
  6
CONTINUOUS
 62
    4
 10
243.13338269234731
 20
192.98166415274324
 11
243.67794448269589
 21
193.72001189096349
  0
LINE
  8
_1-2_4
  6
CONTINUOUS
 62
    4
 10
243.67794448269589
 20
193.72001189096349
 11
243.96509113452072
 21
194.53205107539299
  0
LINE
  8
_1-2_4
  6
CONTINUOUS
 62
    4
 10
243.96509113452072
 20
194.53205107539299
 11
243.98609784210925
 21
195.39310830632448
  0
LINE
  8
_1-2_4
  6
CONTINUOUS
 62
    4
 10
243.98609784210925
 20
195.39310830632448
 11
243.74032632728137
 21
196.2770207955121
  0
LINE
  8
_1-2_4
  6
CONTINUOUS
 62
    4
 10
243.74032632728137
 20
196.2770207955121
 11
243.23524423314868
 21
197.15693130925317
  0
LINE
  8
_1-2_4
  6
CONTINUOUS
 62
    4
 10
243.23524423314868
 20
197.15693130925317
 11
242.48619822355758
 21
198.00610421184388
  0
LINE
  8
_1-2_4
  6
CONTINUOUS
 62
    4
 10
242.48619822355758
 20
198.00610421184388
 11
242.266731020268
 21
198.20753859653169
  0
LINE
  8
_1-2_4
  6
CONTINUOUS
 62
    4
 10
232.39374689473934
 20
190.8866914649337
 11
233.89387736398854
 21
190.51566716435457
  0
LINE
  8
_1-2_4
  6
CONTINUOUS
 62
    4
 10
233.89387736398854
 20
190.51566716435457
 11
235.42652391616369
 21
190.27577571139059
  0
LINE
  8
_1-2_4
  6
CONTINUOUS
 62
    4
 10
235.42652391616369
 20
190.27577571139059
 11
236.94511786133359
 21
190.17430608644915
  0
LINE
  8
_1-2_4
  6
CONTINUOUS
 62
    4
 10
236.94511786133359
 20
190.17430608644915
 11
238.40351749091982
 21
190.21434139273794
  0
LINE
  8
_1-2_4
  6
CONTINUOUS
 62
    4
 10
238.40351749091982
 20
190.21434139273794
 11
239.75741007016327
 21
190.39466517773423
  0
LINE
  8
_1-2_4
  6
CONTINUOUS
 62
    4
 10
239.75741007016327
 20
190.39466517773423
 11
240.96565825814628
 21
190.70979839447915
  0
LINE
  8
_1-2_4
  6
CONTINUOUS
 62
    4
 10
240.96565825814628
 20
190.70979839447915
 11
241.99155004508009
 21
191.15016587964703
  0
LINE
  8
_1-2_4
  6
CONTINUOUS
 62
    4
 10
241.99155004508009
 20
191.15016587964703
 11
242.80391422814503
 21
191.70238729003771
  0
LINE
  8
_1-2_4
  6
CONTINUOUS
 62
    4
 10
242.80391422814503
 20
191.70238729003771
 11
243.37806753271474
 21
192.349683657534
  0
LINE
  8
_1-2_4
  6
CONTINUOUS
 62
    4
 10
243.37806753271474
 20
192.349683657534
 11
243.69656460116551
 21
193.07238720955732
  0
LINE
  8
_1-2_4
  6
CONTINUOUS
 62
    4
 10
243.69656460116551
 20
193.07238720955732
 11
243.74972806123972
 21
193.84853896438503
  0
LINE
  8
_1-2_4
  6
CONTINUOUS
 62
    4
 10
243.74972806123972
 20
193.84853896438503
 11
243.74849609898371
 21
193.86038502264665
  0
LINE
  8
_1-2_4
  6
CONTINUOUS
 62
    4
 10
226.51012349765227
 20
197.48477943759232
 11
226.27514402193398
 21
196.81949264815009
  0
LINE
  8
_1-2_4
  6
CONTINUOUS
 62
    4
 10
226.27514402193398
 20
196.81949264815009
 11
226.30662288880001
 21
196.10710715609932
  0
LINE
  8
_1-2_4
  6
CONTINUOUS
 62
    4
 10
226.30662288880001
 20
196.10710715609932
 11
226.60360362880974
 21
195.36926843413147
  0
LINE
  8
_1-2_4
  6
CONTINUOUS
 62
    4
 10
226.60360362880974
 20
195.36926843413147
 11
227.15706263245744
 21
194.62839533844914
  0
LINE
  8
_1-2_4
  6
CONTINUOUS
 62
    4
 10
227.15706263245744
 20
194.62839533844914
 11
227.95018332798108
 21
193.90699892316476
  0
LINE
  8
_1-2_4
  6
CONTINUOUS
 62
    4
 10
227.95018332798108
 20
193.90699892316476
 11
228.95886714438558
 21
193.22699845331258
  0
LINE
  8
_1-2_4
  6
CONTINUOUS
 62
    4
 10
228.95886714438558
 20
193.22699845331258
 11
230.15246573432813
 21
192.60905539907216
  0
LINE
  8
_1-2_4
  6
CONTINUOUS
 62
    4
 10
230.15246573432813
 20
192.60905539907216
 11
231.49471220864336
 21
192.0719456474524
  0
LINE
  8
_1-2_4
  6
CONTINUOUS
 62
    4
 10
231.49471220864336
 20
192.0719456474524
 11
232.94482308741871
 21
191.63198900646552
  0
LINE
  8
_1-2_4
  6
CONTINUOUS
 62
    4
 10
232.94482308741871
 20
191.63198900646552
 11
234.31872776089045
 21
191.32782055879508
  0
LINE
  8
_1-2_4
  6
CONTINUOUS
 62
    4
 10
235.77066050945771
 20
199.21098458335044
 11
234.39195983304376
 21
199.40988207038683
  0
LINE
  8
_1-2_4
  6
CONTINUOUS
 62
    4
 10
234.39195983304376
 20
199.40988207038683
 11
233.03554306042565
 21
199.49628018023211
  0
LINE
  8
_1-2_4
  6
CONTINUOUS
 62
    4
 10
233.03554306042565
 20
199.49628018023211
 11
231.7426242288594
 21
199.46755375003815
  0
LINE
  8
_1-2_4
  6
CONTINUOUS
 62
    4
 10
231.7426242288594
 20
199.46755375003815
 11
230.5524880227936
 21
199.32457561785014
  0
LINE
  8
_1-2_4
  6
CONTINUOUS
 62
    4
 10
230.5524880227936
 20
199.32457561785014
 11
229.50129612861161
 21
199.07169010186422
  0
LINE
  8
_1-2_4
  6
CONTINUOUS
 62
    4
 10
229.50129612861161
 20
199.07169010186422
 11
228.62098848008938
 21
198.71658100051732
  0
LINE
  8
_1-2_4
  6
CONTINUOUS
 62
    4
 10
228.62098848008938
 20
198.71658100051732
 11
227.9383127796701
 21
198.27003812416001
  0
LINE
  8
_1-2_4
  6
CONTINUOUS
 62
    4
 10
227.9383127796701
 20
198.27003812416001
 11
227.89260930402833
 21
198.23049478311091
  0
LINE
  8
_1-2_4
  6
CONTINUOUS
 62
    4
 10
232.5506913829592
 20
191.73881023187246
 11
232.39374689473931
 21
190.88669146493353
  0
LINE
  8
_1-2_4
  6
CONTINUOUS
 62
    4
 10
242.95970845973295
 20
194.26441376152377
 11
242.81264408928647
 21
194.98790616289568
  0
LINE
  8
_1-2_4
  6
CONTINUOUS
 62
    4
 10
242.81264408928647
 20
194.98790616289568
 11
242.42955449025661
 21
195.71995169018601
  0
LINE
  8
_1-2_4
  6
CONTINUOUS
 62
    4
 10
242.42955449025661
 20
195.71995169018601
 11
242.26673102026814
 21
195.9422937352376
  0
LINE
  8
_1-2_4
  6
CONTINUOUS
 62
    4
 10
235.93198637040965
 20
200.08689169718983
 11
234.55328569399569
 21
200.28578918422622
  0
LINE
  8
_1-2_4
  6
CONTINUOUS
 62
    4
 10
234.55328569399569
 20
200.28578918422622
 11
233.19686892137759
 21
200.37218729407149
  0
LINE
  8
_1-2_4
  6
CONTINUOUS
 62
    4
 10
233.19686892137759
 20
200.37218729407149
 11
231.90395008981133
 21
200.34346086387754
  0
LINE
  8
_1-2_4
  6
CONTINUOUS
 62
    4
 10
231.90395008981133
 20
200.34346086387754
 11
230.71381388374553
 21
200.20048273168953
  0
LINE
  8
_1-2_4
  6
CONTINUOUS
 62
    4
 10
230.71381388374553
 20
200.20048273168953
 11
229.66262198956355
 21
199.94759721570361
  0
LINE
  8
_1-2_4
  6
CONTINUOUS
 62
    4
 10
229.66262198956355
 20
199.94759721570361
 11
228.78231434104131
 21
199.59248811435671
  0
LINE
  8
_1-2_4
  6
CONTINUOUS
 62
    4
 10
228.78231434104131
 20
199.59248811435671
 11
228.09963864062203
 21
199.1459452379994
  0
LINE
  8
_1-2_4
  6
CONTINUOUS
 62
    4
 10
228.09963864062203
 20
199.1459452379994
 11
227.63533764401234
 21
198.6215365659682
  0
LINE
  8
_1-2_4
  6
CONTINUOUS
 62
    4
 10
227.63533764401234
 20
198.6215365659682
 11
227.51492035023551
 21
198.39520563928008
  0
LINE
  8
_1-2_4
  6
CONTINUOUS
 62
    4
 10
236.09331223136155
 20
200.9627988110293
 11
234.5600609784988
 21
201.17640324261873
  0
LINE
  8
_1-2_4
  6
CONTINUOUS
 62
    4
 10
234.5600609784988
 20
201.17640324261873
 11
233.0488877658407
 21
201.25044743952523
  0
LINE
  8
_1-2_4
  6
CONTINUOUS
 62
    4
 10
233.0488877658407
 20
201.25044743952523
 11
231.60570882676336
 21
201.18268160629401
  0
LINE
  8
_1-2_4
  6
CONTINUOUS
 62
    4
 10
231.60570882676336
 20
201.18268160629401
 11
230.27437442304682
 21
200.97516477347656
  0
LINE
  8
_1-2_4
  6
CONTINUOUS
 62
    4
 10
230.27437442304682
 20
200.97516477347656
 11
229.09533647686033
 21
200.63420223502953
  0
LINE
  8
_1-2_4
  6
CONTINUOUS
 62
    4
 10
229.09533647686033
 20
200.63420223502953
 11
228.10441945957677
 21
200.17015396514822
  0
LINE
  8
_1-2_4
  6
CONTINUOUS
 62
    4
 10
228.10441945957677
 20
200.17015396514822
 11
227.33173188333808
 21
199.59711983569321
  0
LINE
  8
_1-2_4
  6
CONTINUOUS
 62
    4
 10
227.33173188333808
 20
199.59711983569321
 11
226.80075146914953
 21
198.93251119871874
  0
LINE
  8
_1-2_4
  6
CONTINUOUS
 62
    4
 10
226.80075146914953
 20
198.93251119871874
 11
226.68562928647995
 21
198.70574696151039
  0
ARC
  8
_1-5_6
  6
CONTINUOUS
 62
    6
 10
228.9251290419441
 20
212.48953444472141
 40
15.9220186199924
 50
265.61706236931673
 51
269.03203137931257
  0
LINE
  8
_1-5_6
  6
CONTINUOUS
 62
    6
 10
226.43712253994448
 20
197.79893369379351
 11
225.09858899430827
 21
198.11169707431532
  0
LINE
  8
_1-2_4
  6
CONTINUOUS
 62
    4
 10
226.49093155500336
 20
197.83012795160084
 11
226.61030708821639
 21
197.03018797661835
  0
LINE
  8
_1-2_4
  6
CONTINUOUS
 62
    4
 10
226.61030708821639
 20
197.03018797661835
 11
226.99330991082076
 21
196.21666841972421
  0
LINE
  8
_1-2_4
  6
CONTINUOUS
 62
    4
 10
226.99330991082076
 20
196.21666841972421
 11
227.6283026758604
 21
195.41428766099389
  0
LINE
  8
_1-2_4
  6
CONTINUOUS
 62
    4
 10
227.6283026758604
 20
195.41428766099389
 11
228.49599144949141
 21
194.64742563375714
  0
LINE
  8
_1-2_4
  6
CONTINUOUS
 62
    4
 10
228.49599144949141
 20
194.64742563375714
 11
229.57001194739874
 21
193.93938305266065
  0
LINE
  8
_1-2_4
  6
CONTINUOUS
 62
    4
 10
229.57001194739874
 20
193.93938305266065
 11
230.81773060023409
 21
193.31167343324421
  0
LINE
  8
_1-2_4
  6
CONTINUOUS
 62
    4
 10
230.81773060023409
 20
193.31167343324421
 11
232.20123610810711
 21
192.78336941465736
  0
LINE
  8
_1-2_4
  6
CONTINUOUS
 62
    4
 10
232.20123610810711
 20
192.78336941465736
 11
233.67849135624866
 21
192.37052324717015
  0
LINE
  8
_1-2_4
  6
CONTINUOUS
 62
    4
 10
233.67849135624866
 20
192.37052324717015
 11
234.48005362184233
 21
192.2037276726345
  0
ARC
  8
_1-4_2
  6
CONTINUOUS
 62
    2
 10
176.95936601886598
 20
207.26003675617068
 40
13
 50
79.564134750673745
 51
259.56413475067382
  0
ARC
  8
_1-4_2
  6
CONTINUOUS
 62
    2
 10
212.36386406829553
 20
200.7391842146744
 40
13
 50
259.56413475067382
 51
348.47300398675873
  0
ARC
  8
_1-4_2
  6
CONTINUOUS
 62
    2
 10
220.72325944107746
 20
199.19953847571
 40
1.25
 50
39.724656358687398
 51
346.62445514872678
  0
LINE
  8
_1-2_4
  6
CONTINUOUS
 62
    4
 10
227.38464845484705
 20
197.58624933873875
 11
227.56448525490688
 21
196.93588796874016
  0
LINE
  8
_1-2_4
  6
CONTINUOUS
 62
    4
 10
227.56448525490688
 20
196.93588796874016
 11
227.97895712360059
 21
196.2748122748512
  0
LINE
  8
_1-2_4
  6
CONTINUOUS
 62
    4
 10
227.97895712360059
 20
196.2748122748512
 11
228.61547054293084
 21
195.62310870751023
  0
LINE
  8
_1-2_4
  6
CONTINUOUS
 62
    4
 10
228.61547054293084
 20
195.62310870751023
 11
229.45468537474255
 21
195.00057894983294
  0
LINE
  8
_1-2_4
  6
CONTINUOUS
 62
    4
 10
229.45468537474255
 20
195.00057894983294
 11
230.47110250103438
 21
194.42613825349119
  0
LINE
  8
_1-2_4
  6
CONTINUOUS
 62
    4
 10
230.47110250103438
 20
194.42613825349119
 11
231.6338386017558
 21
193.91724070836224
  0
LINE
  8
_1-2_4
  6
CONTINUOUS
 62
    4
 10
231.6338386017558
 20
193.91724070836224
 11
232.90756452885927
 21
193.48934890884027
  0
LINE
  8
_1-2_4
  6
CONTINUOUS
 62
    4
 10
232.90756452885927
 20
193.48934890884027
 11
234.25357876458611
 21
193.15546413073005
  0
LINE
  8
_1-2_4
  6
CONTINUOUS
 62
    4
 10
234.25357876458611
 20
193.15546413073005
 11
235.63098334749992
 21
192.92573129406065
  0
LINE
  8
_1-2_4
  6
CONTINUOUS
 62
    4
 10
235.63098334749992
 20
192.92573129406065
 11
236.58290971780144
 21
192.83136354901288
  0
ARC
  8
_1-4_2
  6
CONTINUOUS
 62
    2
 10
212.36386406829553
 20
200.7391842146744
 40
13
 50
352.83067971270327
 51
79.564134750673759
  0
LINE
  8
_1-4_2
  6
CONTINUOUS
 62
    2
 10
174.60461371221453
 20
150.50761547269698
 11
210.00911176164408
 21
143.98676293120073
  0
LINE
  8
_1-4_2
  6
CONTINUOUS
 62
    2
 10
214.71861637494686
 20
169.5566781891221
 11
179.31411832551731
 21
176.07753073061832
  0
CIRCLE
  8
_1-4_2
  6
CONTINUOUS
 62
    2
 10
169.58342892523473
 20
164.6510840478027
 40
2.5
  0
LINE
  8
_1-4_2
  6
CONTINUOUS
 62
    2
 10
174.57339140350069
 20
156.41092176387295
 11
214.50179753702406
 21
149.05684917540773
  0
LINE
  8
_1-4_2
  6
CONTINUOUS
 62
    2
 10
214.50179753702406
 20
149.05684917540773
 11
217.11013855362268
 21
163.2186483951796
  0
LINE
  8
_1-4_2
  6
CONTINUOUS
 62
    2
 10
217.11013855362268
 20
163.2186483951796
 11
177.18173242009931
 21
170.5727209836449
  0
LINE
  8
_1-4_2
  6
CONTINUOUS
 62
    2
 10
177.18173242009931
 20
170.5727209836449
 11
174.57339140350069
 21
156.41092176387295
  0
CIRCLE
  8
_1-5_6
  6
CONTINUOUS
 62
    6
 10
220.74079167755082
 20
154.65227407993521
 40
0.5
  0
ARC
  8
_1-5_6
  6
CONTINUOUS
 62
    6
 10
221.09566050707389
 20
155.66146828916689
 40
0.5
 50
74.120083603253846
 51
271.18820137515735
  0
LINE
  8
_1-5_6
  6
CONTINUOUS
 62
    6
 10
221.232415180033
 20
156.1424008211857
 11
226.22024413791138
 21
154.91320096694054
  0
LINE
  8
_1-5_6
  6
CONTINUOUS
 62
    6
 10
220.94503918903575
 20
155.18469452882314
 11
228.30140777292837
 21
153.39585887837566
  0
LINE
  8
_1-5_6
  6
CONTINUOUS
 62
    6
 10
220.63072677900112
 20
154.16453968515148
 11
221.11757850320424
 21
154.04589925356655
  0
ARC
  8
_1-5_6
  6
CONTINUOUS
 62
    6
 10
228.9251290419441
 20
168.52207079020835
 40
15.9220186199924
 50
258.22183972602312
 51
260.20835343429559
  0
ARC
  8
_1-5_6
  6
CONTINUOUS
 62
    6
 10
228.63040460115059
 20
153.22126432347451
 40
0.6194752939094545
 50
272.38203259992218
 51
59.988928607447107
  0
ARC
  8
_1-5_6
  6
CONTINUOUS
 62
    6
 10
222.51949563607053
 20
142.42279374900946
 40
13.027118328457
 50
60.470230072262339
 51
73.496114698586481
  0
LINE
  8
_1-5_6
  6
CONTINUOUS
 62
    6
 10
228.30140777292837
 20
153.39585887837566
 11
227.38536540579895
 21
153.60990245492886
  0
LINE
  8
_1-5_6
  6
DASHED2_18
 62
    6
 10
221.92437543478667
 20
154.88592403085246
 11
220.90861671767885
 21
155.12326745133882
  0
LINE
  8
_1-5_6
  6
CONTINUOUS
 62
    6
 10
224.84553030405942
 20
153.13743824050195
 11
225.67508015521099
 21
152.93528602973802
  0
LINE
  8
_1-2_4
  6
CONTINUOUS
 62
    4
 10
236.5829097178013
 20
148.86389989449978
 11
236.42401817879312
 21
148.00120975588837
  0
LINE
  8
_1-2_4
  6
CONTINUOUS
 62
    4
 10
234.48005362184227
 20
148.23626401812155
 11
235.85997974941876
 21
148.04402002969104
  0
LINE
  8
_1-2_4
  6
CONTINUOUS
 62
    4
 10
235.85997974941876
 20
148.04402002969104
 11
237.22003564081103
 21
147.9773802524752
  0
LINE
  8
_1-2_4
  6
CONTINUOUS
 62
    4
 10
237.22003564081103
 20
147.9773802524752
 11
238.51889668598065
 21
148.03836950238332
  0
LINE
  8
_1-2_4
  6
CONTINUOUS
 62
    4
 10
238.51889668598065
 20
148.03836950238332
 11
239.71709764932552
 21
148.22513465191901
  0
LINE
  8
_1-2_4
  6
CONTINUOUS
 62
    4
 10
239.71709764932552
 20
148.22513465191901
 11
240.77823180089337
 21
148.53200093652134
  0
LINE
  8
_1-2_4
  6
CONTINUOUS
 62
    4
 10
240.77823180089337
 20
148.53200093652134
 11
241.67005711644856
 21
148.94964437941454
  0
LINE
  8
_1-2_4
  6
CONTINUOUS
 62
    4
 10
241.67005711644856
 20
148.94964437941454
 11
242.36547593506339
 21
149.46537509592403
  0
LINE
  8
_1-2_4
  6
CONTINUOUS
 62
    4
 10
242.36547593506339
 20
149.46537509592403
 11
242.84335830783309
 21
150.06352286920105
  0
LINE
  8
_1-2_4
  6
CONTINUOUS
 62
    4
 10
242.84335830783309
 20
150.06352286920105
 11
243.08918402068124
 21
150.72591328183191
  0
LINE
  8
_1-2_4
  6
CONTINUOUS
 62
    4
 10
243.08918402068124
 20
150.72591328183191
 11
243.09548378371673
 21
151.43241993631457
  0
LINE
  8
_1-2_4
  6
CONTINUOUS
 62
    4
 10
243.09548378371673
 20
151.43241993631457
 11
242.8620661818276
 21
152.16157598546221
  0
LINE
  8
_1-2_4
  6
CONTINUOUS
 62
    4
 10
242.8620661818276
 20
152.16157598546221
 11
242.39602349073223
 21
152.89122639169219
  0
LINE
  8
_1-2_4
  6
CONTINUOUS
 62
    4
 10
242.39602349073223
 20
152.89122639169219
 11
242.26673102026805
 21
153.04595768116775
  0
LINE
  8
_1-2_4
  6
CONTINUOUS
 62
    4
 10
234.31872776089034
 20
147.36035690428207
 11
235.85320446491565
 21
147.15340597129853
  0
LINE
  8
_1-2_4
  6
CONTINUOUS
 62
    4
 10
235.85320446491565
 20
147.15340597129853
 11
237.36801679634792
 21
147.09912010702143
  0
LINE
  8
_1-2_4
  6
CONTINUOUS
 62
    4
 10
237.36801679634792
 20
147.09912010702143
 11
238.81713794902862
 21
147.19914875996685
  0
LINE
  8
_1-2_4
  6
CONTINUOUS
 62
    4
 10
238.81713794902862
 20
147.19914875996685
 11
240.15653711002423
 21
147.45045261013198
  0
LINE
  8
_1-2_4
  6
CONTINUOUS
 62
    4
 10
240.15653711002423
 20
147.45045261013198
 11
241.34551731359656
 21
147.84539591719542
  0
LINE
  8
_1-2_4
  6
CONTINUOUS
 62
    4
 10
241.34551731359656
 20
147.84539591719542
 11
242.3479519979131
 21
148.37197852862303
  0
LINE
  8
_1-2_4
  6
CONTINUOUS
 62
    4
 10
242.3479519979131
 20
148.37197852862303
 11
243.13338269234731
 21
149.01420049823022
  0
LINE
  8
_1-2_4
  6
CONTINUOUS
 62
    4
 10
243.13338269234731
 20
149.01420049823022
 11
243.67794448269589
 21
149.75254823645048
  0
LINE
  8
_1-2_4
  6
CONTINUOUS
 62
    4
 10
243.67794448269589
 20
149.75254823645048
 11
243.96509113452072
 21
150.56458742087997
  0
LINE
  8
_1-2_4
  6
CONTINUOUS
 62
    4
 10
243.96509113452072
 20
150.56458742087997
 11
243.98609784210925
 21
151.42564465181147
  0
LINE
  8
_1-2_4
  6
CONTINUOUS
 62
    4
 10
243.98609784210925
 20
151.42564465181147
 11
243.74032632728137
 21
152.30955714099909
  0
LINE
  8
_1-2_4
  6
CONTINUOUS
 62
    4
 10
243.74032632728137
 20
152.30955714099909
 11
243.23524423314868
 21
153.18946765474016
  0
LINE
  8
_1-2_4
  6
CONTINUOUS
 62
    4
 10
243.23524423314868
 20
153.18946765474016
 11
242.48619822355758
 21
154.03864055733087
  0
LINE
  8
_1-2_4
  6
CONTINUOUS
 62
    4
 10
242.48619822355758
 20
154.03864055733087
 11
242.26673102026808
 21
154.24007494201862
  0
LINE
  8
_1-2_4
  6
CONTINUOUS
 62
    4
 10
232.39374689473934
 20
146.91922781042064
 11
233.89387736398854
 21
146.5482035098415
  0
LINE
  8
_1-2_4
  6
CONTINUOUS
 62
    4
 10
233.89387736398854
 20
146.5482035098415
 11
235.42652391616369
 21
146.30831205687753
  0
LINE
  8
_1-2_4
  6
CONTINUOUS
 62
    4
 10
235.42652391616369
 20
146.30831205687753
 11
236.94511786133359
 21
146.20684243193608
  0
LINE
  8
_1-2_4
  6
CONTINUOUS
 62
    4
 10
236.94511786133359
 20
146.20684243193608
 11
238.40351749091982
 21
146.24687773822487
  0
LINE
  8
_1-2_4
  6
CONTINUOUS
 62
    4
 10
238.40351749091982
 20
146.24687773822487
 11
239.75741007016327
 21
146.42720152322116
  0
LINE
  8
_1-2_4
  6
CONTINUOUS
 62
    4
 10
239.75741007016327
 20
146.42720152322116
 11
240.96565825814628
 21
146.74233473996608
  0
LINE
  8
_1-2_4
  6
CONTINUOUS
 62
    4
 10
240.96565825814628
 20
146.74233473996608
 11
241.99155004508009
 21
147.18270222513397
  0
LINE
  8
_1-2_4
  6
CONTINUOUS
 62
    4
 10
241.99155004508009
 20
147.18270222513397
 11
242.80391422814503
 21
147.73492363552464
  0
LINE
  8
_1-2_4
  6
CONTINUOUS
 62
    4
 10
242.80391422814503
 20
147.73492363552464
 11
243.37806753271474
 21
148.38222000302093
  0
LINE
  8
_1-2_4
  6
CONTINUOUS
 62
    4
 10
243.37806753271474
 20
148.38222000302093
 11
243.69656460116551
 21
149.10492355504425
  0
LINE
  8
_1-2_4
  6
CONTINUOUS
 62
    4
 10
243.69656460116551
 20
149.10492355504425
 11
243.74972806123972
 21
149.88107530987196
  0
LINE
  8
_1-2_4
  6
CONTINUOUS
 62
    4
 10
243.74972806123972
 20
149.88107530987196
 11
243.74849609898371
 21
149.89292136813359
  0
LINE
  8
_1-2_4
  6
CONTINUOUS
 62
    4
 10
226.51012349765227
 20
153.51731578307928
 11
226.27514402193398
 21
152.85202899363705
  0
LINE
  8
_1-2_4
  6
CONTINUOUS
 62
    4
 10
226.27514402193398
 20
152.85202899363705
 11
226.30662288880001
 21
152.13964350158628
  0
LINE
  8
_1-2_4
  6
CONTINUOUS
 62
    4
 10
226.30662288880001
 20
152.13964350158628
 11
226.60360362880974
 21
151.40180477961843
  0
LINE
  8
_1-2_4
  6
CONTINUOUS
 62
    4
 10
226.60360362880974
 20
151.40180477961843
 11
227.15706263245744
 21
150.6609316839361
  0
LINE
  8
_1-2_4
  6
CONTINUOUS
 62
    4
 10
227.15706263245744
 20
150.6609316839361
 11
227.95018332798108
 21
149.93953526865172
  0
LINE
  8
_1-2_4
  6
CONTINUOUS
 62
    4
 10
227.95018332798108
 20
149.93953526865172
 11
228.95886714438558
 21
149.25953479879954
  0
LINE
  8
_1-2_4
  6
CONTINUOUS
 62
    4
 10
228.95886714438558
 20
149.25953479879954
 11
230.15246573432813
 21
148.64159174455912
  0
LINE
  8
_1-2_4
  6
CONTINUOUS
 62
    4
 10
230.15246573432813
 20
148.64159174455912
 11
231.49471220864336
 21
148.10448199293936
  0
LINE
  8
_1-2_4
  6
CONTINUOUS
 62
    4
 10
231.49471220864336
 20
148.10448199293936
 11
232.94482308741871
 21
147.66452535195248
  0
LINE
  8
_1-2_4
  6
CONTINUOUS
 62
    4
 10
232.94482308741871
 20
147.66452535195248
 11
234.31872776089045
 21
147.36035690428204
  0
LINE
  8
_1-2_4
  6
CONTINUOUS
 62
    4
 10
235.77066050945771
 20
155.24352092883737
 11
234.39195983304376
 21
155.44241841587376
  0
LINE
  8
_1-2_4
  6
CONTINUOUS
 62
    4
 10
234.39195983304376
 20
155.44241841587376
 11
233.03554306042565
 21
155.52881652571904
  0
LINE
  8
_1-2_4
  6
CONTINUOUS
 62
    4
 10
233.03554306042565
 20
155.52881652571904
 11
231.7426242288594
 21
155.50009009552508
  0
LINE
  8
_1-2_4
  6
CONTINUOUS
 62
    4
 10
231.7426242288594
 20
155.50009009552508
 11
230.5524880227936
 21
155.35711196333708
  0
LINE
  8
_1-2_4
  6
CONTINUOUS
 62
    4
 10
230.5524880227936
 20
155.35711196333708
 11
229.50129612861161
 21
155.10422644735115
  0
LINE
  8
_1-2_4
  6
CONTINUOUS
 62
    4
 10
229.50129612861161
 20
155.10422644735115
 11
228.62098848008938
 21
154.74911734600425
  0
LINE
  8
_1-2_4
  6
CONTINUOUS
 62
    4
 10
228.62098848008938
 20
154.74911734600425
 11
227.9383127796701
 21
154.30257446964694
  0
LINE
  8
_1-2_4
  6
CONTINUOUS
 62
    4
 10
227.9383127796701
 20
154.30257446964694
 11
227.89260930402833
 21
154.26303112859785
  0
LINE
  8
_1-2_4
  6
CONTINUOUS
 62
    4
 10
232.5506913829592
 20
147.77134657735942
 11
232.39374689473931
 21
146.91922781042049
  0
LINE
  8
_1-2_4
  6
CONTINUOUS
 62
    4
 10
242.95970845973295
 20
150.29695010701073
 11
242.81264408928647
 21
151.02044250838264
  0
LINE
  8
_1-2_4
  6
CONTINUOUS
 62
    4
 10
242.81264408928647
 20
151.02044250838264
 11
242.42955449025661
 21
151.75248803567297
  0
LINE
  8
_1-2_4
  6
CONTINUOUS
 62
    4
 10
242.42955449025661
 20
151.75248803567297
 11
242.2667310202682
 21
151.9748300807245
  0
LINE
  8
_1-2_4
  6
CONTINUOUS
 62
    4
 10
235.93198637040965
 20
156.11942804267682
 11
234.55328569399569
 21
156.31832552971321
  0
LINE
  8
_1-2_4
  6
CONTINUOUS
 62
    4
 10
234.55328569399569
 20
156.31832552971321
 11
233.19686892137759
 21
156.40472363955848
  0
LINE
  8
_1-2_4
  6
CONTINUOUS
 62
    4
 10
233.19686892137759
 20
156.40472363955848
 11
231.90395008981133
 21
156.37599720936453
  0
LINE
  8
_1-2_4
  6
CONTINUOUS
 62
    4
 10
231.90395008981133
 20
156.37599720936453
 11
230.71381388374553
 21
156.23301907717652
  0
LINE
  8
_1-2_4
  6
CONTINUOUS
 62
    4
 10
230.71381388374553
 20
156.23301907717652
 11
229.66262198956355
 21
155.9801335611906
  0
LINE
  8
_1-2_4
  6
CONTINUOUS
 62
    4
 10
229.66262198956355
 20
155.9801335611906
 11
228.78231434104131
 21
155.6250244598437
  0
LINE
  8
_1-2_4
  6
CONTINUOUS
 62
    4
 10
228.78231434104131
 20
155.6250244598437
 11
228.09963864062203
 21
155.17848158348639
  0
LINE
  8
_1-2_4
  6
CONTINUOUS
 62
    4
 10
228.09963864062203
 20
155.17848158348639
 11
227.63533764401234
 21
154.65407291145519
  0
LINE
  8
_1-2_4
  6
CONTINUOUS
 62
    4
 10
227.63533764401234
 20
154.65407291145519
 11
227.51492035023551
 21
154.42774198476707
  0
LINE
  8
_1-2_4
  6
CONTINUOUS
 62
    4
 10
236.09331223136155
 20
156.99533515651629
 11
234.5600609784988
 21
157.20893958810572
  0
LINE
  8
_1-2_4
  6
CONTINUOUS
 62
    4
 10
234.5600609784988
 20
157.20893958810572
 11
233.0488877658407
 21
157.28298378501222
  0
LINE
  8
_1-2_4
  6
CONTINUOUS
 62
    4
 10
233.0488877658407
 20
157.28298378501222
 11
231.60570882676336
 21
157.21521795178097
  0
LINE
  8
_1-2_4
  6
CONTINUOUS
 62
    4
 10
231.60570882676336
 20
157.21521795178097
 11
230.27437442304682
 21
157.00770111896355
  0
LINE
  8
_1-2_4
  6
CONTINUOUS
 62
    4
 10
230.27437442304682
 20
157.00770111896355
 11
229.09533647686033
 21
156.66673858051649
  0
LINE
  8
_1-2_4
  6
CONTINUOUS
 62
    4
 10
229.09533647686033
 20
156.66673858051649
 11
228.10441945957677
 21
156.20269031063521
  0
LINE
  8
_1-2_4
  6
CONTINUOUS
 62
    4
 10
228.10441945957677
 20
156.20269031063521
 11
227.33173188333808
 21
155.6296561811802
  0
LINE
  8
_1-2_4
  6
CONTINUOUS
 62
    4
 10
227.33173188333808
 20
155.6296561811802
 11
226.80075146914953
 21
154.96504754420573
  0
LINE
  8
_1-2_4
  6
CONTINUOUS
 62
    4
 10
226.80075146914953
 20
154.96504754420573
 11
226.68562928647995
 21
154.73828330699737
  0
ARC
  8
_1-5_6
  6
CONTINUOUS
 62
    6
 10
228.9251290419441
 20
168.52207079020835
 40
15.9220186199924
 50
265.61706236931673
 51
269.03203137931257
  0
LINE
  8
_1-5_6
  6
CONTINUOUS
 62
    6
 10
226.43712253994448
 20
153.8314700392805
 11
225.09858899430827
 21
154.1442334198023
  0
LINE
  8
_1-2_4
  6
CONTINUOUS
 62
    4
 10
226.49093155500336
 20
153.86266429708783
 11
226.61030708821639
 21
153.06272432210534
  0
LINE
  8
_1-2_4
  6
CONTINUOUS
 62
    4
 10
226.61030708821639
 20
153.06272432210534
 11
226.99330991082076
 21
152.2492047652112
  0
LINE
  8
_1-2_4
  6
CONTINUOUS
 62
    4
 10
226.99330991082076
 20
152.2492047652112
 11
227.6283026758604
 21
151.44682400648088
  0
LINE
  8
_1-2_4
  6
CONTINUOUS
 62
    4
 10
227.6283026758604
 20
151.44682400648088
 11
228.49599144949141
 21
150.67996197924413
  0
LINE
  8
_1-2_4
  6
CONTINUOUS
 62
    4
 10
228.49599144949141
 20
150.67996197924413
 11
229.57001194739874
 21
149.97191939814763
  0
LINE
  8
_1-2_4
  6
CONTINUOUS
 62
    4
 10
229.57001194739874
 20
149.97191939814763
 11
230.81773060023409
 21
149.3442097787312
  0
LINE
  8
_1-2_4
  6
CONTINUOUS
 62
    4
 10
230.81773060023409
 20
149.3442097787312
 11
232.20123610810711
 21
148.81590576014435
  0
LINE
  8
_1-2_4
  6
CONTINUOUS
 62
    4
 10
232.20123610810711
 20
148.81590576014435
 11
233.67849135624866
 21
148.40305959265714
  0
LINE
  8
_1-2_4
  6
CONTINUOUS
 62
    4
 10
233.67849135624866
 20
148.40305959265714
 11
234.48005362184233
 21
148.23626401812149
  0
ARC
  8
_1-4_2
  6
CONTINUOUS
 62
    2
 10
176.95936601886598
 20
163.29257310165767
 40
13
 50
79.564134750673745
 51
259.56413475067382
  0
ARC
  8
_1-4_2
  6
CONTINUOUS
 62
    2
 10
212.36386406829553
 20
156.77172056016136
 40
13
 50
259.56413475067382
 51
348.47300398675873
  0
ARC
  8
_1-4_2
  6
CONTINUOUS
 62
    2
 10
220.72325944107746
 20
155.23207482119696
 40
1.25
 50
39.724656358687398
 51
346.62445514872678
  0
LINE
  8
_1-2_4
  6
CONTINUOUS
 62
    4
 10
227.38464845484705
 20
153.61878568422574
 11
227.56448525490688
 21
152.96842431422715
  0
LINE
  8
_1-2_4
  6
CONTINUOUS
 62
    4
 10
227.56448525490688
 20
152.96842431422715
 11
227.97895712360059
 21
152.30734862033819
  0
LINE
  8
_1-2_4
  6
CONTINUOUS
 62
    4
 10
227.97895712360059
 20
152.30734862033819
 11
228.61547054293084
 21
151.65564505299722
  0
LINE
  8
_1-2_4
  6
CONTINUOUS
 62
    4
 10
228.61547054293084
 20
151.65564505299722
 11
229.45468537474255
 21
151.03311529531993
  0
LINE
  8
_1-2_4
  6
CONTINUOUS
 62
    4
 10
229.45468537474255
 20
151.03311529531993
 11
230.47110250103438
 21
150.45867459897818
  0
LINE
  8
_1-2_4
  6
CONTINUOUS
 62
    4
 10
230.47110250103438
 20
150.45867459897818
 11
231.6338386017558
 21
149.94977705384923
  0
LINE
  8
_1-2_4
  6
CONTINUOUS
 62
    4
 10
231.6338386017558
 20
149.94977705384923
 11
232.90756452885927
 21
149.52188525432726
  0
LINE
  8
_1-2_4
  6
CONTINUOUS
 62
    4
 10
232.90756452885927
 20
149.52188525432726
 11
234.25357876458611
 21
149.18800047621704
  0
LINE
  8
_1-2_4
  6
CONTINUOUS
 62
    4
 10
234.25357876458611
 20
149.18800047621704
 11
235.63098334749992
 21
148.95826763954764
  0
LINE
  8
_1-2_4
  6
CONTINUOUS
 62
    4
 10
235.63098334749992
 20
148.95826763954764
 11
236.58290971780144
 21
148.86389989449987
  0
ARC
  8
_1-4_2
  6
CONTINUOUS
 62
    2
 10
212.36386406829553
 20
156.77172056016136
 40
13
 50
352.83067971270327
 51
79.564134750673759
  0
LINE
  8
_1-2_4
  6
CONTINUOUS
 62
    4
 10
239.00170430747937
 20
200.13397095346434
 11
237.56464095476488
 21
200.61978370951718
  0
LINE
  8
_1-2_4
  6
CONTINUOUS
 62
    4
 10
237.56464095476488
 20
200.61978370951718
 11
236.09331223136149
 21
200.96279881102933
  0
LINE
  8
_1-2_4
  6
CONTINUOUS
 62
    4
 10
239.16336467285564
 20
199.11796054660556
 11
237.91263596289872
 21
199.58814321922677
  0
LINE
  8
_1-2_4
  6
CONTINUOUS
 62
    4
 10
237.91263596289872
 20
199.58814321922677
 11
236.57966809640519
 21
199.95371713706567
  0
LINE
  8
_1-2_4
  6
CONTINUOUS
 62
    4
 10
236.57966809640519
 20
199.95371713706567
 11
235.93198637040956
 21
200.08689169718986
  0
LINE
  8
_1-2_4
  6
CONTINUOUS
 62
    4
 10
239.37472161571264
 20
198.07358761964872
 11
238.1581063278183
 21
198.57405563827993
  0
LINE
  8
_1-2_4
  6
CONTINUOUS
 62
    4
 10
238.1581063278183
 20
198.57405563827993
 11
236.84689158591306
 21
198.97411344569917
  0
LINE
  8
_1-2_4
  6
CONTINUOUS
 62
    4
 10
236.84689158591306
 20
198.97411344569917
 11
235.77066050945774
 21
199.21098458335038
  0
LINE
  8
_0-3_03
  6
CONTINUOUS
 62
    3
 10
243.83061028803201
 20
194.0535399197031
 11
246.54246695155609
 21
194.0535399197031
  0
LINE
  8
_1-2_4
  6
CONTINUOUS
 62
    4
 10
239.00170430747937
 20
156.16650729895133
 11
237.56464095476488
 21
156.65232005500417
  0
LINE
  8
_1-2_4
  6
CONTINUOUS
 62
    4
 10
237.56464095476488
 20
156.65232005500417
 11
236.09331223136149
 21
156.99533515651632
  0
LINE
  8
_1-2_4
  6
CONTINUOUS
 62
    4
 10
239.16336467285564
 20
155.15049689209255
 11
237.91263596289872
 21
155.62067956471375
  0
LINE
  8
_1-2_4
  6
CONTINUOUS
 62
    4
 10
237.91263596289872
 20
155.62067956471375
 11
236.57966809640519
 21
155.98625348255266
  0
LINE
  8
_1-2_4
  6
CONTINUOUS
 62
    4
 10
236.57966809640519
 20
155.98625348255266
 11
235.93198637040956
 21
156.11942804267684
  0
LINE
  8
_1-2_4
  6
CONTINUOUS
 62
    4
 10
239.37472161571264
 20
154.10612396513568
 11
238.1581063278183
 21
154.60659198376689
  0
LINE
  8
_1-2_4
  6
CONTINUOUS
 62
    4
 10
238.1581063278183
 20
154.60659198376689
 11
236.84689158591306
 21
155.00664979118613
  0
LINE
  8
_1-2_4
  6
CONTINUOUS
 62
    4
 10
236.84689158591306
 20
155.00664979118613
 11
235.77066050945774
 21
155.24352092883734
  0
LINE
  8
_0-3_03
  6
CONTINUOUS
 62
    3
 10
243.83061028803201
 20
150.08607626519003
 11
246.54246695155621
 21
150.08607626519003
  0
TEXT
  8
_1-3_5
 62
    7
 10
186.44159375089561
 20
207.8580991804379
 40
3.5
 41
1
 50
-10.435865249325698
  1
検索キー
  0
TEXT
  8
_1-3_5
 62
    7
 10
182.12886559147444
 20
204.11469590397951
 40
2.2999999999999989
 41
1
 50
-10.435865249325678
  1
取扱説明書を
  0
TEXT
  8
_1-3_5
 62
    7
 10
181.44164671696325
 20
200.37735307056778
 40
2.2999999999999989
 41
1
 50
-10.435865249325692
  1
必ずご確認ください
  0
TEXT
  8
_1-3_5
 62
    7
 10
181.43309600085823
 20
164.80299758488866
 40
3.5
 41
1
 50
-10.435865249325705
  1
内筒交換キー
  0
TEXT
  8
_1-3_5
 62
    7
 10
182.12886559147447
 20
160.14723224946658
 40
2.2999999999999989
 41
1
 50
-10.435865249325678
  1
取扱説明書を
  0
TEXT
  8
_1-3_5
 62
    7
 10
181.44164671696328
 20
156.40988941605474
 40
2.2999999999999989
 41
1
 50
-10.435865249325692
  1
必ずご確認ください
  0
ARC
  8
_0-2_02
  6
CONTINUOUS
 62
    7
 10
440.85817336910009
 20
333.44885655305251
 40
5.003786843308446
 50
153.51539663159676
 51
206.48460336840319
  0
ARC
  8
_0-2_02
  6
CONTINUOUS
 62
    7
 10
437.68951704566541
 20
334.9528858033047
 40
1.4984288300021731
 50
88.533199731614417
 51
150.95656286225594
  0
ARC
  8
_0-2_02
  6
CONTINUOUS
 62
    7
 10
437.7608366061084
 20
334.94344788438434
 40
1.507736127856605
 50
29.257495282321795
 51
91.252742123788309
  0
ARC
  8
_0-2_02
  6
CONTINUOUS
 62
    7
 10
434.65047504573369
 20
333.45488967577529
 40
4.953779871066355
 50
333.19966407317872
 51
26.695012832379483
  0
ARC
  8
_0-2_02
  6
CONTINUOUS
 62
    7
 10
437.72468960525049
 20
331.99583256711253
 40
1.554183762729739
 50
210.05788663162352
 51
330.10955297015397
  0
ARC
  8
_0-2_02
  6
CONTINUOUS
 62
    7
 10
443.31577626118121
 20
333.44672540560407
 40
6.4088693306825224
 50
164.98983215587961
 51
195.01016784412039
  0
ARC
  8
_0-2_02
  6
CONTINUOUS
 62
    7
 10
432.16804744412758
 20
333.44672540560407
 40
6.3817545056375389
 50
344.9245467015416
 51
15.075453298458392
  0
ARC
  8
_0-2_02
  6
CONTINUOUS
 62
    7
 10
437.6780010085871
 20
334.9810163961904
 40
0.6641414708767684
 50
10.896387174530171
 51
85.693434976530057
  0
ARC
  8
_0-2_02
  6
CONTINUOUS
 62
    7
 10
450.85817336910009
 20
333.44885655305251
 40
5.003786843308446
 50
153.51539663159676
 51
206.48460336840319
  0
ARC
  8
_0-2_02
  6
CONTINUOUS
 62
    7
 10
447.68951704566541
 20
334.9528858033047
 40
1.4984288300021731
 50
88.533199731614417
 51
150.95656286225594
  0
ARC
  8
_0-2_02
  6
CONTINUOUS
 62
    7
 10
447.7608366061084
 20
334.94344788438434
 40
1.507736127856605
 50
29.257495282321795
 51
91.252742123788309
  0
ARC
  8
_0-2_02
  6
CONTINUOUS
 62
    7
 10
444.65047504573369
 20
333.45488967577529
 40
4.953779871066355
 50
333.19966407317872
 51
26.695012832379483
  0
ARC
  8
_0-2_02
  6
CONTINUOUS
 62
    7
 10
447.72468960525049
 20
331.99583256711253
 40
1.554183762729739
 50
210.05788663162352
 51
330.10955297015397
  0
ARC
  8
_0-2_02
  6
CONTINUOUS
 62
    7
 10
453.31577626118121
 20
333.44672540560407
 40
6.4088693306825224
 50
164.98983215587961
 51
195.01016784412039
  0
ARC
  8
_0-2_02
  6
CONTINUOUS
 62
    7
 10
442.16804744412758
 20
333.44672540560407
 40
6.3817545056375389
 50
344.9245467015416
 51
15.075453298458392
  0
ARC
  8
_0-2_02
  6
CONTINUOUS
 62
    7
 10
447.67800100858699
 20
334.9810163961904
 40
0.6641414708767684
 50
10.896387174530171
 51
85.693434976530057
  0
ARC
  8
_0-2_02
  6
CONTINUOUS
 62
    7
 10
460.85817336910009
 20
333.44885655305251
 40
5.003786843308446
 50
153.51539663159676
 51
206.48460336840319
  0
ARC
  8
_0-2_02
  6
CONTINUOUS
 62
    7
 10
457.68951704566541
 20
334.9528858033047
 40
1.4984288300021731
 50
88.533199731614417
 51
150.95656286225594
  0
ARC
  8
_0-2_02
  6
CONTINUOUS
 62
    7
 10
457.7608366061084
 20
334.94344788438434
 40
1.507736127856605
 50
29.257495282321795
 51
91.252742123788309
  0
ARC
  8
_0-2_02
  6
CONTINUOUS
 62
    7
 10
454.65047504573369
 20
333.45488967577529
 40
4.953779871066355
 50
333.19966407317872
 51
26.695012832379483
  0
ARC
  8
_0-2_02
  6
CONTINUOUS
 62
    7
 10
457.72468960525049
 20
331.99583256711253
 40
1.554183762729739
 50
210.05788663162352
 51
330.10955297015397
  0
ARC
  8
_0-2_02
  6
CONTINUOUS
 62
    7
 10
463.3157762611811
 20
333.44672540560407
 40
6.4088693306825224
 50
164.98983215587961
 51
195.01016784412039
  0
ARC
  8
_0-2_02
  6
CONTINUOUS
 62
    7
 10
452.16804744412758
 20
333.44672540560407
 40
6.3817545056375389
 50
344.9245467015416
 51
15.075453298458392
  0
ARC
  8
_0-2_02
  6
CONTINUOUS
 62
    7
 10
457.67800100858699
 20
334.98101639619028
 40
0.6641414708767684
 50
10.896387174530171
 51
85.693434976530057
  0
LINE
  8
_0-a_W
  6
CONTINUOUS
 62
    7
 10
692.47835266277616
 20
209.0416576856193
 11
692.47835266277684
 21
244.04165768561899
  0
TEXT
  8
_0-8_S
 62
    7
 10
558.05817258370666
 20
329.00319995809048
 40
6
 41
1
 50
0
  1
N W 5 0 A - S 1 A F
  0
LINE
  8
_0-8_S
  6
CONTINUOUS
 62
    6
 10
558.01261607725883
 20
327.59962789681254
 11
586.75034140175649
 21
327.59962789681254
  0
LINE
  8
_0-8_S
  6
CONTINUOUS
 62
    6
 10
590.69842325502043
 20
327.59962789681254
 11
595.46997055428847
 21
327.59962789681254
  0
LINE
  8
_0-8_S
  6
CONTINUOUS
 62
    6
 10
605.32586279043983
 20
327.59962789681254
 11
610.09741008970786
 21
327.59962789681254
  0
LINE
  8
_0-8_S
  6
CONTINUOUS
 62
    6
 10
612.88680075730463
 20
327.59962789681254
 11
617.65834805657278
 21
327.59962789681254
  0
LINE
  8
_0-8_S
  6
CONTINUOUS
 62
    6
 10
620.52059187497753
 20
327.59962789681254
 11
625.29213917424568
 21
327.59962789681254
  0
LINE
  8
_0-8_S
  6
CONTINUOUS
 62
    6
 10
628.57136515698448
 20
327.59962789681254
 11
633.34291245625263
 21
327.59962789681254
  0
TEXT
  8
_0-8_S
 62
    7
 10
540.31298205532335
 20
314.44454290918043
 40
3
 41
1
 50
0
  1
製品シリーズ
  0
TEXT
  8
_0-8_S
 62
    7
 10
540.31298205532335
 20
302.44454290918043
 40
3
 41
1
 50
0
  1
カムの仕様
  0
TEXT
  8
_0-8_S
 62
    7
 10
546.31298205532335
 20
296.44454290918043
 40
3
 41
1
 50
0
  1
A：21mm
  0
TEXT
  8
_0-8_S
 62
    7
 10
639.31298205532335
 20
314.44454290918043
 40
3
 41
1
 50
0
  1
ラッチ組み込み方向
  0
TEXT
  8
_0-8_S
 62
    7
 10
645.31298205532335
 20
308.44454290918043
 40
3
 41
1
 50
0
  1
F：頂点が正面側
  0
TEXT
  8
_0-8_S
 62
    7
 10
639.31298205532335
 20
290.44454290918043
 40
3
 41
1
 50
0
  1
ラッチの種類(基本)
  0
TEXT
  8
_0-8_S
 62
    7
 10
645.31298205532335
 20
284.44454290918043
 40
3
 41
1
 50
0
  1
A：インセット扉用
  0
TEXT
  8
_0-8_S
 62
    7
 10
639.31298205532335
 20
266.44454290918043
 40
3
 41
1
 50
0
  1
製品カラー
  0
LINE
  8
_0-8_S
  6
CONTINUOUS
 62
    6
 10
572.38147873950766
 20
327.59962789681254
 11
572.38147873950766
 21
315.94454290918043
  0
LINE
  8
_0-8_S
  6
CONTINUOUS
 62
    6
 10
567.31298205532335
 20
315.94454290918043
 11
572.38147873950766
 21
315.94454290918043
  0
LINE
  8
_0-8_S
  6
CONTINUOUS
 62
    6
 10
564.31298205532335
 20
303.94454290918043
 11
593.08419690465439
 21
303.94454290918043
  0
LINE
  8
_0-8_S
  6
CONTINUOUS
 62
    6
 10
636.31298205532335
 20
315.94454290918043
 11
630.95713880661856
 21
315.94454290918043
  0
LINE
  8
_0-8_S
  6
CONTINUOUS
 62
    6
 10
636.31298205532335
 20
291.94454290918043
 11
622.9063655246116
 21
291.94454290918043
  0
LINE
  8
_0-8_S
  6
CONTINUOUS
 62
    6
 10
636.31298205532335
 20
267.94454290918043
 11
615.2725744069387
 21
267.94454290918043
  0
LINE
  8
_0-8_S
  6
CONTINUOUS
 62
    6
 10
630.95713880661856
 20
327.59962789681254
 11
630.95713880661856
 21
315.94454290918043
  0
LINE
  8
_0-8_S
  6
CONTINUOUS
 62
    6
 10
622.9063655246116
 20
327.59962789681254
 11
622.9063655246116
 21
291.94454290918043
  0
LINE
  8
_0-8_S
  6
CONTINUOUS
 62
    6
 10
615.2725744069387
 20
327.59962789681254
 11
615.2725744069387
 21
267.94454290918043
  0
LINE
  8
_0-8_S
  6
CONTINUOUS
 62
    6
 10
607.71163644007379
 20
327.59962789681254
 11
607.71163644007379
 21
285.94454290918043
  0
LINE
  8
_0-8_S
  6
CONTINUOUS
 62
    6
 10
593.08419690465439
 20
327.59962789681254
 11
593.08419690465439
 21
303.94454290918043
  0
TEXT
  8
_0-8_S
 62
    7
 10
540.31298205532335
 20
284.44454290918043
 40
3
 41
1
 50
0
  1
取り付ける扉の種類
  0
TEXT
  8
_0-8_S
 62
    7
 10
546.31298205532335
 20
278.44454290918043
 40
3
 41
1
 50
0
  1
S：鋼製扉(t0.7～1.0)
  0
LINE
  8
_0-8_S
  6
CONTINUOUS
 62
    6
 10
582.31298205532335
 20
285.94454290918043
 11
607.71163644007379
 21
285.94454290918043
  0
LINE
  8
_0-4_04
  6
CONTINUOUS
 62
    4
 10
310.8483593162544
 20
301.3488156454743
 11
311.19608606699859
 21
301.3488156454743
  0
LINE
  8
_0-2_02
  6
CONTINUOUS
 62
    2
 10
311.19608606699859
 20
285.94881564547421
 11
311.1960860669995
 21
304.94881564547427
  0
LINE
  8
_0-2_02
  6
CONTINUOUS
 62
    2
 10
313.79608606699941
 20
289.66620694982129
 11
313.79608606699941
 21
285.94881564547421
  0
LINE
  8
_0-2_02
  6
CONTINUOUS
 62
    2
 10
311.19608606699859
 20
289.66620694982129
 11
311.19608606699859
 21
290.44881564547421
  0
LINE
  8
_0-2_02
  6
CONTINUOUS
 62
    2
 10
313.79608606699941
 20
290.44881564547421
 11
313.79608606699941
 21
289.66620694982129
  0
LINE
  8
_0-2_02
  6
CONTINUOUS
 62
    2
 10
313.79608606699941
 20
304.94881564547427
 11
311.1960860669995
 21
304.94881564547427
  0
LINE
  8
_0-2_02
  6
CONTINUOUS
 62
    2
 10
311.19608606699859
 20
290.44881564547421
 11
313.79608606699941
 21
290.44881564547421
  0
LINE
  8
_0-2_02
  6
CONTINUOUS
 62
    2
 10
313.79608606699941
 20
290.44881564547421
 11
313.79608606699941
 21
304.94881564547427
  0
LINE
  8
_0-2_02
  6
CONTINUOUS
 62
    2
 10
313.03456369808418
 20
304.94881564547427
 11
311.79608606699941
 21
304.94881564547427
  0
LINE
  8
_0-4_04
  6
CONTINUOUS
 62
    4
 10
308.17006431982543
 20
294.39970575670549
 11
308.29579248861842
 21
294.4121794037685
  0
LINE
  8
_0-4_04
  6
CONTINUOUS
 62
    4
 10
308.17006431982543
 20
296.49792553424339
 11
308.51269473996149
 21
296.46393274666946
  0
ARC
  8
_0-4_04
  6
CONTINUOUS
 62
    4
 10
310.06201362606339
 20
296.31689829198672
 40
1.9005901819731481
 50
171.39054078478571
 51
174.53441129798091
  0
ARC
  8
_0-4_04
  6
CONTINUOUS
 62
    4
 10
308.4431935676846
 20
296.42137933288831
 40
0.2836527930022798
 50
147.42667362526504
 51
164.34413540169223
  0
ARC
  8
_0-4_04
  6
CONTINUOUS
 62
    4
 10
310.82519803988248
 20
295.85174588151062
 40
2.7187556335615861
 50
148.2741736295992
 51
164.59204675175206
  0
LINE
  8
_0-4_04
  6
CONTINUOUS
 62
    4
 10
308.51269473996149
 20
296.43006430706669
 11
308.51269473996149
 21
297.28141741122613
  0
ARC
  8
_0-4_04
  6
CONTINUOUS
 62
    4
 10
311.39005424848028
 20
294.8358774498904
 40
3.2894725225872881
 50
151.01157122262421
 51
165.58376570972931
  0
ARC
  8
_0-4_04
  6
CONTINUOUS
 62
    4
 10
314.05445998000141
 20
294.94536859309551
 40
5.8931634635752133
 50
173.08546539194748
 51
176.87418948595572
  0
ARC
  8
_0-4_04
  6
CONTINUOUS
 62
    4
 10
315.67693805377564
 20
295.62798551463152
 40
7.5155618456747222
 50
182.7552527770552
 51
186.1163878840828
  0
ARC
  8
_0-4_04
  6
CONTINUOUS
 62
    4
 10
313.76472949969622
 20
295.8383349228331
 40
5.6517533454522706
 50
190.3059247800856
 51
201.67787283810068
  0
LINE
  8
_0-4_04
  6
CONTINUOUS
 62
    4
 10
308.51269473996149
 20
293.15112945250462
 11
308.51269473996149
 21
293.75064558761699
  0
ARC
  8
_0-4_04
  6
CONTINUOUS
 62
    4
 10
313.20973617799336
 20
295.12047558001831
 40
5.0931839197644271
 50
190.64228517673698
 51
202.74702451812809
  0
ARC
  8
_0-4_04
  6
CONTINUOUS
 62
    4
 10
310.06699872245349
 20
294.58136197405452
 40
1.905612528604723
 50
185.470137682125
 51
192.16234204943979
  0
ARC
  8
_0-4_04
  6
CONTINUOUS
 62
    4
 10
314.03408266803149
 20
295.95081754358421
 40
5.8727376759130241
 50
183.12257283750324
 51
184.90363006174417
  0
ARC
  8
_0-4_04
  6
CONTINUOUS
 62
    4
 10
315.67693805377564
 20
295.26964577631651
 40
7.515561845674803
 50
173.8836121159172
 51
177.24474722294471
  0
ARC
  8
_0-4_04
  6
CONTINUOUS
 62
    4
 10
313.65274898104713
 20
295.08507514977532
 40
5.5369700982076884
 50
165.3499905999405
 51
169.74922023746811
  0
LINE
  8
_0-4_04
  6
CONTINUOUS
 62
    4
 10
310.84835931625764
 20
289.54881564547406
 11
310.84835931625764
 21
301.3488156454743
  0
LINE
  8
_0-2_02
  6
CONTINUOUS
 62
    2
 10
311.19608606699859
 20
285.94881564547421
 11
313.79608606699941
 21
285.94881564547421
  0
LINE
  8
_0-4_04
  6
CONTINUOUS
 62
    4
 10
310.8483593162544
 20
289.54881564547406
 11
311.19608606699859
 21
289.54881564547406
  0
ARC
  8
_0-4_04
  6
CONTINUOUS
 62
    4
 10
315.79608606699941
 20
295.44881564547421
 40
7.7000000000000082
 50
129.98312145429799
 51
171.39114861221344
  0
ARC
  8
_0-4_04
  6
CONTINUOUS
 62
    4
 10
315.79608606699941
 20
295.44881564547421
 40
7.7000000000000082
 50
188.60885138778656
 51
230.01687854570196
  0
LINE
  8
_0-3_03
  6
CONTINUOUS
 62
    3
 10
311.19608606699859
 20
286.44881564547421
 11
304.7960860669985
 21
286.44881564547421
  0
LINE
  8
_0-3_03
  6
CONTINUOUS
 62
    3
 10
315.1679401111694
 20
286.44881564547421
 11
313.79608606699941
 21
286.44881564547421
  0
ARC
  8
_0-3_03
  6
CONTINUOUS
 62
    3
 10
304.7960860669985
 20
287.44881564547421
 40
1
 50
180
 51
270
  0
LINE
  8
_0-0_0
  6
CONTINUOUS
 62
    7
 10
313.9960860669994
 20
287.94881564547421
 11
313.9960860669994
 21
295.44881564547421
  0
LINE
  8
_0-0_0
  6
CONTINUOUS
 62
    7
 10
313.9960860669994
 20
295.44881564547421
 11
313.9960860669994
 21
302.94881564547427
  0
ARC
  8
_0-3_03
  6
CONTINUOUS
 62
    3
 10
315.29608606699941
 20
287.4781280528984
 40
1.0000000000000011
 50
180
 51
247.50000000000841
  0
LINE
  8
_0-3_03
  6
CONTINUOUS
 62
    3
 10
314.29608606699941
 20
287.4781280528984
 11
314.29608606699941
 21
289.64291245348363
  0
LINE
  8
_0-0_0
  6
CONTINUOUS
 62
    7
 10
313.9960860669994
 20
287.94881564547421
 11
314.29608606699941
 21
287.94881564547421
  0
LINE
  8
_0-0_0
  6
CONTINUOUS
 62
    7
 10
314.29608606699941
 20
302.94881564547427
 11
313.9960860669994
 21
302.94881564547427
  0
LINE
  8
_0-0_0
  6
CONTINUOUS
 62
    7
 10
313.79608606699941
 20
290.44881564547421
 11
313.9960860669994
 21
290.44881564547421
  0
LINE
  8
_0-0_0
  6
CONTINUOUS
 62
    7
 10
313.9960860669994
 20
300.44881564547421
 11
313.79608606699941
 21
300.44881564547421
  0
ARC
  8
_0-1_01
  6
CONTINUOUS
 62
    1
 10
412.57992234469521
 20
430.6882413687506
 40
1
 50
232.59437335239645
 51
270
  0
LINE
  8
_0-1_01
  6
CONTINUOUS
 62
    1
 10
413.17992234469631
 20
429.68824136874832
 11
412.57992234469521
 21
429.68824136874832
  0
ARC
  8
_0-1_01
  6
CONTINUOUS
 62
    1
 10
442.34516104916139
 20
469.6116349112724
 40
49.999999999999979
 50
224.13854797446791
 51
232.59437335239642
  0
ARC
  8
_0-1_01
  6
CONTINUOUS
 62
    1
 10
407.17992234469631
 20
435.48824136874941
 40
1.0000000000000011
 50
154.87749019465119
 51
224.13854797446794
  0
ARC
  8
_0-1_01
  6
CONTINUOUS
 62
    1
 10
424.3825617470884
 20
427.42169330955562
 40
18.500000000000011
 50
126.86708264227352
 51
153.80758798451191
  0
LINE
  8
_0-1_01
  6
CONTINUOUS
 62
    1
 10
412.74967442237448
 20
431.18824136874832
 11
413.17992234469631
 21
431.18824136874832
  0
ARC
  8
_0-1_01
  6
CONTINUOUS
 62
    1
 10
442.34516104916139
 20
469.6116349112724
 40
48.499999999999972
 50
224.55001256161239
 51
232.39486134377421
  0
LINE
  8
_0-1_01
  6
CONTINUOUS
 62
    1
 10
413.77992234469622
 20
444.18824136874832
 11
413.99885537179432
 21
444.18824136874832
  0
ARC
  8
_0-1_01
  6
CONTINUOUS
 62
    1
 10
424.3825617470884
 20
427.42169330955562
 40
20.000000000000011
 50
123.91992051533178
 51
154.87749019465119
  0
ARC
  8
_0-1_01
  6
CONTINUOUS
 62
    1
 10
413.77992234469622
 20
443.18824136874957
 40
1
 50
90
 51
123.91992051533181
  0
LINE
  8
_0-2_02
  6
CONTINUOUS
 62
    2
 10
406.71010716381812
 20
434.5382413687496
 11
394.17992234469631
 21
434.5382413687496
  0
LINE
  8
_0-2_02
  6
CONTINUOUS
 62
    2
 10
394.17992234469631
 20
434.5382413687496
 11
394.17992234469631
 21
431.93824136874969
  0
LINE
  8
_0-2_02
  6
CONTINUOUS
 62
    2
 10
409.47092464753808
 20
431.93824136874434
 11
394.17992234469631
 21
431.93824136874969
  0
LINE
  8
_0-1_01
  6
CONTINUOUS
 62
    1
 10
316.04608606699941
 20
352.19881564547416
 11
317.7460860669994
 21
352.19881564547416
  0
LINE
  8
_0-1_01
  6
CONTINUOUS
 62
    1
 10
316.04608606699941
 20
349.69881564547421
 11
317.7460860669994
 21
349.69881564547421
  0
LINE
  8
_0-1_01
  6
CONTINUOUS
 62
    1
 10
317.7460860669994
 20
352.19881564547416
 11
317.7460860669994
 21
349.69881564547421
  0
LINE
  8
_0-1_01
  6
CONTINUOUS
 62
    1
 10
315.54608606699941
 20
348.69881564547427
 11
315.04608606699941
 21
348.69881564547427
  0
LINE
  8
_0-1_01
  6
CONTINUOUS
 62
    1
 10
315.04608606699941
 20
355.69881564547416
 11
315.54608606699941
 21
355.69881564547416
  0
LINE
  8
_0-1_01
  6
CONTINUOUS
 62
    1
 10
302.54608606699941
 20
348.69881564547427
 11
302.04608606699941
 21
348.69881564547427
  0
LINE
  8
_0-1_01
  6
CONTINUOUS
 62
    1
 10
302.04608606699941
 20
355.69881564547416
 11
302.54608606699941
 21
355.69881564547416
  0
LINE
  8
_0-1_01
  6
CONTINUOUS
 62
    1
 10
301.5460860669985
 20
352.19881564547416
 11
301.29608606699941
 21
352.19881564547416
  0
LINE
  8
_0-1_01
  6
CONTINUOUS
 62
    1
 10
301.5460860669985
 20
354.69881564547427
 11
301.29608606699941
 21
354.69881564547427
  0
LINE
  8
_0-1_01
  6
CONTINUOUS
 62
    1
 10
302.04608606699941
 20
355.69881564547416
 11
302.13117690754621
 21
355.69881564547416
  0
ARC
  8
_0-1_01
  6
CONTINUOUS
 62
    1
 10
302.04608606699941
 20
355.19881564547427
 40
0.5
 50
90
 51
180
  0
LINE
  8
_0-1_01
  6
CONTINUOUS
 62
    1
 10
301.5460860669985
 20
355.19881564547427
 11
301.5460860669985
 21
349.19881564547421
  0
LINE
  8
_0-1_01
  6
CONTINUOUS
 62
    1
 10
302.13117690754621
 20
348.69881564547427
 11
302.04608606699941
 21
348.69881564547427
  0
ARC
  8
_0-1_01
  6
CONTINUOUS
 62
    1
 10
302.04608606699941
 20
349.19881564547421
 40
0.5
 50
180
 51
270
  0
LINE
  8
_0-1_01
  6
CONTINUOUS
 62
    1
 10
316.04608606699941
 20
355.19881564547427
 11
316.04608606699941
 21
349.19881564547421
  0
ARC
  8
_0-1_01
  6
CONTINUOUS
 62
    1
 10
315.54608606699941
 20
349.19881564547421
 40
0.5
 50
270
 51
0
  0
LINE
  8
_0-1_01
  6
CONTINUOUS
 62
    1
 10
315.44326355212638
 20
355.69881564547416
 11
315.54608606699941
 21
355.69881564547416
  0
ARC
  8
_0-1_01
  6
CONTINUOUS
 62
    1
 10
315.54608606699941
 20
355.19881564547427
 40
0.5
 50
0
 51
90
  0
LINE
  8
_0-1_01
  6
CONTINUOUS
 62
    1
 10
310.59428396028954
 20
355.69881564547416
 11
315.44326355212638
 21
355.69881564547416
  0
LINE
  8
_0-1_01
  6
CONTINUOUS
 62
    1
 10
315.44326355212638
 20
348.69881564547427
 11
310.59428396028954
 21
348.69881564547427
  0
LINE
  8
_0-1_01
  6
CONTINUOUS
 62
    1
 10
310.03380848649431
 20
348.69881564547427
 11
302.13117690754621
 21
348.69881564547427
  0
LINE
  8
_0-1_01
  6
CONTINUOUS
 62
    1
 10
302.13117690754621
 20
355.69881564547416
 11
310.03380848649431
 21
355.69881564547416
  0
LINE
  8
_0-1_01
  6
CONTINUOUS
 62
    1
 10
310.03380848649431
 20
355.69881564547416
 11
310.59428396028954
 21
355.69881564547416
  0
LINE
  8
_0-1_01
  6
CONTINUOUS
 62
    1
 10
310.59428396028954
 20
348.69881564547427
 11
310.03380848649431
 21
348.69881564547427
  0
LINE
  8
_0-1_01
  6
CONTINUOUS
 62
    1
 10
310.2460860669994
 20
355.19881564547427
 11
310.2460860669994
 21
349.19881564547421
  0
LINE
  8
_0-4_04
  6
CONTINUOUS
 62
    4
 10
469.17992234327249
 20
353.44881566223034
 11
469.17992234327249
 21
308.19314617846197
  0
LINE
  8
_0-8_S
  6
CONTINUOUS
 62
    6
 10
444.34337254824231
 20
265.8044788099711
 11
436.23853561455758
 21
281.64932367270558
  0
LINE
  8
_0-8_S
  6
CONTINUOUS
 62
    6
 10
422.12130907483532
 20
309.24830761824524
 11
420.75512586131379
 21
311.91917703232969
  0
LINE
  8
_0-8_S
  6
CONTINUOUS
 62
    6
 10
423.4874922883568
 20
306.57743820416067
 11
434.8723524010361
 21
284.32019308679014
  0
SOLID
  8
_0-8_S
  6
CONTINUOUS
 62
    6
 10
422.56645397718268
 20
309.47600482049882
 11
421.67616417248792
 21
309.0206104159916
 12
423.4874922883568
 22
306.57743820416067
 13
423.4874922883568
 23
306.57743820416067
  0
SOLID
  8
_0-8_S
  6
CONTINUOUS
 62
    6
 10
436.68368051690499
 20
281.87702087495916
 11
435.79339071221023
 21
281.42162647045211
 12
434.8723524010361
 22
284.32019308679014
 13
434.8723524010361
 23
284.32019308679014
  0
POINT
  8
_0-8_S
 62
    7
 10
434.8723524010361
 20
284.32019308679014
  0
POINT
  8
_0-8_S
 62
    7
 10
423.4874922883568
 20
306.57743820416067
  0
TEXT
  8
_0-8_S
 62
    7
 10
442.11712488991083
 20
271.2504851892736
 40
3
 41
1
 50
-62.90968621999999
  1
φ25
  0
LINE
  8
_0-0_0
  6
CONTINUOUS
 62
    7
 10
469.18614962412232
 20
279.4821362458224
 11
469.17985424316691
 21
308.19323851676825
  0
ENDSEC
  0
EOF
