  0
SECTION
  2
HEADER
  9
$ACADVER
  1
AC1009
  9
$INSBASE
 10
0
 20
0
 30
0
  9
$EXTMIN
 10
0
 20
0
  9
$EXTMAX
 10
841
 20
594
  9
$LIMMIN
 10
0
 20
0
  9
$LIMMAX
 10
841
 20
594
  9
$LTSCALE
 40
1
  0
ENDSEC
  0
SECTION
  2
TABLES
  0
TABLE
  2
LTYPE
 70
     9
  0
LTYPE
  2
CONTINUOUS
 70
    64
  3
実線
 72
    65
 73
     0
 40
0.0
  0
LTYPE
  2
DASHED1
 70
    64
  3
--  --  --  --  --  --  --  --  
 72
    65
 73
     2
 40
2.5
 49
1.25
 49
-1.25
  0
LTYPE
  2
DASHED2
 70
    64
  3
----    ----    ----    ----    
 72
    65
 73
     2
 40
5.0
 49
2.5
 49
-2.5
  0
LTYPE
  2
DASHED3
 70
    64
  3
------  ------  ------  ------  
 72
    65
 73
     2
 40
5.0
 49
3.75
 49
-1.25
  0
LTYPE
  2
CENTER1
 70
    64
  3
----- - ----- - ----- - ----- - 
 72
    65
 73
     4
 40
10.0
 49
6.25
 49
-1.25
 49
1.25
 49
-1.25
  0
LTYPE
  2
CENTER2
 70
    64
  3
----------  --  ----------  --  
 72
    65
 73
     4
 40
20.0
 49
12.5
 49
-2.5
 49
2.5
 49
-2.5
  0
LTYPE
  2
PHANTOM1
 70
    64
  3
--- - - --- - - --- - - --- - - 
 72
    65
 73
     6
 40
10.0
 49
3.25
 49
-1.25
 49
1.25
 49
-1.25
 49
1.25
 49
-1.25
  0
LTYPE
  2
PHANTOM2
 70
    64
  3
--------  -  -  --------  -  -  
 72
    65
 73
     6
 40
20.0
 49
10.0
 49
-2.5
 49
1.25
 49
-2.5
 49
1.25
 49
-2.5
  0
LTYPE
  2
DOT
 70
    64
  3
-   -   -   -   -   -   -   -   
 72
    65
 73
     2
 40
2.5
 49
0.625
 49
-1.875
  0
LTYPE
  2
DUMMY
 70
    64
  3
ダミー
 72
    65
 73
     0
 40
0.0
  0
LTYPE
  2
RAND1
 70
    64
  3
ランダム線1
 72
    65
 73
     4
 40
10.0
 49
1.0
 49
-2.0
 49
3.0
 49
-4.0
  0
LTYPE
  2
RAND2
 70
    64
  3
ランダム線2
 72
    65
 73
     4
 40
14.0
 49
2.0
 49
-3.0
 49
4.0
 49
-5.0
  0
LTYPE
  2
RAND3
 70
    64
  3
ランダム線3
 72
    65
 73
     4
 40
18.0
 49
3.0
 49
-4.0
 49
5.0
 49
-6.0
  0
LTYPE
  2
RAND4
 70
    64
  3
ランダム線4
 72
    65
 73
     4
 40
22.0
 49
4.0
 49
-5.0
 49
6.0
 49
-7.0
  0
LTYPE
  2
RAND5
 70
    64
  3
ランダム線5
 72
    65
 73
     4
 40
26.0
 49
5.0
 49
-6.0
 49
7.0
 49
-8.0
  0
LTYPE
  2
LONG1
 70
    64
  3
----------  --  ----------  --  
 72
    65
 73
     4
 40
40.0
 49
32.5
 49
-2.5
 49
2.5
 49
-2.5
  0
LTYPE
  2
LONG2
 70
    64
  3
--------  -  -  --------  -  -  
 72
    65
 73
     6
 40
40.0
 49
30.0
 49
-2.5
 49
1.25
 49
-2.5
 49
1.25
 49
-2.5
  0
LTYPE
  2
LONG3
 70
    64
  3
+++++++++++++++..+++++++++++++++
 72
    65
 73
     2
 40
40.0
 49
37.5
 49
-2.5
  0
LTYPE
  2
LONG4
 70
    64
  3
+++++++++++++++..+++++++++++++++
 72
    65
 73
     2
 40
80.0
 49
75.0
 49
-5.0
  0
LTYPE
  2
LONG5
 70
    64
  3
----------  --  ----------  --  
 72
    65
 73
     4
 40
60.0
 49
37.5
 49
-7.5
 49
7.5
 49
-7.5
  0
LTYPE
  2
dashed
 70
   64
  3
-------   -------------   ------
 72
   65
 73
    2
 40
7.5
 49
6
 49
-1.5
  0
LTYPE
  2
dashed_spaced
 70
   64
  3
----        --------        ----
 72
   65
 73
    2
 40
12
 49
6
 49
-6
  0
LTYPE
  2
long_dashed_dotted
 70
   64
  3
------------- --- --------------
 72
   65
 73
    4
 40
15.25
 49
12
 49
-1.5
 49
0.25
 49
-1.5
  0
LTYPE
  2
long_dashed_double-dotted
 70
   64
  3
----------- --- --- ------------
 72
   65
 73
    6
 40
17
 49
12
 49
-1.5
 49
0.25
 49
-1.5
 49
0.25
 49
-1.5
  0
LTYPE
  2
long_dashed_triplicate-dotted
 70
   64
  3
--------- --- --- --- ----------
 72
   65
 73
    8
 40
18.75
 49
12
 49
-1.5
 49
0.25
 49
-1.5
 49
0.25
 49
-1.5
 49
0.25
 49
-1.5
  0
LTYPE
  2
dotted
 70
   64
  3
   -       -       -       -    
 72
   65
 73
    2
 40
1.75
 49
0.25
 49
-1.5
  0
LTYPE
  2
chain
 70
   64
  3
-------------- -- --------------
 72
   65
 73
    4
 40
18.5
 49
12
 49
-1.5
 49
3.5
 49
-1.5
  0
LTYPE
  2
chain_double_dash
 70
   64
  3
------------ -- -- -------------
 72
   65
 73
    6
 40
23.5
 49
12
 49
-1.5
 49
3.5
 49
-1.5
 49
3.5
 49
-1.5
  0
LTYPE
  2
dashed_dotted
 70
   64
  3
-----------     -     ----------
 72
   65
 73
    4
 40
9.25
 49
6
 49
-1.5
 49
0.25
 49
-1.5
  0
LTYPE
  2
double-dashed_dotted
 70
   64
  3
------   -----------   -   -----
 72
   65
 73
    6
 40
16.75
 49
6
 49
-1.5
 49
6
 49
-1.5
 49
0.25
 49
-1.5
  0
LTYPE
  2
dashed_double-dotted
 70
   64
  3
---------    -    -    ---------
 72
   65
 73
    6
 40
11
 49
6
 49
-1.5
 49
0.25
 49
-1.5
 49
0.25
 49
-1.5
  0
LTYPE
  2
double-dashed_double-dotted
 70
   64
  3
-----   ---------   -   -   ----
 72
   65
 73
    8
 40
18.5
 49
6
 49
-1.5
 49
6
 49
-1.5
 49
0.25
 49
-1.5
 49
0.25
 49
-1.5
  0
LTYPE
  2
dashed_triplicate-dotted
 70
   64
  3
-------    -    -    -    ------
 72
   65
 73
    8
 40
12.75
 49
6
 49
-1.5
 49
0.25
 49
-1.5
 49
0.25
 49
-1.5
 49
0.25
 49
-1.5
  0
LTYPE
  2
double-dashed_triplicate-dotted
 70
   64
  3
-----  ---------  -  -  -  -----
 72
   65
 73
   10
 40
20.25
 49
6
 49
-1.5
 49
6
 49
-1.5
 49
0.25
 49
-1.5
 49
0.25
 49
-1.5
 49
0.25
 49
-1.5
  0
LTYPE
  2
undefined
 70
   64
  3
--------------------------------
 72
   65
 73
    0
 40
0
  0
LTYPE
  2
CENTER2_17
 70
   64
  3
----------    ----    ----------
 72
   65
 73
    4
 40
28.574999999999996
 49
19.050000000000001
 49
-3.1749999999999989
 49
3.1749999999999989
 49
-3.1749999999999989
  0
LTYPE
  2
C5
 70
   64
  3
-------------  --  -------------
 72
   65
 73
    4
 40
16.640000000000001
 49
12.800000000000001
 49
-1.28
 49
1.28
 49
-1.28
  0
LTYPE
  2
C0
 70
   64
  3
----------    ----    ----------
 72
   65
 73
    4
 40
3.52
 49
2.2000000000000002
 49
-0.4400000000000001
 49
0.4400000000000001
 49
-0.4400000000000001
  0
LTYPE
  2
H5
 70
   64
  3
-----       ---------       ----
 72
   65
 73
    2
 40
3.8000000000000003
 49
2.2000000000000002
 49
-1.6000000000000001
  0
LTYPE
  2
P1
 70
   64
  3
-----------  --  --  -----------
 72
   65
 73
    6
 40
4.2000000000000002
 49
2.7999999999999989
 49
-0.28
 49
0.28
 49
-0.28
 49
0.28
 49
-0.28
  0
LTYPE
  2
H2
 70
   64
  3
-----       ---------       ----
 72
   65
 73
    2
 40
1.3600000000000001
 49
0.8
 49
-0.56
  0
LTYPE
  2
H3
 70
   64
  3
-----       ---------       ----
 72
   65
 73
    2
 40
1.9000000000000001
 49
1.1000000000000001
 49
-0.8
  0
LTYPE
  2
CENTER
 70
   64
  3
-------------  --  -------------
 72
   65
 73
    4
 40
5.0499999999999989
 49
4
 49
-0.3499999999999999
 49
0.3499999999999999
 49
-0.3499999999999999
  0
LTYPE
  2
H4
 70
   64
  3
-----       ---------       ----
 72
   65
 73
    2
 40
2.7000000000000002
 49
1.6000000000000001
 49
-1.1000000000000001
  0
LTYPE
  2
P2
 70
   64
  3
-----------  --  --  -----------
 72
   65
 73
    6
 40
6.0000000000000018
 49
4
 49
-0.4
 49
0.4
 49
-0.4
 49
0.4
 49
-0.4
  0
LTYPE
  2
H7
 70
   64
  3
-----       ---------       ----
 72
   65
 73
    2
 40
7.6000000000000005
 49
4.4000000000000004
 49
-3.2000000000000002
  0
LTYPE
  2
PHANTOM2_28
 70
   64
  3
---------   ---   ---   --------
 72
   65
 73
    6
 40
31.749999999999986
 49
15.875
 49
-3.1749999999999989
 49
3.1749999999999989
 49
-3.1749999999999989
 49
3.1749999999999989
 49
-3.1749999999999989
  0
ENDTAB
  0
TABLE
  2
STYLE
  5
3
100
AcDbSymbolTable
 70
     1
  0
STYLE
  5
10
100
AcDbSymbolTableRecord
100
AcDbTextStyleTableRecord
  2
STANDARD
 70
     0
 40
0.0
 41
1.0
 50
0.0
 71
     0
 42
0.2
  3
txt
  4
bigfont.shx
  0
STYLE
  5
26
100
AcDbSymbolTableRecord
100
AcDbTextStyleTableRecord
  2
TATEGAKI
 70
    68
 40
0.0
 41
1.0
 50
0.0
 71
     0
 42
1.0
  3
txt
  4
bigfont.shx
  0
ENDTAB
  0
TABLE
  2
LAYER
 70
   10
  0
LAYER
  2
_0-1_1
 70
   64
 62
    7
  6
CONTINUOUS
  0
LAYER
  2
_0-2_2
 70
   64
 62
    7
  6
CONTINUOUS
  0
LAYER
  2
_0-3_3
 70
   64
 62
    7
  6
CONTINUOUS
  0
LAYER
  2
_0-4_4
 70
   64
 62
    7
  6
CONTINUOUS
  0
LAYER
  2
_0-6_6
 70
   64
 62
    7
  6
CONTINUOUS
  0
LAYER
  2
_0-7_7
 70
   64
 62
    7
  6
CONTINUOUS
  0
LAYER
  2
_0-8_S
 70
   64
 62
    7
  6
CONTINUOUS
  0
LAYER
  2
_0-9_T
 70
   64
 62
    7
  6
CONTINUOUS
  0
LAYER
  2
_0-a_W
 70
   64
 62
    7
  6
CONTINUOUS
  0
LAYER
  2
ADD_LINE
 70
   64
 62
    7
  6
CONTINUOUS
  0
ENDTAB
  0
ENDSEC
  0
SECTION
  2
BLOCKS
  0
BLOCK
  2
-000-SUG-AR01
 70
   64
 10
0
 20
0
 30
0
  0
LINE
  8
_0-c__0-c__0-0_0
  6
CONTINUOUS
 62
    7
 10
0
 20
0
 11
5
 21
1.3397459621556591
  0
LINE
  8
_0-c__0-c__0-0_0
  6
CONTINUOUS
 62
    7
 10
5
 20
-1.3397459621556591
 11
5
 21
1.3397459621556591
  0
LINE
  8
_0-c__0-c__0-0_0
  6
CONTINUOUS
 62
    7
 10
0
 20
0
 11
5
 21
-1.3397459621556591
  0
ENDBLK
  0
BLOCK
  2
-001-SUG-AR06
 70
   64
 10
0
 20
0
 30
0
  0
ENDBLK
  0
BLOCK
  2
-002-製品図-OPNUSマ__ク
 70
   64
 10
0
 20
0
 30
0
  0
ENDBLK
  0
BLOCK
  2
-003-AI9-BLK1
 70
   64
 10
0
 20
0
 30
0
  0
ENDBLK
  0
ENDSEC
  0
SECTION
  2
ENTITIES
  0
LINE
  8
_0-1_1
  6
CONTINUOUS
 62
    1
 10
227.6237475599049
 20
344.06830843609981
 11
227.6237475599049
 21
520.10936782271938
  0
INSERT
  2
-001-SUG-AR06
  8
_0-4_4
 10
332.01236832064581
 20
598.28740787877769
 41
1
 42
1
 50
0
  0
INSERT
  2
-001-SUG-AR06
  8
_0-4_4
 10
332.01236832064581
 20
598.28740787877769
 41
0.5
 42
0.5
 50
0
  0
INSERT
  2
-001-SUG-AR06
  8
_0-4_4
 10
428.2400532002174
 20
555.79021241625514
 41
0.5
 42
0.5
 50
0
  0
INSERT
  2
-001-SUG-AR06
  8
_0-4_4
 10
524.11236832064583
 20
731.88740787877759
 41
0.5
 42
0.5
 50
0
  0
INSERT
  2
-001-SUG-AR06
  8
_0-4_4
 10
1916.123988342762
 20
593.54543669397503
 41
1
 42
1
 50
0
  0
INSERT
  2
-001-SUG-AR06
  8
_0-4_4
 10
1916.123988342762
 20
593.54543669397503
 41
0.5
 42
0.5
 50
0
  0
INSERT
  2
-001-SUG-AR06
  8
_0-4_4
 10
2012.3516732223329
 20
551.04824123145249
 41
0.5
 42
0.5
 50
0
  0
INSERT
  2
-001-SUG-AR06
  8
_0-4_4
 10
2108.2239883427619
 20
727.14543669397517
 41
0.5
 42
0.5
 50
0
  0
INSERT
  2
-001-SUG-AR06
  8
_0-4_4
 10
4543.974014299195
 20
2034.0411763387422
 41
1
 42
1
 50
0
  0
INSERT
  2
-001-SUG-AR06
  8
_0-4_4
 10
4543.974014299195
 20
2034.0411763387422
 41
0.5
 42
0.5
 50
0
  0
INSERT
  2
-001-SUG-AR06
  8
_0-4_4
 10
4640.2016991787668
 20
1991.5439808762192
 41
0.5
 42
0.5
 50
0
  0
INSERT
  2
-001-SUG-AR06
  8
_0-4_4
 10
4736.0740142991954
 20
2167.6411763387423
 41
0.5
 42
0.5
 50
0
  0
INSERT
  2
-001-SUG-AR06
  8
_0-4_4
 10
332.01236832064569
 20
1270.6259135352882
 41
1
 42
1
 50
0
  0
INSERT
  2
-001-SUG-AR06
  8
_0-4_4
 10
332.01236832064569
 20
1270.6259135352882
 41
0.5
 42
0.5
 50
0
  0
INSERT
  2
-001-SUG-AR06
  8
_0-4_4
 10
428.24005320021729
 20
1228.1287180727661
 41
0.5
 42
0.5
 50
0
  0
INSERT
  2
-001-SUG-AR06
  8
_0-4_4
 10
524.1123683206456
 20
1404.2259135352892
 41
0.5
 42
0.5
 50
0
  0
INSERT
  2
-001-SUG-AR06
  8
_0-4_4
 10
1916.123988342762
 20
1265.8839423504862
 41
1
 42
1
 50
0
  0
INSERT
  2
-001-SUG-AR06
  8
_0-4_4
 10
1916.123988342762
 20
1265.8839423504862
 41
0.5
 42
0.5
 50
0
  0
INSERT
  2
-001-SUG-AR06
  8
_0-4_4
 10
2012.3516732223329
 20
1223.3867468879632
 41
0.5
 42
0.5
 50
0
  0
INSERT
  2
-001-SUG-AR06
  8
_0-4_4
 10
2108.2239883427619
 20
1399.4839423504861
 41
0.5
 42
0.5
 50
0
  0
INSERT
  2
-001-SUG-AR06
  8
_0-4_4
 10
4995.3668935749456
 20
2136.2194576514494
 41
1
 42
1
 50
0
  0
INSERT
  2
-001-SUG-AR06
  8
_0-4_4
 10
4995.3668935749456
 20
2136.2194576514494
 41
0.5
 42
0.5
 50
0
  0
INSERT
  2
-001-SUG-AR06
  8
_0-4_4
 10
5091.5945784545183
 20
2093.7222621889273
 41
0.5
 42
0.5
 50
0
  0
INSERT
  2
-001-SUG-AR06
  8
_0-4_4
 10
5187.466893574946
 20
2269.8194576514493
 41
0.5
 42
0.5
 50
0
  0
INSERT
  2
-001-SUG-AR06
  8
_0-4_4
 10
4041.963020191145
 20
2148.814201774162
 41
1
 42
1
 50
0
  0
INSERT
  2
-001-SUG-AR06
  8
_0-4_4
 10
4041.963020191145
 20
2148.814201774162
 41
0.5
 42
0.5
 50
0
  0
INSERT
  2
-001-SUG-AR06
  8
_0-4_4
 10
4138.1907050707159
 20
2106.3170063116399
 41
0.5
 42
0.5
 50
0
  0
INSERT
  2
-001-SUG-AR06
  8
_0-4_4
 10
4234.0630201911454
 20
2282.4142017741619
 41
0.5
 42
0.5
 50
0
  0
INSERT
  2
-001-SUG-AR06
  8
_0-4_4
 10
5626.0746402132609
 20
2144.0722305893601
 41
1
 42
1
 50
0
  0
INSERT
  2
-001-SUG-AR06
  8
_0-4_4
 10
5626.0746402132609
 20
2144.0722305893601
 41
0.5
 42
0.5
 50
0
  0
INSERT
  2
-001-SUG-AR06
  8
_0-4_4
 10
5722.3023250928327
 20
2101.5750351268371
 41
0.5
 42
0.5
 50
0
  0
INSERT
  2
-001-SUG-AR06
  8
_0-4_4
 10
5818.1746402132621
 20
2277.67223058936
 41
0.5
 42
0.5
 50
0
  0
INSERT
  2
-001-SUG-AR06
  8
_0-4_4
 10
4274.1830984758381
 20
2923.271328978014
 41
1
 42
1
 50
0
  0
INSERT
  2
-001-SUG-AR06
  8
_0-4_4
 10
4274.1830984758381
 20
2923.271328978014
 41
0.5
 42
0.5
 50
0
  0
INSERT
  2
-001-SUG-AR06
  8
_0-4_4
 10
4370.4107833554099
 20
2880.774133515491
 41
0.5
 42
0.5
 50
0
  0
INSERT
  2
-001-SUG-AR06
  8
_0-4_4
 10
4466.2830984758384
 20
3056.8713289780139
 41
0.5
 42
0.5
 50
0
  0
INSERT
  2
-001-SUG-AR06
  8
_0-4_4
 10
5858.2947184979539
 20
2918.5293577932111
 41
1
 42
1
 50
0
  0
INSERT
  2
-001-SUG-AR06
  8
_0-4_4
 10
5858.2947184979539
 20
2918.5293577932111
 41
0.5
 42
0.5
 50
0
  0
INSERT
  2
-001-SUG-AR06
  8
_0-4_4
 10
5954.5224033775257
 20
2876.0321623306882
 41
0.5
 42
0.5
 50
0
  0
INSERT
  2
-001-SUG-AR06
  8
_0-4_4
 10
6050.3947184979543
 20
3052.1293577932111
 41
0.5
 42
0.5
 50
0
  0
INSERT
  2
-001-SUG-AR06
  8
_0-4_4
 10
4240.444594427755
 20
3505.2949887313152
 41
1
 42
1
 50
0
  0
INSERT
  2
-001-SUG-AR06
  8
_0-4_4
 10
4240.444594427755
 20
3505.2949887313152
 41
0.5
 42
0.5
 50
0
  0
INSERT
  2
-001-SUG-AR06
  8
_0-4_4
 10
4336.6722793073259
 20
3462.7977932687922
 41
0.5
 42
0.5
 50
0
  0
INSERT
  2
-001-SUG-AR06
  8
_0-4_4
 10
4432.5445944277544
 20
3638.8949887313152
 41
0.5
 42
0.5
 50
0
  0
INSERT
  2
-001-SUG-AR06
  8
_0-4_4
 10
4240.0526983032851
 20
3504.1197084613673
 41
1
 42
1
 50
0
  0
INSERT
  2
-001-SUG-AR06
  8
_0-4_4
 10
4240.0526983032851
 20
3504.1197084613673
 41
0.5
 42
0.5
 50
0
  0
INSERT
  2
-001-SUG-AR06
  8
_0-4_4
 10
4336.280383182856
 20
3461.6225129988434
 41
0.5
 42
0.5
 50
0
  0
INSERT
  2
-001-SUG-AR06
  8
_0-4_4
 10
4432.1526983032854
 20
3637.7197084613672
 41
0.5
 42
0.5
 50
0
  0
INSERT
  2
-001-SUG-AR06
  8
_0-4_4
 10
5037.8007916065262
 20
3501.07226495641
 41
1
 42
1
 50
0
  0
INSERT
  2
-001-SUG-AR06
  8
_0-4_4
 10
5037.8007916065262
 20
3501.07226495641
 41
0.5
 42
0.5
 50
0
  0
INSERT
  2
-001-SUG-AR06
  8
_0-4_4
 10
5134.028476486098
 20
3458.5750694938883
 41
0.5
 42
0.5
 50
0
  0
INSERT
  2
-001-SUG-AR06
  8
_0-4_4
 10
5229.9007916065266
 20
3634.6722649564103
 41
0.5
 42
0.5
 50
0
  0
INSERT
  2
-001-SUG-AR06
  8
_0-4_4
 10
5683.378371538588
 20
2974.9710404996263
 41
1
 42
1
 50
0
  0
INSERT
  2
-001-SUG-AR06
  8
_0-4_4
 10
5683.378371538588
 20
2974.9710404996263
 41
0.5
 42
0.5
 50
0
  0
INSERT
  2
-001-SUG-AR06
  8
_0-4_4
 10
5779.6060564181598
 20
2932.4738450371042
 41
0.5
 42
0.5
 50
0
  0
INSERT
  2
-001-SUG-AR06
  8
_0-4_4
 10
5875.4783715385884
 20
3108.5710404996262
 41
0.5
 42
0.5
 50
0
  0
INSERT
  2
-001-SUG-AR06
  8
_0-4_4
 10
7267.4899915607039
 20
2970.2290693148243
 41
1
 42
1
 50
0
  0
INSERT
  2
-001-SUG-AR06
  8
_0-4_4
 10
7267.4899915607039
 20
2970.2290693148243
 41
0.5
 42
0.5
 50
0
  0
INSERT
  2
-001-SUG-AR06
  8
_0-4_4
 10
7363.7176764402757
 20
2927.7318738523013
 41
0.5
 42
0.5
 50
0
  0
INSERT
  2
-001-SUG-AR06
  8
_0-4_4
 10
7459.5899915607051
 20
3103.8290693148233
 41
0.5
 42
0.5
 50
0
  0
INSERT
  2
-001-SUG-AR06
  8
_0-4_4
 10
5653.3273768744593
 20
3556.8221885671283
 41
1
 42
1
 50
0
  0
INSERT
  2
-001-SUG-AR06
  8
_0-4_4
 10
5653.3273768744593
 20
3556.8221885671283
 41
0.5
 42
0.5
 50
0
  0
INSERT
  2
-001-SUG-AR06
  8
_0-4_4
 10
5749.5550617540312
 20
3514.3249931046062
 41
0.5
 42
0.5
 50
0
  0
INSERT
  2
-001-SUG-AR06
  8
_0-4_4
 10
5845.4273768744588
 20
3690.4221885671282
 41
0.5
 42
0.5
 50
0
  0
INSERT
  2
-001-SUG-AR06
  8
_0-4_4
 10
7072.9197782031843
 20
3439.2224476317301
 41
1
 42
1
 50
0
  0
INSERT
  2
-001-SUG-AR06
  8
_0-4_4
 10
7072.9197782031843
 20
3439.2224476317301
 41
0.5
 42
0.5
 50
0
  0
INSERT
  2
-001-SUG-AR06
  8
_0-4_4
 10
7169.147463082757
 20
3396.725252169208
 41
0.5
 42
0.5
 50
0
  0
INSERT
  2
-001-SUG-AR06
  8
_0-4_4
 10
7265.0197782031828
 20
3572.82244763173
 41
0.5
 42
0.5
 50
0
  0
INSERT
  2
-001-SUG-AR06
  8
_0-4_4
 10
8657.0313982252974
 20
3434.4804764469282
 41
1
 42
1
 50
0
  0
INSERT
  2
-001-SUG-AR06
  8
_0-4_4
 10
8657.0313982252974
 20
3434.4804764469282
 41
0.5
 42
0.5
 50
0
  0
INSERT
  2
-001-SUG-AR06
  8
_0-4_4
 10
8753.2590831048692
 20
3391.9832809844052
 41
0.5
 42
0.5
 50
0
  0
INSERT
  2
-001-SUG-AR06
  8
_0-4_4
 10
8849.1313982252996
 20
3568.0804764469281
 41
0.5
 42
0.5
 50
0
  0
INSERT
  2
-001-SUG-AR06
  8
_0-4_4
 10
7841.3575036607954
 20
4030.8583661782714
 41
1
 42
1
 50
0
  0
INSERT
  2
-001-SUG-AR06
  8
_0-4_4
 10
7841.3575036607954
 20
4030.8583661782714
 41
0.5
 42
0.5
 50
0
  0
INSERT
  2
-001-SUG-AR06
  8
_0-4_4
 10
7937.5851885403681
 20
3988.3611707157484
 41
0.5
 42
0.5
 50
0
  0
INSERT
  2
-001-SUG-AR06
  8
_0-4_4
 10
8033.4575036607957
 20
4164.4583661782699
 41
0.5
 42
0.5
 50
0
  0
INSERT
  2
-001-SUG-AR06
  8
_0-4_4
 10
2031.8883432112657
 20
1943.4914097606422
 41
1
 42
1
 50
0
  0
INSERT
  2
-001-SUG-AR06
  8
_0-4_4
 10
2031.8883432112657
 20
1943.4914097606422
 41
0.5
 42
0.5
 50
0
  0
INSERT
  2
-001-SUG-AR06
  8
_0-4_4
 10
2128.116028090838
 20
1900.9942142981192
 41
0.5
 42
0.5
 50
0
  0
INSERT
  2
-001-SUG-AR06
  8
_0-4_4
 10
2223.9883432112661
 20
2077.0914097606433
 41
0.5
 42
0.5
 50
0
  0
INSERT
  2
-001-SUG-AR06
  8
_0-4_4
 10
3615.999963233382
 20
1938.7494385758403
 41
1
 42
1
 50
0
  0
INSERT
  2
-001-SUG-AR06
  8
_0-4_4
 10
3615.999963233382
 20
1938.7494385758403
 41
0.5
 42
0.5
 50
0
  0
INSERT
  2
-001-SUG-AR06
  8
_0-4_4
 10
3712.2276481129538
 20
1896.2522431133173
 41
0.5
 42
0.5
 50
0
  0
INSERT
  2
-001-SUG-AR06
  8
_0-4_4
 10
3808.0999632333828
 20
2072.3494385758404
 41
0.5
 42
0.5
 50
0
  0
INSERT
  2
-001-SUG-AR06
  8
_0-4_4
 10
1998.1498391631817
 20
2525.5150695139441
 41
1
 42
1
 50
0
  0
INSERT
  2
-001-SUG-AR06
  8
_0-4_4
 10
1998.1498391631817
 20
2525.5150695139441
 41
0.5
 42
0.5
 50
0
  0
INSERT
  2
-001-SUG-AR06
  8
_0-4_4
 10
2094.377524042754
 20
2483.0178740514202
 41
0.5
 42
0.5
 50
0
  0
INSERT
  2
-001-SUG-AR06
  8
_0-4_4
 10
2190.2498391631821
 20
2659.1150695139431
 41
0.5
 42
0.5
 50
0
  0
INSERT
  2
-001-SUG-AR06
  8
_0-4_4
 10
1997.7579430387127
 20
2524.3397892439953
 41
1
 42
1
 50
0
  0
INSERT
  2
-001-SUG-AR06
  8
_0-4_4
 10
1997.7579430387127
 20
2524.3397892439953
 41
0.5
 42
0.5
 50
0
  0
INSERT
  2
-001-SUG-AR06
  8
_0-4_4
 10
2093.985627918285
 20
2481.8425937814723
 41
0.5
 42
0.5
 50
0
  0
INSERT
  2
-001-SUG-AR06
  8
_0-4_4
 10
2189.857943038714
 20
2657.9397892439952
 41
0.5
 42
0.5
 50
0
  0
INSERT
  2
-001-SUG-AR06
  8
_0-4_4
 10
2795.5060363419539
 20
2521.2923457390393
 41
1
 42
1
 50
0
  0
INSERT
  2
-001-SUG-AR06
  8
_0-4_4
 10
2795.5060363419539
 20
2521.2923457390393
 41
0.5
 42
0.5
 50
0
  0
INSERT
  2
-001-SUG-AR06
  8
_0-4_4
 10
2891.7337212215261
 20
2478.7951502765163
 41
0.5
 42
0.5
 50
0
  0
INSERT
  2
-001-SUG-AR06
  8
_0-4_4
 10
2987.6060363419551
 20
2654.8923457390383
 41
0.5
 42
0.5
 50
0
  0
INSERT
  2
-001-SUG-AR06
  8
_0-4_4
 10
3441.0836162740161
 20
1995.1911212822552
 41
1
 42
1
 50
0
  0
INSERT
  2
-001-SUG-AR06
  8
_0-4_4
 10
3441.0836162740161
 20
1995.1911212822552
 41
0.5
 42
0.5
 50
0
  0
INSERT
  2
-001-SUG-AR06
  8
_0-4_4
 10
3537.3113011535879
 20
1952.6939258197322
 41
0.5
 42
0.5
 50
0
  0
INSERT
  2
-001-SUG-AR06
  8
_0-4_4
 10
3633.183616274016
 20
2128.7911212822551
 41
0.5
 42
0.5
 50
0
  0
INSERT
  2
-001-SUG-AR06
  8
_0-4_4
 10
5025.195236296132
 20
1990.449150097452
 41
1
 42
1
 50
0
  0
INSERT
  2
-001-SUG-AR06
  8
_0-4_4
 10
5025.195236296132
 20
1990.449150097452
 41
0.5
 42
0.5
 50
0
  0
INSERT
  2
-001-SUG-AR06
  8
_0-4_4
 10
5121.4229211757038
 20
1947.9519546349291
 41
0.5
 42
0.5
 50
0
  0
INSERT
  2
-001-SUG-AR06
  8
_0-4_4
 10
5217.2952362961323
 20
2124.0491500974522
 41
0.5
 42
0.5
 50
0
  0
INSERT
  2
-001-SUG-AR06
  8
_0-4_4
 10
3411.032621609887
 20
2577.0422693497571
 41
1
 42
1
 50
0
  0
INSERT
  2
-001-SUG-AR06
  8
_0-4_4
 10
3411.032621609887
 20
2577.0422693497571
 41
0.5
 42
0.5
 50
0
  0
INSERT
  2
-001-SUG-AR06
  8
_0-4_4
 10
3507.2603064894588
 20
2534.5450738872341
 41
0.5
 42
0.5
 50
0
  0
INSERT
  2
-001-SUG-AR06
  8
_0-4_4
 10
3603.1326216098878
 20
2710.642269349757
 41
0.5
 42
0.5
 50
0
  0
INSERT
  2
-001-SUG-AR06
  8
_0-4_4
 10
4830.6250229386123
 20
2459.442528414359
 41
1
 42
1
 50
0
  0
INSERT
  2
-001-SUG-AR06
  8
_0-4_4
 10
4830.6250229386123
 20
2459.442528414359
 41
0.5
 42
0.5
 50
0
  0
INSERT
  2
-001-SUG-AR06
  8
_0-4_4
 10
4926.8527078181851
 20
2416.9453329518374
 41
0.5
 42
0.5
 50
0
  0
INSERT
  2
-001-SUG-AR06
  8
_0-4_4
 10
5022.7250229386118
 20
2593.0425284143603
 41
0.5
 42
0.5
 50
0
  0
INSERT
  2
-001-SUG-AR06
  8
_0-4_4
 10
6414.7366429607291
 20
2454.700557229557
 41
1
 42
1
 50
0
  0
INSERT
  2
-001-SUG-AR06
  8
_0-4_4
 10
6414.7366429607291
 20
2454.700557229557
 41
0.5
 42
0.5
 50
0
  0
INSERT
  2
-001-SUG-AR06
  8
_0-4_4
 10
6510.9643278402991
 20
2412.203361767034
 41
0.5
 42
0.5
 50
0
  0
INSERT
  2
-001-SUG-AR06
  8
_0-4_4
 10
6606.8366429607286
 20
2588.3005572295569
 41
0.5
 42
0.5
 50
0
  0
INSERT
  2
-001-SUG-AR06
  8
_0-4_4
 10
5599.0627483962226
 20
3051.0784469609002
 41
1
 42
1
 50
0
  0
INSERT
  2
-001-SUG-AR06
  8
_0-4_4
 10
5599.0627483962226
 20
3051.0784469609002
 41
0.5
 42
0.5
 50
0
  0
INSERT
  2
-001-SUG-AR06
  8
_0-4_4
 10
5695.2904332757953
 20
3008.5812514983772
 41
0.5
 42
0.5
 50
0
  0
INSERT
  2
-001-SUG-AR06
  8
_0-4_4
 10
5791.1627483962238
 20
3184.6784469609001
 41
0.5
 42
0.5
 50
0
  0
INSERT
  2
-001-SUG-AR06
  8
_0-4_4
 10
1149.0062167966839
 20
1943.4914097606422
 41
1
 42
1
 50
0
  0
INSERT
  2
-001-SUG-AR06
  8
_0-4_4
 10
1149.0062167966839
 20
1943.4914097606422
 41
0.5
 42
0.5
 50
0
  0
INSERT
  2
-001-SUG-AR06
  8
_0-4_4
 10
1245.2339016762558
 20
1900.9942142981192
 41
0.5
 42
0.5
 50
0
  0
INSERT
  2
-001-SUG-AR06
  8
_0-4_4
 10
1341.1062167966838
 20
2077.0914097606433
 41
0.5
 42
0.5
 50
0
  0
INSERT
  2
-001-SUG-AR06
  8
_0-4_4
 10
2733.1178368187998
 20
1938.7494385758403
 41
1
 42
1
 50
0
  0
INSERT
  2
-001-SUG-AR06
  8
_0-4_4
 10
2733.1178368187998
 20
1938.7494385758403
 41
0.5
 42
0.5
 50
0
  0
INSERT
  2
-001-SUG-AR06
  8
_0-4_4
 10
2829.3455216983721
 20
1896.2522431133173
 41
0.5
 42
0.5
 50
0
  0
INSERT
  2
-001-SUG-AR06
  8
_0-4_4
 10
2925.2178368188011
 20
2072.3494385758404
 41
0.5
 42
0.5
 50
0
  0
INSERT
  2
-001-SUG-AR06
  8
_0-4_4
 10
1115.2677127486008
 20
2525.5150695139441
 41
1
 42
1
 50
0
  0
INSERT
  2
-001-SUG-AR06
  8
_0-4_4
 10
1115.2677127486008
 20
2525.5150695139441
 41
0.5
 42
0.5
 50
0
  0
INSERT
  2
-001-SUG-AR06
  8
_0-4_4
 10
1211.4953976281718
 20
2483.0178740514202
 41
0.5
 42
0.5
 50
0
  0
INSERT
  2
-001-SUG-AR06
  8
_0-4_4
 10
1307.3677127486008
 20
2659.1150695139431
 41
0.5
 42
0.5
 50
0
  0
INSERT
  2
-001-SUG-AR06
  8
_0-4_4
 10
1114.8758166241309
 20
2524.3397892439953
 41
1
 42
1
 50
0
  0
INSERT
  2
-001-SUG-AR06
  8
_0-4_4
 10
1114.8758166241309
 20
2524.3397892439953
 41
0.5
 42
0.5
 50
0
  0
INSERT
  2
-001-SUG-AR06
  8
_0-4_4
 10
1211.1035015037028
 20
2481.8425937814723
 41
0.5
 42
0.5
 50
0
  0
INSERT
  2
-001-SUG-AR06
  8
_0-4_4
 10
1306.9758166241318
 20
2657.9397892439952
 41
0.5
 42
0.5
 50
0
  0
INSERT
  2
-001-SUG-AR06
  8
_0-4_4
 10
1912.623909927373
 20
2521.2923457390393
 41
1
 42
1
 50
0
  0
INSERT
  2
-001-SUG-AR06
  8
_0-4_4
 10
1912.623909927373
 20
2521.2923457390393
 41
0.5
 42
0.5
 50
0
  0
INSERT
  2
-001-SUG-AR06
  8
_0-4_4
 10
2008.8515948069439
 20
2478.7951502765163
 41
0.5
 42
0.5
 50
0
  0
INSERT
  2
-001-SUG-AR06
  8
_0-4_4
 10
2104.7239099273729
 20
2654.8923457390383
 41
0.5
 42
0.5
 50
0
  0
INSERT
  2
-001-SUG-AR06
  8
_0-4_4
 10
2558.2014898594348
 20
1995.1911212822552
 41
1
 42
1
 50
0
  0
INSERT
  2
-001-SUG-AR06
  8
_0-4_4
 10
2558.2014898594348
 20
1995.1911212822552
 41
0.5
 42
0.5
 50
0
  0
INSERT
  2
-001-SUG-AR06
  8
_0-4_4
 10
2654.4291747390062
 20
1952.6939258197322
 41
0.5
 42
0.5
 50
0
  0
INSERT
  2
-001-SUG-AR06
  8
_0-4_4
 10
2750.3014898594352
 20
2128.7911212822551
 41
0.5
 42
0.5
 50
0
  0
INSERT
  2
-001-SUG-AR06
  8
_0-4_4
 10
4142.3131098815502
 20
1990.449150097452
 41
1
 42
1
 50
0
  0
INSERT
  2
-001-SUG-AR06
  8
_0-4_4
 10
4142.3131098815502
 20
1990.449150097452
 41
0.5
 42
0.5
 50
0
  0
INSERT
  2
-001-SUG-AR06
  8
_0-4_4
 10
4238.5407947611211
 20
1947.9519546349291
 41
0.5
 42
0.5
 50
0
  0
INSERT
  2
-001-SUG-AR06
  8
_0-4_4
 10
4334.4131098815496
 20
2124.0491500974522
 41
0.5
 42
0.5
 50
0
  0
INSERT
  2
-001-SUG-AR06
  8
_0-4_4
 10
2528.1504951953061
 20
2577.0422693497571
 41
1
 42
1
 50
0
  0
INSERT
  2
-001-SUG-AR06
  8
_0-4_4
 10
2528.1504951953061
 20
2577.0422693497571
 41
0.5
 42
0.5
 50
0
  0
INSERT
  2
-001-SUG-AR06
  8
_0-4_4
 10
2624.3781800748779
 20
2534.5450738872341
 41
0.5
 42
0.5
 50
0
  0
INSERT
  2
-001-SUG-AR06
  8
_0-4_4
 10
2720.250495195306
 20
2710.642269349757
 41
0.5
 42
0.5
 50
0
  0
CIRCLE
  8
_0-2_2
  6
CONTINUOUS
 62
    6
 10
183.1237475599049
 20
369.10936782271932
 40
23.5
  0
ARC
  8
_0-2_2
  6
CONTINUOUS
 62
    2
 10
183.1237475599049
 20
343.60936782271932
 40
50
 50
66.138551098916295
 51
113.8614489010837
  0
ARC
  8
_0-2_2
  6
CONTINUOUS
 62
    2
 10
208.6237475599049
 20
369.10936782271932
 40
50
 50
156.13855109891921
 51
203.86144890108076
  0
ARC
  8
_0-2_2
  6
CONTINUOUS
 62
    2
 10
183.1237475599049
 20
394.60936782271932
 40
50
 50
246.13855109891625
 51
293.86144890108363
  0
ARC
  8
_0-2_2
  6
CONTINUOUS
 62
    2
 10
157.62374755990487
 20
369.10936782271932
 40
50
 50
336.13855109891921
 51
23.861448901080866
  0
LINE
  8
_0-4_4
  6
CONTINUOUS
 62
    4
 10
218.1237475599049
 20
272.21415826023087
 11
218.1237475599049
 21
254.7141582602305
  0
LINE
  8
_0-4_4
  6
CONTINUOUS
 62
    4
 10
214.1237475599049
 20
250.7141582602305
 11
152.12374755990487
 21
250.7141582602305
  0
LINE
  8
_0-9_T
  6
CENTER2_17
 62
    5
 10
183.1237475599049
 20
291.18070973046127
 11
183.1237475599049
 21
243.13679305083471
  0
ARC
  8
_0-4_4
  6
CONTINUOUS
 62
    4
 10
214.1237475599049
 20
254.7141582602305
 40
4
 50
270
 51
0
  0
LINE
  8
_0-4_4
  6
CONTINUOUS
 62
    4
 10
148.12374755990487
 20
272.21415826023087
 11
148.12374755990487
 21
254.7141582602305
  0
ARC
  8
_0-4_4
  6
CONTINUOUS
 62
    4
 10
152.12374755990487
 20
254.7141582602305
 40
4
 50
180
 51
270
  0
LINE
  8
_0-4_4
  6
CONTINUOUS
 62
    4
 10
191.6237475599049
 20
283.21415826023099
 11
191.6237475599049
 21
274.7141582602307
  0
LINE
  8
_0-4_4
  6
CONTINUOUS
 62
    4
 10
190.6237475599049
 20
283.21415826023099
 11
190.6237475599049
 21
274.7141582602307
  0
LINE
  8
_0-4_4
  6
CONTINUOUS
 62
    4
 10
175.6237475599049
 20
283.21415826023099
 11
175.6237475599049
 21
274.71415826023087
  0
LINE
  8
_0-4_4
  6
CONTINUOUS
 62
    4
 10
174.6237475599049
 20
283.21415826023099
 11
174.6237475599049
 21
274.71415826023087
  0
LINE
  8
_0-4_4
  6
CONTINUOUS
 62
    4
 10
191.6237475599049
 20
274.7141582602307
 11
174.6237475599049
 21
274.71415826023087
  0
LINE
  8
_0-6_6
  6
CONTINUOUS
 62
    6
 10
452.59550354180908
 20
514.90936782271922
 11
416.09550354180908
 21
514.90936782271922
  0
LINE
  8
_0-6_6
  6
CONTINUOUS
 62
    6
 10
416.09550354180908
 20
407.30936782271942
 11
452.59550354180908
 21
407.30936782271942
  0
LINE
  8
_0-6_6
  6
CONTINUOUS
 62
    6
 10
452.09550354180908
 20
407.80936782271942
 11
416.59550354180908
 21
407.80936782271942
  0
LINE
  8
_0-6_6
  6
CONTINUOUS
 62
    6
 10
416.59550354180908
 20
407.80936782271942
 11
416.59550354180908
 21
514.40936782271922
  0
LINE
  8
_0-6_6
  6
CONTINUOUS
 62
    6
 10
416.59550354180908
 20
514.40936782271922
 11
452.09550354180908
 21
514.40936782271922
  0
LINE
  8
_0-4_4
  6
CONTINUOUS
 62
    4
 10
179.6237475599049
 20
391.8415036660578
 11
179.6237475599049
 21
346.37723197938061
  0
LINE
  8
_0-4_4
  6
CONTINUOUS
 62
    4
 10
186.6237475599049
 20
391.8415036660578
 11
186.6237475599049
 21
346.37723197938061
  0
CIRCLE
  8
_0-4_4
  6
CONTINUOUS
 62
    4
 10
183.1237475599049
 20
369.10936782271932
 40
23
  0
ARC
  8
_0-4_4
  6
CONTINUOUS
 62
    4
 10
393.83551018810329
 20
369.10936782271932
 40
96
 50
168.59153311566871
 51
191.4084668843312
  0
ARC
  8
_0-4_4
  6
CONTINUOUS
 62
    4
 10
304.63349227370861
 20
351.10936782271932
 40
5
 50
191.40846688433118
 51
254.95388368049447
  0
ARC
  8
_0-4_4
  6
CONTINUOUS
 62
    4
 10
304.63349227370861
 20
387.10936782271932
 40
5
 50
127.47954264686672
 51
168.59153311566871
  0
ARC
  8
_0-4_4
  6
CONTINUOUS
 62
    4
 10
475.09550354180897
 20
354.60936782271932
 40
1
 50
270
 51
0
  0
ARC
  8
_0-4_4
  6
CONTINUOUS
 62
    4
 10
466.59550354180897
 20
342.10936782271932
 40
1
 50
270
 51
0
  0
ARC
  8
_0-4_4
  6
CONTINUOUS
 62
    4
 10
415.59550354180908
 20
342.10936782271932
 40
1
 50
180
 51
270
  0
ARC
  8
_0-4_4
  6
CONTINUOUS
 62
    4
 10
407.09550354180908
 20
354.60936782271932
 40
1
 50
180
 51
270
  0
ARC
  8
_0-4_4
  6
CONTINUOUS
 62
    4
 10
475.09550354180897
 20
434.10936782271932
 40
1
 50
0
 51
90
  0
ARC
  8
_0-4_4
  6
CONTINUOUS
 62
    4
 10
475.09550354180897
 20
443.10936782271921
 40
1
 50
270
 51
0
  0
ARC
  8
_0-4_4
  6
CONTINUOUS
 62
    4
 10
407.09550354180908
 20
434.10936782271932
 40
1
 50
90
 51
180
  0
ARC
  8
_0-4_4
  6
CONTINUOUS
 62
    4
 10
407.09550354180908
 20
443.10936782271921
 40
1
 50
180
 51
270
  0
ARC
  8
_0-4_4
  6
CONTINUOUS
 62
    4
 10
475.09550354180897
 20
512.10936782271938
 40
1
 50
0
 51
90
  0
ARC
  8
_0-4_4
  6
CONTINUOUS
 62
    4
 10
466.59550354180897
 20
520.60936782271938
 40
1
 50
0
 51
90
  0
ARC
  8
_0-4_4
  6
CONTINUOUS
 62
    4
 10
407.09550354180908
 20
512.10936782271938
 40
1
 50
90
 51
180
  0
ARC
  8
_0-4_4
  6
CONTINUOUS
 62
    4
 10
415.59550354180908
 20
520.60936782271938
 40
1
 50
90
 51
180
  0
LINE
  8
_0-4_4
  6
CONTINUOUS
 62
    4
 10
450.39550354180881
 20
467.10936782271932
 11
452.09550354180908
 21
467.10936782271932
  0
LINE
  8
_0-4_4
  6
CONTINUOUS
 62
    4
 10
450.39550354180881
 20
455.10936782271921
 11
452.09550354180908
 21
455.10936782271921
  0
LINE
  8
_0-4_4
  6
CONTINUOUS
 62
    4
 10
455.09550354180897
 20
465.60936782271932
 11
455.09550354180897
 21
456.60936782271932
  0
LINE
  8
_0-4_4
  6
CONTINUOUS
 62
    4
 10
416.09550354180908
 20
515.10936782271938
 11
416.09550354180908
 21
407.10936782271932
  0
LINE
  8
_0-4_4
  6
CONTINUOUS
 62
    4
 10
416.09550354180908
 20
407.10936782271932
 11
453.09550354180908
 21
407.10936782271932
  0
LINE
  8
_0-4_4
  6
CONTINUOUS
 62
    4
 10
471.59550354180897
 20
433.10936782271932
 11
471.59550354180897
 21
358.10936782271932
  0
LINE
  8
_0-4_4
  6
CONTINUOUS
 62
    4
 10
467.59550354180897
 20
516.60936782271938
 11
467.59550354180897
 21
520.60936782271938
  0
LINE
  8
_0-4_4
  6
CONTINUOUS
 62
    4
 10
471.09550354180897
 20
513.10936782271938
 11
475.09550354180897
 21
513.10936782271938
  0
ARC
  8
_0-4_4
  6
CONTINUOUS
 62
    4
 10
471.09550354180897
 20
516.60936782271938
 40
3.5
 50
180
 51
270
  0
LINE
  8
_0-4_4
  6
CONTINUOUS
 62
    4
 10
474.59550354180908
 20
433.10936782271932
 11
474.59550354180908
 21
381.10936782271932
  0
LINE
  8
_0-4_4
  6
CONTINUOUS
 62
    4
 10
416.09550354180908
 20
515.10936782271938
 11
453.09550354180908
 21
515.10936782271938
  0
LINE
  8
_0-4_4
  6
CONTINUOUS
 62
    4
 10
411.09550354180908
 20
435.10936782271932
 11
407.09550354180908
 21
435.10936782271932
  0
LINE
  8
_0-4_4
  6
CONTINUOUS
 62
    4
 10
411.09550354180908
 20
442.10936782271932
 11
407.09550354180908
 21
442.10936782271932
  0
ARC
  8
_0-4_4
  6
CONTINUOUS
 62
    4
 10
411.09550354180908
 20
438.60936782271921
 40
3.5
 50
270
 51
90
  0
LINE
  8
_0-4_4
  6
CONTINUOUS
 62
    4
 10
414.19550354180899
 20
521.60936782271938
 11
467.99550354180866
 21
521.60936782271938
  0
LINE
  8
_0-4_4
  6
CONTINUOUS
 62
    4
 10
433.59550354180908
 20
523.10936782271938
 11
433.59550354180908
 21
521.60936782271938
  0
LINE
  8
_0-4_4
  6
CONTINUOUS
 62
    4
 10
448.59550354180908
 20
523.10936782271938
 11
433.59550354180908
 21
523.10936782271938
  0
LINE
  8
_0-4_4
  6
CONTINUOUS
 62
    4
 10
448.59550354180908
 20
521.60936782271938
 11
448.59550354180908
 21
523.10936782271938
  0
LINE
  8
_0-4_4
  6
CONTINUOUS
 62
    4
 10
476.09550354180897
 20
512.10936782271938
 11
476.09550354180897
 21
381.10936782271932
  0
LINE
  8
_0-4_4
  6
CONTINUOUS
 62
    4
 10
477.59550354180908
 20
491.60936782271932
 11
476.09550354180897
 21
491.60936782271932
  0
LINE
  8
_0-4_4
  6
CONTINUOUS
 62
    4
 10
477.59550354180908
 20
476.60936782271932
 11
477.59550354180908
 21
491.60936782271932
  0
LINE
  8
_0-4_4
  6
CONTINUOUS
 62
    4
 10
476.09550354180897
 20
476.60936782271932
 11
477.59550354180908
 21
476.60936782271932
  0
LINE
  8
_0-4_4
  6
CONTINUOUS
 62
    4
 10
477.59550354180908
 20
386.60936782271932
 11
476.09550354180897
 21
386.60936782271932
  0
LINE
  8
_0-4_4
  6
CONTINUOUS
 62
    4
 10
477.59550354180908
 20
381.10936782271932
 11
477.59550354180908
 21
386.60936782271932
  0
LINE
  8
_0-4_4
  6
CONTINUOUS
 62
    4
 10
416.09550354180908
 20
341.10936782271932
 11
466.09550354180908
 21
341.10936782271932
  0
LINE
  8
_0-4_4
  6
CONTINUOUS
 62
    4
 10
433.59550354180908
 20
339.60936782271932
 11
433.59550354180908
 21
341.10936782271932
  0
LINE
  8
_0-4_4
  6
CONTINUOUS
 62
    4
 10
448.59550354180908
 20
339.60936782271932
 11
433.59550354180908
 21
339.60936782271932
  0
LINE
  8
_0-4_4
  6
CONTINUOUS
 62
    4
 10
448.59550354180908
 20
341.10936782271932
 11
448.59550354180908
 21
339.60936782271932
  0
LINE
  8
_0-4_4
  6
CONTINUOUS
 62
    4
 10
406.09550354180908
 20
512.10936782271938
 11
406.09550354180908
 21
354.60936782271932
  0
LINE
  8
_0-4_4
  6
CONTINUOUS
 62
    4
 10
404.59550354180908
 20
371.60936782271932
 11
406.09550354180908
 21
371.60936782271932
  0
LINE
  8
_0-4_4
  6
CONTINUOUS
 62
    4
 10
404.59550354180908
 20
386.60936782271932
 11
404.59550354180908
 21
371.60936782271932
  0
LINE
  8
_0-4_4
  6
CONTINUOUS
 62
    4
 10
406.09550354180908
 20
386.60936782271932
 11
404.59550354180908
 21
386.60936782271932
  0
LINE
  8
_0-4_4
  6
CONTINUOUS
 62
    4
 10
404.59550354180908
 20
476.60936782271932
 11
406.09550354180908
 21
476.60936782271932
  0
LINE
  8
_0-4_4
  6
CONTINUOUS
 62
    4
 10
404.59550354180908
 20
491.60936782271932
 11
404.59550354180908
 21
476.60936782271932
  0
LINE
  8
_0-4_4
  6
CONTINUOUS
 62
    4
 10
406.09550354180908
 20
491.60936782271932
 11
404.59550354180908
 21
491.60936782271932
  0
LINE
  8
_0-4_4
  6
CONTINUOUS
 62
    4
 10
471.59550354180897
 20
358.10936782271932
 11
476.09550354180897
 21
358.10936782271932
  0
LINE
  8
_0-4_4
  6
CONTINUOUS
 62
    4
 10
471.09550354180897
 20
353.60936782271932
 11
475.09550354180897
 21
353.60936782271932
  0
LINE
  8
_0-4_4
  6
CONTINUOUS
 62
    4
 10
467.59550354180897
 20
350.10936782271932
 11
467.59550354180897
 21
342.10936782271932
  0
LINE
  8
_0-4_4
  6
CONTINUOUS
 62
    4
 10
414.59550354180908
 20
350.10936782271932
 11
414.59550354180908
 21
342.10936782271932
  0
LINE
  8
_0-4_4
  6
CONTINUOUS
 62
    4
 10
411.09550354180908
 20
353.60936782271932
 11
407.09550354180908
 21
353.60936782271932
  0
ARC
  8
_0-4_4
  6
CONTINUOUS
 62
    4
 10
411.09550354180908
 20
350.10936782271932
 40
3.5
 50
0
 51
90
  0
ARC
  8
_0-4_4
  6
CONTINUOUS
 62
    4
 10
471.09550354180897
 20
350.10936782271932
 40
3.5
 50
90
 51
180
  0
LINE
  8
_0-4_4
  6
CONTINUOUS
 62
    4
 10
471.09550354180897
 20
435.10936782271932
 11
475.09550354180897
 21
435.10936782271932
  0
LINE
  8
_0-4_4
  6
CONTINUOUS
 62
    4
 10
471.09550354180897
 20
442.10936782271932
 11
475.09550354180897
 21
442.10936782271932
  0
ARC
  8
_0-4_4
  6
CONTINUOUS
 62
    4
 10
471.09550354180897
 20
438.60936782271921
 40
3.5
 50
90
 51
270
  0
ARC
  8
_0-4_4
  6
CONTINUOUS
 62
    4
 10
416.09550354180908
 20
351.10936782271932
 40
10
 50
259.04721580110572
 51
270
  0
LINE
  8
_0-4_4
  6
CONTINUOUS
 62
    4
 10
414.59550354180908
 20
516.60936782271938
 11
414.59550354180908
 21
520.60936782271938
  0
LINE
  8
_0-4_4
  6
CONTINUOUS
 62
    4
 10
411.09550354180908
 20
513.10936782271938
 11
407.09550354180908
 21
513.10936782271938
  0
ARC
  8
_0-4_4
  6
CONTINUOUS
 62
    4
 10
411.09550354180908
 20
516.60936782271938
 40
3.5
 50
270
 51
0
  0
LINE
  8
_0-4_4
  6
CONTINUOUS
 62
    4
 10
471.59550354180897
 20
433.10936782271932
 11
476.09550354180897
 21
433.10936782271932
  0
ARC
  8
_0-4_4
  6
CONTINUOUS
 62
    4
 10
87.950819988157832
 20
387.10936782271932
 40
5
 50
11.408466884331281
 51
48.7308994715994
  0
ARC
  8
_0-4_4
  6
CONTINUOUS
 62
    4
 10
87.950819988157832
 20
351.10936782271932
 40
5
 50
311.2691005284006
 51
348.59153311566871
  0
ARC
  8
_0-4_4
  6
CONTINUOUS
 62
    4
 10
-1.2511979262368413
 20
369.10936782271932
 40
96
 50
348.59153311566871
 51
11.40846688433129
  0
ARC
  8
_0-4_4
  6
CONTINUOUS
 62
    4
 10
342.33551018810419
 20
512.10936782271938
 40
1
 50
0
 51
90
  0
ARC
  8
_0-4_4
  6
CONTINUOUS
 62
    4
 10
342.33551018810419
 20
434.10936782271932
 40
1
 50
0
 51
90
  0
ARC
  8
_0-4_4
  6
CONTINUOUS
 62
    4
 10
342.33551018810419
 20
443.10936782271921
 40
1
 50
270
 51
0
  0
ARC
  8
_0-4_4
  6
CONTINUOUS
 62
    4
 10
342.33551018810419
 20
354.60936782271932
 40
1
 50
270
 51
0
  0
LINE
  8
_0-4_4
  6
CONTINUOUS
 62
    4
 10
343.33551018810419
 20
516.60936782271938
 11
343.33551018810419
 21
346.10936782271932
  0
LINE
  8
_0-4_4
  6
CONTINUOUS
 62
    4
 10
319.33551018810419
 20
370.60936782271932
 11
319.33551018810419
 21
387.60936782271932
  0
LINE
  8
_0-4_4
  6
CONTINUOUS
 62
    4
 10
310.79551018810429
 20
476.60936782271932
 11
310.79551018810429
 21
491.60936782271932
  0
LINE
  8
_0-4_4
  6
CONTINUOUS
 62
    4
 10
309.9355101881041
 20
476.60936782271932
 11
309.9355101881041
 21
491.60936782271932
  0
LINE
  8
_0-4_4
  6
CONTINUOUS
 62
    4
 10
309.33551018810419
 20
492.60936782271921
 11
319.33551018810419
 21
492.60936782271921
  0
LINE
  8
_0-4_4
  6
CONTINUOUS
 62
    4
 10
309.9355101881041
 20
491.60936782271932
 11
319.33551018810419
 21
491.60936782271932
  0
LINE
  8
_0-4_4
  6
CONTINUOUS
 62
    4
 10
309.33551018810419
 20
475.60936782271932
 11
319.33551018810419
 21
475.60936782271932
  0
LINE
  8
_0-4_4
  6
CONTINUOUS
 62
    4
 10
309.9355101881041
 20
476.60936782271932
 11
319.33551018810419
 21
476.60936782271932
  0
LINE
  8
_0-4_4
  6
CONTINUOUS
 62
    4
 10
310.69551018810387
 20
371.60936782271932
 11
310.69551018810387
 21
386.60936782271932
  0
LINE
  8
_0-4_4
  6
CONTINUOUS
 62
    4
 10
309.33551018810419
 20
387.60936782271932
 11
309.33551018810419
 21
475.60936782271932
  0
LINE
  8
_0-4_4
  6
CONTINUOUS
 62
    4
 10
309.83551018810419
 20
371.60936782271932
 11
309.83551018810419
 21
386.60936782271932
  0
LINE
  8
_0-4_4
  6
CONTINUOUS
 62
    4
 10
309.33551018810419
 20
387.60936782271932
 11
319.33551018810419
 21
387.60936782271932
  0
LINE
  8
_0-4_4
  6
CONTINUOUS
 62
    4
 10
309.33551018810419
 20
370.60936782271932
 11
319.33551018810419
 21
370.60936782271932
  0
LINE
  8
_0-4_4
  6
CONTINUOUS
 62
    4
 10
309.83551018810419
 20
371.60936782271932
 11
319.33551018810419
 21
371.60936782271932
  0
LINE
  8
_0-4_4
  6
CONTINUOUS
 62
    4
 10
309.83551018810419
 20
386.60936782271932
 11
319.33551018810419
 21
386.60936782271932
  0
LINE
  8
_0-4_4
  6
CONTINUOUS
 62
    4
 10
319.33551018810419
 20
475.60936782271932
 11
319.33551018810419
 21
492.60936782271921
  0
LINE
  8
_0-4_4
  6
CONTINUOUS
 62
    4
 10
320.33551018810419
 20
513.10936782271938
 11
320.33551018810419
 21
513.50936782271901
  0
LINE
  8
_0-4_4
  6
CONTINUOUS
 62
    4
 10
320.33551018810419
 20
435.10936782271932
 11
320.33551018810419
 21
442.10936782271932
  0
LINE
  8
_0-4_4
  6
CONTINUOUS
 62
    4
 10
342.33551018810419
 20
353.60936782271932
 11
320.33551018810419
 21
353.60936782271932
  0
LINE
  8
_0-4_4
  6
CONTINUOUS
 62
    4
 10
342.33551018810419
 20
435.10936782271932
 11
320.33551018810419
 21
435.10936782271932
  0
LINE
  8
_0-4_4
  6
CONTINUOUS
 62
    4
 10
342.33551018810419
 20
442.10936782271932
 11
320.33551018810419
 21
442.10936782271932
  0
LINE
  8
_0-4_4
  6
CONTINUOUS
 62
    4
 10
342.33551018810419
 20
513.10936782271938
 11
320.33551018810419
 21
513.10936782271938
  0
LINE
  8
_0-4_4
  6
CONTINUOUS
 62
    4
 10
320.33551018810419
 20
353.20936782271917
 11
320.33551018810419
 21
353.60936782271932
  0
ARC
  8
_0-4_4
  6
CONTINUOUS
 62
    4
 10
338.33551018810419
 20
346.10936782271932
 40
5
 50
270
 51
0
  0
LINE
  8
_0-4_4
  6
CONTINUOUS
 62
    4
 10
338.33551018810419
 20
341.10936782271932
 11
321.61729981742229
 21
341.10936782271932
  0
ARC
  8
_0-4_4
  6
CONTINUOUS
 62
    4
 10
338.33551018810419
 20
516.60936782271938
 40
5
 50
0
 51
90
  0
LINE
  8
_0-4_4
  6
CONTINUOUS
 62
    4
 10
321.77200186120706
 20
521.60936782271938
 11
338.33551018810419
 21
521.60936782271938
  0
ARC
  8
_0-4_4
  6
CONTINUOUS
 62
    4
 10
56.748802073763613
 20
386.10936782271932
 40
3
 50
0
 51
90
  0
LINE
  8
_0-4_4
  6
CONTINUOUS
 62
    4
 10
53.248802073763613
 20
430.60936782271921
 11
53.248802073763613
 21
389.10936782271932
  0
LINE
  8
_0-4_4
  6
CONTINUOUS
 62
    4
 10
53.248802073763613
 20
389.10936782271932
 11
56.748802073763613
 21
389.10936782271932
  0
LINE
  8
_0-4_4
  6
CONTINUOUS
 62
    4
 10
59.748802073763613
 20
381.10936782271932
 11
59.748802073763613
 21
386.10936782271932
  0
LINE
  8
_0-4_4
  6
CONTINUOUS
 62
    4
 10
62.448802073763886
 20
357.60936782271932
 11
62.448802073763886
 21
430.60936782271921
  0
LINE
  8
_0-4_4
  6
CONTINUOUS
 62
    4
 10
49.248802073763613
 20
430.60936782271921
 11
62.448802073763886
 21
430.60936782271921
  0
LINE
  8
_0-4_4
  6
CONTINUOUS
 62
    4
 10
58.548802073763795
 20
357.60936782271932
 11
62.448802073763886
 21
357.60936782271932
  0
LINE
  8
_0-4_4
  6
CONTINUOUS
 62
    4
 10
70.812310400660294
 20
521.60936782271938
 11
54.248802073763613
 21
521.60936782271938
  0
ARC
  8
_0-4_4
  6
CONTINUOUS
 62
    4
 10
54.248802073763613
 20
516.60936782271938
 40
5
 50
90
 51
180
  0
LINE
  8
_0-4_4
  6
CONTINUOUS
 62
    4
 10
54.248802073763613
 20
341.10936782271932
 11
70.967012444444094
 21
341.10936782271932
  0
ARC
  8
_0-4_4
  6
CONTINUOUS
 62
    4
 10
54.248802073763613
 20
346.10936782271932
 40
5
 50
180
 51
270
  0
LINE
  8
_0-4_4
  6
CONTINUOUS
 62
    4
 10
72.248802073763613
 20
353.20936782271917
 11
72.248802073763613
 21
353.60936782271932
  0
LINE
  8
_0-4_4
  6
CONTINUOUS
 62
    4
 10
49.248802073763613
 20
513.10936782271938
 11
72.248802073763613
 21
513.10936782271938
  0
LINE
  8
_0-4_4
  6
CONTINUOUS
 62
    4
 10
49.248802073763613
 20
442.10936782271932
 11
72.248802073763613
 21
442.10936782271932
  0
LINE
  8
_0-4_4
  6
CONTINUOUS
 62
    4
 10
49.248802073763613
 20
435.10936782271932
 11
72.248802073763613
 21
435.10936782271932
  0
LINE
  8
_0-4_4
  6
CONTINUOUS
 62
    4
 10
49.248802073763613
 20
353.60936782271932
 11
72.248802073763613
 21
353.60936782271932
  0
LINE
  8
_0-4_4
  6
CONTINUOUS
 62
    4
 10
72.248802073763613
 20
435.10936782271932
 11
72.248802073763613
 21
442.10936782271932
  0
LINE
  8
_0-4_4
  6
CONTINUOUS
 62
    4
 10
72.248802073763613
 20
513.10936782271938
 11
72.248802073763613
 21
513.50936782271947
  0
LINE
  8
_0-4_4
  6
CONTINUOUS
 62
    4
 10
73.248802073763613
 20
475.60936782271932
 11
73.248802073763613
 21
492.60936782271921
  0
LINE
  8
_0-4_4
  6
CONTINUOUS
 62
    4
 10
81.748802073763613
 20
386.60936782271932
 11
73.248802073763613
 21
386.60936782271932
  0
LINE
  8
_0-4_4
  6
CONTINUOUS
 62
    4
 10
81.748802073763613
 20
371.60936782271932
 11
73.248802073763613
 21
371.60936782271932
  0
LINE
  8
_0-4_4
  6
CONTINUOUS
 62
    4
 10
81.748802073763613
 20
370.60936782271932
 11
73.248802073763613
 21
370.60936782271932
  0
LINE
  8
_0-4_4
  6
CONTINUOUS
 62
    4
 10
81.748802073763613
 20
387.60936782271932
 11
73.248802073763613
 21
387.60936782271932
  0
LINE
  8
_0-4_4
  6
CONTINUOUS
 62
    4
 10
81.748802073763613
 20
476.60936782271932
 11
73.248802073763613
 21
476.60936782271932
  0
LINE
  8
_0-4_4
  6
CONTINUOUS
 62
    4
 10
81.748802073763613
 20
475.60936782271932
 11
73.248802073763613
 21
475.60936782271932
  0
LINE
  8
_0-4_4
  6
CONTINUOUS
 62
    4
 10
81.748802073763613
 20
491.60936782271932
 11
73.248802073763613
 21
491.60936782271932
  0
LINE
  8
_0-4_4
  6
CONTINUOUS
 62
    4
 10
81.748802073763613
 20
492.60936782271921
 11
73.248802073763613
 21
492.60936782271921
  0
LINE
  8
_0-4_4
  6
CONTINUOUS
 62
    4
 10
73.248802073763613
 20
370.60936782271932
 11
73.248802073763613
 21
387.60936782271932
  0
LINE
  8
_0-4_4
  6
CONTINUOUS
 62
    4
 10
49.248802073763613
 20
516.60936782271938
 11
49.248802073763613
 21
346.10936782271932
  0
LINE
  8
_0-2_2
  6
CONTINUOUS
 62
    2
 10
165.62374755990487
 20
408.0254476058189
 11
165.62374755990487
 21
396.19328803961969
  0
LINE
  8
_0-2_2
  6
CONTINUOUS
 62
    2
 10
163.62374755990487
 20
408.0254476058189
 11
163.62374755990487
 21
396.19328803961969
  0
ARC
  8
_0-2_2
  6
CONTINUOUS
 62
    2
 10
164.62374755990487
 20
402.10936782271932
 40
5
 50
258.46304096719416
 51
281.53695903280578
  0
LINE
  8
_0-2_2
  6
CONTINUOUS
 62
    2
 10
163.62374755990487
 20
400.71038833715301
 11
164.02374755990502
 21
400.71038833715301
  0
LINE
  8
_0-2_2
  6
CONTINUOUS
 62
    2
 10
164.02374755990502
 20
404.71038833715301
 11
165.22374755990478
 21
404.71038833715301
  0
LINE
  8
_0-2_2
  6
CONTINUOUS
 62
    2
 10
164.02374755990502
 20
404.71038833715301
 11
164.02374755990502
 21
400.71038833715301
  0
LINE
  8
_0-2_2
  6
CONTINUOUS
 62
    2
 10
165.22374755990478
 20
404.71038833715301
 11
165.22374755990478
 21
400.71038833715301
  0
LINE
  8
_0-2_2
  6
CONTINUOUS
 62
    2
 10
165.22374755990478
 20
400.71038833715301
 11
165.62374755990487
 21
400.71038833715301
  0
LINE
  8
_0-4_4
  6
H4
 62
    7
 10
59.948802073763432
 20
381.10936782271932
 11
59.948802073763432
 21
358.10936782271932
  0
LINE
  8
_0-4_4
  6
CONTINUOUS
 62
    4
 10
58.548802073763795
 20
358.10936782271932
 11
62.248802073763159
 21
358.10936782271932
  0
LINE
  8
_0-4_4
  6
CONTINUOUS
 62
    4
 10
62.248802073763159
 20
358.10936782271932
 11
62.248802073763159
 21
381.10936782271932
  0
LINE
  8
_0-4_4
  6
CONTINUOUS
 62
    4
 10
62.248802073763159
 20
381.10936782271932
 11
59.948802073763432
 21
381.10936782271932
  0
LINE
  8
_0-4_4
  6
CONTINUOUS
 62
    4
 10
476.09550354180897
 20
358.10936782271932
 11
476.09550354180897
 21
354.60936782271932
  0
LINE
  8
_0-4_4
  6
CONTINUOUS
 62
    4
 10
180.6237475599049
 20
296.21415826023087
 11
185.6237475599049
 21
296.21415826023087
  0
LINE
  8
_0-4_4
  6
CONTINUOUS
 62
    4
 10
179.6237475599049
 20
295.21415826023087
 11
179.6237475599049
 21
292.71415826023087
  0
LINE
  8
_0-4_4
  6
CONTINUOUS
 62
    4
 10
186.6237475599049
 20
295.21415826023087
 11
186.6237475599049
 21
292.71415826023087
  0
LINE
  8
_0-4_4
  6
CONTINUOUS
 62
    6
 10
180.6237475599049
 20
292.71415826023087
 11
185.6237475599049
 21
292.71415826023087
  0
ARC
  8
_0-4_4
  6
CONTINUOUS
 62
    4
 10
180.6237475599049
 20
295.21415826023087
 40
1
 50
90
 51
180
  0
ARC
  8
_0-4_4
  6
CONTINUOUS
 62
    4
 10
185.6237475599049
 20
295.21415826023087
 40
1
 50
0
 51
90
  0
CIRCLE
  8
_0-2_2
  6
CONTINUOUS
 62
    2
 10
411.09550354180908
 20
438.60936782271921
 40
3.25
  0
CIRCLE
  8
_0-2_2
  6
CONTINUOUS
 62
    2
 10
411.09550354180908
 20
350.10936782271932
 40
3.25
  0
CIRCLE
  8
_0-2_2
  6
CONTINUOUS
 62
    2
 10
471.09550354180897
 20
350.10936782271932
 40
3.25
  0
CIRCLE
  8
_0-2_2
  6
CONTINUOUS
 62
    2
 10
471.09550354180897
 20
438.60936782271921
 40
3.25
  0
CIRCLE
  8
_0-2_2
  6
CONTINUOUS
 62
    2
 10
471.09550354180897
 20
516.60936782271938
 40
3.25
  0
CIRCLE
  8
_0-2_2
  6
CONTINUOUS
 62
    2
 10
411.09550354180908
 20
516.60936782271938
 40
3.25
  0
ARC
  8
_0-4_4
  6
PHANTOM2_28
 62
    6
 10
139.75625864211298
 20
405.23549027368313
 40
1
 50
138.19086137647
 51
220.0000000000035
  0
ARC
  8
_0-4_4
  6
PHANTOM2_28
 62
    6
 10
131.08596604035563
 20
414.0126188038102
 40
1
 50
220.0000000000035
 51
300.53767779198432
  0
ARC
  8
_0-4_4
  6
PHANTOM2_28
 62
    6
 10
132.33660263927993
 20
415.63361579773289
 40
3
 50
139.08472028739689
 51
220.0000000000035
  0
LINE
  8
_0-4_4
  6
PHANTOM2_28
 62
    6
 10
145.26450160731139
 20
412.8941820009008
 11
139.01088896322142
 21
405.9021416381824
  0
LINE
  8
_0-4_4
  6
PHANTOM2_28
 62
    6
 10
138.99021419899407
 20
404.59270266399648
 11
142.77023802546671
 21
400.0878456887059
  0
ARC
  8
_0-4_4
  6
PHANTOM2_28
 62
    6
 10
175.41029624366669
 20
378.30190114014681
 40
60
 50
119.7649140286744
 51
139.08472028739689
  0
LINE
  8
_0-4_4
  6
PHANTOM2_28
 62
    6
 10
140.6129264215736
 20
418.47182723325767
 11
131.59407090218554
 21
413.1513235876472
  0
LINE
  8
_0-4_4
  6
PHANTOM2_28
 62
    6
 10
130.31992159723666
 20
413.36983119412378
 11
130.03846930992302
 21
413.70525296867339
  0
TEXT
  8
_0-a_W
 62
    7
 10
611.47523563522498
 20
49.627596141034189
 40
8
 41
1
 50
0
  1
テンキー・ロック
  0
TEXT
  8
_0-a_W
 62
    7
 10
611.47523563522498
 20
31.627596141034189
 40
8
 41
1
 50
0
  1
EL127*B-**
  0
LINE
  8
_0-a_W
  6
CONTINUOUS
 62
    7
 10
808.07523563522534
 20
26.627596141033962
 11
807.47523563522498
 21
26.627596141033962
  0
LINE
  8
_0-a_W
  6
CONTINUOUS
 62
    7
 10
808.07523563522534
 20
56.627596141033962
 11
807.47523563522498
 21
56.627596141033962
  0
ARC
  8
_0-a_W
  6
CONTINUOUS
 62
    7
 10
650.8283095096125
 20
68.82759614103378
 40
0.1999999999998181
 50
180
 51
0
  0
LINE
  8
_0-a_W
  6
CONTINUOUS
 62
    7
 10
651.02830950961231
 20
68.82759614103378
 11
650.62830950961268
 21
68.82759614103378
  0
LINE
  8
_0-a_W
  6
CONTINUOUS
 62
    2
 10
807.47523563522498
 20
561.02759614103411
 11
807.47523563522498
 21
26.627596141033962
  0
LINE
  8
_0-a_W
  6
CONTINUOUS
 62
    2
 10
807.47523563522498
 20
26.627596141033962
 11
45.475235635224976
 21
26.627596141033962
  0
LINE
  8
_0-a_W
  6
CONTINUOUS
 62
    2
 10
45.475235635224976
 20
26.227596141034098
 11
45.475235635224976
 21
561.02759614103411
  0
LINE
  8
_0-a_W
  6
CONTINUOUS
 62
    2
 10
45.075235635224885
 20
560.62759614103425
 11
807.87523563522461
 21
560.62759614103425
  0
LINE
  8
_0-a_W
  6
CONTINUOUS
 62
    6
 10
125.47523563522498
 20
560.62759614103379
 11
125.47523563522498
 21
566.62759614103402
  0
LINE
  8
_0-a_W
  6
CONTINUOUS
 62
    6
 10
205.47523563522498
 20
560.62759614103379
 11
205.47523563522498
 21
566.62759614103402
  0
LINE
  8
_0-a_W
  6
CONTINUOUS
 62
    6
 10
285.47523563522498
 20
560.62759614103379
 11
285.47523563522498
 21
566.62759614103402
  0
LINE
  8
_0-a_W
  6
CONTINUOUS
 62
    6
 10
365.47523563522498
 20
560.62759614103379
 11
365.47523563522498
 21
566.62759614103402
  0
LINE
  8
_0-a_W
  6
CONTINUOUS
 62
    6
 10
445.47523563522486
 20
560.62759614103379
 11
445.47523563522486
 21
566.62759614103402
  0
LINE
  8
_0-a_W
  6
CONTINUOUS
 62
    6
 10
525.47523563522486
 20
560.62759614103379
 11
525.47523563522486
 21
566.62759614103402
  0
LINE
  8
_0-a_W
  6
CONTINUOUS
 62
    6
 10
605.47523563522486
 20
560.62759614103379
 11
605.47523563522486
 21
566.62759614103402
  0
LINE
  8
_0-a_W
  6
CONTINUOUS
 62
    6
 10
685.47523563522498
 20
560.62759614103379
 11
685.47523563522498
 21
566.62759614103402
  0
LINE
  8
_0-a_W
  6
CONTINUOUS
 62
    6
 10
765.47523563522498
 20
560.62759614103379
 11
765.47523563522498
 21
566.62759614103402
  0
LINE
  8
_0-a_W
  6
CONTINUOUS
 62
    6
 10
39.475235635224976
 20
480.62759614103419
 11
45.475235635224976
 21
480.62759614103391
  0
LINE
  8
_0-a_W
  6
CONTINUOUS
 62
    6
 10
39.475235635224976
 20
400.62759614103419
 11
45.475235635224976
 21
400.62759614103402
  0
LINE
  8
_0-a_W
  6
CONTINUOUS
 62
    6
 10
39.475235635224976
 20
320.62759614103419
 11
45.475235635224976
 21
320.62759614103419
  0
LINE
  8
_0-a_W
  6
CONTINUOUS
 62
    6
 10
39.475235635224976
 20
240.62759614103399
 11
45.475235635224976
 21
240.62759614103399
  0
LINE
  8
_0-a_W
  6
CONTINUOUS
 62
    6
 10
39.475235635224976
 20
160.62759614103391
 11
45.475235635224976
 21
160.62759614103391
  0
LINE
  8
_0-a_W
  6
CONTINUOUS
 62
    6
 10
39.475235635224976
 20
80.627596141033962
 11
45.475235635224976
 21
80.627596141033962
  0
TEXT
  8
_0-a_W
 62
    7
 10
85.254058518714714
 20
561.87197939126099
 40
4
 41
1
 50
0
  1
1
  0
TEXT
  8
_0-a_W
 62
    7
 10
165.25405851871469
 20
561.87197939126099
 40
4
 41
1
 50
0
  1
2
  0
TEXT
  8
_0-a_W
 62
    7
 10
245.25405851871469
 20
561.87197939126099
 40
4
 41
1
 50
0
  1
3
  0
TEXT
  8
_0-a_W
 62
    7
 10
325.25405851871466
 20
561.87197939126099
 40
4
 41
1
 50
0
  1
4
  0
TEXT
  8
_0-a_W
 62
    7
 10
406.25405851871466
 20
561.87197939126099
 40
4
 41
1
 50
0
  1
5
  0
TEXT
  8
_0-a_W
 62
    7
 10
485.25405851871466
 20
561.87197939126099
 40
4
 41
1
 50
0
  1
6
  0
TEXT
  8
_0-a_W
 62
    7
 10
565.25405851871471
 20
561.87197939126099
 40
4
 41
1
 50
0
  1
7
  0
TEXT
  8
_0-a_W
 62
    7
 10
645.25405851871471
 20
561.87197939126099
 40
4
 41
1
 50
0
  1
8
  0
TEXT
  8
_0-a_W
 62
    7
 10
725.25405851871471
 20
561.87197939126099
 40
4
 41
1
 50
0
  1
9
  0
LINE
  8
_0-a_W
  6
CONTINUOUS
 62
    2
 10
807.87523563522461
 20
561.02759614103411
 11
807.87523563522461
 21
26.227596141034098
  0
LINE
  8
_0-a_W
  6
CONTINUOUS
 62
    2
 10
807.87523563522461
 20
26.227596141034098
 11
45.075235635224885
 21
26.227596141034098
  0
LINE
  8
_0-a_W
  6
CONTINUOUS
 62
    7
 10
39.075235635224885
 20
26.227596141034098
 11
6.749718296185506
 21
26.227596141034098
  0
LINE
  8
_0-a_W
  6
CONTINUOUS
 62
    7
 10
39.075235635224885
 20
26.227596141034098
 11
39.075235635224885
 21
-1.5191212995360388
  0
LINE
  8
_0-a_W
  6
CONTINUOUS
 62
    7
 10
807.87523563522461
 20
567.02759614103411
 11
834.25022293608913
 21
567.02759614103411
  0
LINE
  8
_0-a_W
  6
CONTINUOUS
 62
    7
 10
807.87523563522461
 20
567.02759614103411
 11
807.87523563522461
 21
595.51907889886411
  0
TEXT
  8
_0-a_W
 62
    7
 10
41.254058518714714
 20
520.87197939126088
 40
4
 41
1
 50
0
  1
A
  0
TEXT
  8
_0-a_W
 62
    7
 10
41.254058518714714
 20
440.87197939126088
 40
4
 41
1
 50
0
  1
B
  0
TEXT
  8
_0-a_W
 62
    7
 10
41.254058518714714
 20
360.87197939126088
 40
4
 41
1
 50
0
  1
C
  0
TEXT
  8
_0-a_W
 62
    7
 10
41.254058518714714
 20
280.87197939126122
 40
4
 41
1
 50
0
  1
D
  0
TEXT
  8
_0-a_W
 62
    7
 10
41.254058518714714
 20
200.87197939126111
 40
4
 41
1
 50
0
  1
E
  0
TEXT
  8
_0-a_W
 62
    7
 10
41.254058518714714
 20
120.87197939126116
 40
4
 41
1
 50
0
  1
F
  0
LINE
  8
_0-a_W
  6
CONTINUOUS
 62
    2
 10
45.075235635224885
 20
26.227596141034098
 11
45.075235635224885
 21
561.02759614103411
  0
LINE
  8
_0-a_W
  6
CONTINUOUS
 62
    2
 10
45.075235635224885
 20
561.02759614103411
 11
807.87523563522461
 21
561.02759614103411
  0
TEXT
  8
_0-a_W
 62
    7
 10
81.114547436760745
 20
559.74957625254501
 40
3
 41
1
 50
180
  1
WAKU1-A3.DWG
  0
INSERT
  2
-000-SUG-AR01
  8
_0-8_S
 10
165.39936875375028
 20
487.25848931433489
 41
1
 42
1
 50
167.28766691126856
  0
LINE
  8
_0-9_T
  6
CENTER2_17
 62
    5
 10
441.09550354180908
 20
538.3849184347589
 11
441.09550354180908
 21
316.45221704365338
  0
LINE
  8
_0-9_T
  6
CENTER2_17
 62
    5
 10
424.40362988774029
 20
369.10936782271932
 11
515.81881723403035
 21
369.10936782271932
  0
ARC
  8
_0-4_4
  6
PHANTOM2_28
 62
    6
 10
483.09821981830987
 20
417.61053201709473
 40
1
 50
59.462322208015642
 51
139.99999999999648
  0
ARC
  8
_0-4_4
  6
PHANTOM2_28
 62
    6
 10
479.70011917329367
 20
413.5608333653999
 40
1
 50
139.9999999999965
 51
221.80913862353
  0
ARC
  8
_0-4_4
  6
PHANTOM2_28
 62
    6
 10
484.46299245960046
 20
405.2354902736829
 40
1
 50
319.99999999999659
 51
41.809138623529968
  0
ARC
  8
_0-4_4
  6
PHANTOM2_28
 62
    6
 10
493.13328506135787
 20
414.0126188038102
 40
1
 50
239.46232220801568
 51
319.99999999999659
  0
ARC
  8
_0-4_4
  6
PHANTOM2_28
 62
    6
 10
491.88264846243356
 20
415.63361579773289
 40
3
 50
319.99999999999659
 51
40.91527971260308
  0
ARC
  8
_0-4_4
  6
PHANTOM2_28
 62
    6
 10
478.09384848629156
 20
427.20379277209059
 40
3
 50
59.084720287397737
 51
139.99999999999642
  0
LINE
  8
_0-4_4
  6
PHANTOM2_28
 62
    6
 10
478.9340747301747
 20
414.20362097508649
 11
482.33217537519101
 21
418.25331962678132
  0
LINE
  8
_0-4_4
  6
PHANTOM2_28
 62
    6
 10
478.95474949440171
 20
412.8941820009008
 11
485.20836213849208
 21
405.90214163818217
  0
LINE
  8
_0-4_4
  6
PHANTOM2_28
 62
    6
 10
485.22903690271949
 20
404.59270266399648
 11
471.59550354180897
 21
388.34489030137837
  0
ARC
  8
_0-4_4
  6
PHANTOM2_28
 62
    6
 10
448.80895485804677
 20
378.30190114014681
 40
60
 50
40.91527971260308
 51
59.084720287397737
  0
LINE
  8
_0-4_4
  6
PHANTOM2_28
 62
    6
 10
483.60632468013989
 20
418.4718272332579
 11
492.62518019952836
 21
413.1513235876472
  0
LINE
  8
_0-4_4
  6
PHANTOM2_28
 62
    6
 10
493.89932950447678
 20
413.36983119412378
 11
494.18078179179048
 21
413.70525296867339
  0
LINE
  8
_0-4_4
  6
PHANTOM2_28
 62
    6
 10
471.59550354180897
 20
424.12653831916799
 11
475.7957151569347
 21
429.13215560115032
  0
LINE
  8
_0-9_T
  6
CENTER2_17
 62
    5
 10
430.36617397452056
 20
356.32265076477609
 11
489.12672373788956
 21
426.3507470480817
  0
LINE
  8
_0-8_S
  6
CONTINUOUS
 62
    6
 10
148.12374755990487
 20
251.7141582602305
 11
148.12374755990487
 21
228.2275961410341
  0
LINE
  8
_0-8_S
  6
CONTINUOUS
 62
    6
 10
218.1237475599049
 20
251.7141582602305
 11
218.1237475599049
 21
228.2275961410341
  0
LINE
  8
_0-8_S
  6
CONTINUOUS
 62
    6
 10
148.12374755990487
 20
230.2275961410341
 11
218.1237475599049
 21
230.2275961410341
  0
INSERT
  2
-000-SUG-AR01
  8
_0-8_S
 10
148.12374755990487
 20
230.2275961410341
 41
1
 42
1
 50
0
  0
INSERT
  2
-000-SUG-AR01
  8
_0-8_S
 10
218.1237475599049
 20
230.2275961410341
 41
1
 42
1
 50
180
  0
TEXT
  8
_0-8_S
 62
    7
 10
178.26660470276198
 20
232.027596141034
 40
6
 41
1
 50
0
  1
70
  0
LINE
  8
_0-8_S
  6
CONTINUOUS
 62
    6
 10
145.62374755990487
 20
344.14855838914099
 11
145.62374755990487
 21
306.2275961410341
  0
LINE
  8
_0-8_S
  6
CONTINUOUS
 62
    6
 10
220.6237475599049
 20
344.14855838914099
 11
220.6237475599049
 21
306.2275961410341
  0
LINE
  8
_0-8_S
  6
CONTINUOUS
 62
    6
 10
145.62374755990487
 20
308.2275961410341
 11
220.6237475599049
 21
308.2275961410341
  0
INSERT
  2
-000-SUG-AR01
  8
_0-8_S
 10
145.62374755990487
 20
308.2275961410341
 41
1
 42
1
 50
0
  0
INSERT
  2
-000-SUG-AR01
  8
_0-8_S
 10
220.6237475599049
 20
308.2275961410341
 41
1
 42
1
 50
180
  0
TEXT
  8
_0-8_S
 62
    7
 10
178.26660470276198
 20
310.02759614103411
 40
6
 41
1
 50
0
  1
75
  0
ARC
  8
_0-2_2
  6
CONTINUOUS
 62
    2
 10
316.55426018810419
 20
438.60936782271921
 40
5.7812499999999201
 50
325.79454206189274
 51
34.205457938107173
  0
LINE
  8
_0-2_2
  6
CONTINUOUS
 62
    2
 10
321.33551018810419
 20
435.35936782271932
 11
321.33551018810419
 21
441.85936782271932
  0
LINE
  8
_0-2_2
  6
CONTINUOUS
 62
    2
 10
320.33551018810419
 20
441.85936782271932
 11
321.33551018810419
 21
441.85936782271932
  0
LINE
  8
_0-2_2
  6
CONTINUOUS
 62
    2
 10
320.33551018810419
 20
435.35936782271932
 11
321.33551018810419
 21
435.35936782271932
  0
LINE
  8
_0-2_2
  6
CONTINUOUS
 62
    2
 10
72.248802073763613
 20
435.35936782271932
 11
71.248802073763613
 21
435.35936782271932
  0
LINE
  8
_0-2_2
  6
CONTINUOUS
 62
    2
 10
72.248802073763613
 20
441.85936782271932
 11
71.248802073763613
 21
441.85936782271932
  0
LINE
  8
_0-2_2
  6
CONTINUOUS
 62
    2
 10
71.248802073763613
 20
435.35936782271932
 11
71.248802073763613
 21
441.85936782271932
  0
ARC
  8
_0-2_2
  6
CONTINUOUS
 62
    2
 10
76.030052073763613
 20
438.60936782271921
 40
5.7812499999999201
 50
145.7945420618928
 51
214.20545793810717
  0
LINE
  8
_0-4_4
  6
CONTINUOUS
 62
    4
 10
453.09550354180908
 20
515.10936782271938
 11
453.09550354180908
 21
407.10936782271932
  0
LINE
  8
_0-4_4
  6
CONTINUOUS
 62
    4
 10
452.09550354180908
 20
465.60936782271932
 11
455.09550354180897
 21
465.60936782271932
  0
LINE
  8
_0-4_4
  6
CONTINUOUS
 62
    4
 10
452.09550354180908
 20
456.60936782271932
 11
455.09550354180897
 21
456.60936782271932
  0
LINE
  8
_0-4_4
  6
CONTINUOUS
 62
    4
 10
452.09550354180908
 20
467.10936782271932
 11
452.09550354180908
 21
465.60936782271932
  0
LINE
  8
_0-4_4
  6
CONTINUOUS
 62
    4
 10
452.09550354180908
 20
456.60936782271932
 11
452.09550354180908
 21
455.10936782271921
  0
LINE
  8
_0-6_6
  6
CONTINUOUS
 62
    6
 10
452.59550354180908
 20
514.90936782271922
 11
452.59550354180908
 21
468.10936782271932
  0
LINE
  8
_0-6_6
  6
CONTINUOUS
 62
    6
 10
452.09550354180908
 20
514.40936782271922
 11
452.09550354180908
 21
468.10936782271932
  0
LINE
  8
_0-6_6
  6
CONTINUOUS
 62
    6
 10
450.39550354180881
 20
468.10936782271932
 11
452.59550354180908
 21
468.10936782271932
  0
LINE
  8
_0-6_6
  6
CONTINUOUS
 62
    6
 10
450.39550354180881
 20
454.10936782271932
 11
452.59550354180908
 21
454.10936782271932
  0
LINE
  8
_0-6_6
  6
CONTINUOUS
 62
    6
 10
450.39550354180881
 20
466.85936782271932
 11
453.09550354180908
 21
466.85936782271932
  0
LINE
  8
_0-6_6
  6
CONTINUOUS
 62
    6
 10
450.39550354180881
 20
455.35936782271932
 11
453.09550354180908
 21
455.35936782271932
  0
LINE
  8
_0-6_6
  6
CONTINUOUS
 62
    6
 10
452.59550354180908
 20
454.10936782271932
 11
452.59550354180908
 21
407.30936782271942
  0
LINE
  8
_0-6_6
  6
CONTINUOUS
 62
    6
 10
452.09550354180908
 20
454.10936782271932
 11
452.09550354180908
 21
407.80936782271942
  0
LINE
  8
_0-4_4
  6
CONTINUOUS
 62
    4
 10
453.09550354180908
 20
465.60936782271932
 11
453.09550354180908
 21
456.60936782271932
  0
LINE
  8
_0-6_6
  6
CONTINUOUS
 62
    6
 10
454.09550354180897
 20
465.10936782271932
 11
454.09550354180897
 21
457.10936782271932
  0
LINE
  8
_0-6_6
  6
CONTINUOUS
 62
    6
 10
450.39550354180881
 20
465.10936782271932
 11
454.09550354180897
 21
465.10936782271932
  0
LINE
  8
_0-6_6
  6
CONTINUOUS
 62
    6
 10
450.39550354180881
 20
457.10936782271932
 11
454.09550354180897
 21
457.10936782271932
  0
LINE
  8
_0-6_6
  6
CONTINUOUS
 62
    6
 10
453.09550354180908
 20
465.10936782271932
 11
453.09550354180908
 21
466.85936782271932
  0
LINE
  8
_0-6_6
  6
CONTINUOUS
 62
    6
 10
453.09550354180908
 20
457.10936782271932
 11
453.09550354180908
 21
455.35936782271932
  0
LINE
  8
_0-6_6
  6
CONTINUOUS
 62
    6
 10
451.59550354180897
 20
466.85936782271932
 11
451.59550354180897
 21
455.35936782271932
  0
CIRCLE
  8
_0-6_6
  6
CONTINUOUS
 62
    6
 10
450.36513016063498
 20
510.10936782271932
 40
1.25
  0
CIRCLE
  8
_0-6_6
  6
CONTINUOUS
 62
    6
 10
449.59550354180908
 20
412.10936782271932
 40
1.25
  0
LINE
  8
_0-6_6
  6
CONTINUOUS
 62
    6
 10
450.39550354180881
 20
468.10936782271932
 11
450.39550354180881
 21
454.10936782271932
  0
LINE
  8
_0-1_1
  6
CONTINUOUS
 62
    1
 10
474.59550354180908
 20
433.10936782271932
 11
474.59550354180908
 21
381.10936782271932
  0
TEXT
  8
_0-8_S
 62
    7
 10
577.80419614024584
 20
547.41274522169715
 40
10
 41
1
 50
0
  1
取付穴参考図
  0
LINE
  8
_0-8_S
  6
CONTINUOUS
 62
    6
 10
494.88264846243356
 20
418.63361579773289
 11
494.88264846243356
 21
459.62759614103442
  0
LINE
  8
_0-8_S
  6
CONTINUOUS
 62
    6
 10
476.09550354180897
 20
457.62759614103442
 11
494.88264846243356
 21
457.62759614103442
  0
INSERT
  2
-000-SUG-AR01
  8
_0-8_S
 10
476.09550354180897
 20
457.62759614103442
 41
1
 42
1
 50
0
  0
INSERT
  2
-000-SUG-AR01
  8
_0-8_S
 10
494.88264846243356
 20
457.62759614103442
 41
1
 42
1
 50
180
  0
TEXT
  8
_0-8_S
 62
    7
 10
482.13676570789949
 20
459.42759614103431
 40
6
 41
1
 50
0
  1
(19.0)
  0
LINE
  8
_0-4_4
  6
PHANTOM2_28
 62
    6
 10
145.2851763715388
 20
414.20362097508649
 11
141.88707572652248
 21
418.25331962678132
  0
ARC
  8
_0-4_4
  6
PHANTOM2_28
 62
    6
 10
141.12103128340357
 20
417.6105320170949
 40
1
 50
40.000000000003425
 51
120.53767779198431
  0
ARC
  8
_0-4_4
  6
PHANTOM2_28
 62
    6
 10
144.51913192841977
 20
413.5608333653999
 40
1
 50
318.19086137647002
 51
40.000000000003403
  0
CIRCLE
  8
_0-4_4
  6
H3
 62
    6
 10
421.62121804152088
 20
509.16363946130372
 40
2.5
  0
LINE
  8
_0-8_S
  6
CONTINUOUS
 62
    6
 10
419.34746198781096
 20
510.62436275396561
 11
388.8141257966962
 21
528.31536294589989
  0
LINE
  8
_0-8_S
  6
CONTINUOUS
 62
    6
 10
388.8141257966962
 20
528.31536294589989
 11
360.8793814902541
 21
528.31536294589989
  0
INSERT
  2
-000-SUG-AR01
  8
_0-8_S
 10
419.34746198781096
 20
510.62436275396561
 41
1
 42
1
 50
149.9120182715356
  0
TEXT
  8
_0-8_S
 62
    7
 10
360.8793814902541
 20
530.11536294589996
 40
6
 41
0.5
 50
0
  1
リセットSW
  0
INSERT
  2
-001-SUG-AR06
  8
_0-4_4
 10
3947.742896524031
 20
2459.442528414359
 41
1
 42
1
 50
0
  0
INSERT
  2
-001-SUG-AR06
  8
_0-4_4
 10
3947.742896524031
 20
2459.442528414359
 41
0.5
 42
0.5
 50
0
  0
INSERT
  2
-001-SUG-AR06
  8
_0-4_4
 10
4043.970581403602
 20
2416.9453329518374
 41
0.5
 42
0.5
 50
0
  0
INSERT
  2
-001-SUG-AR06
  8
_0-4_4
 10
4139.84289652403
 20
2593.0425284143603
 41
0.5
 42
0.5
 50
0
  0
INSERT
  2
-001-SUG-AR06
  8
_0-4_4
 10
5531.8545165461464
 20
2454.700557229557
 41
1
 42
1
 50
0
  0
INSERT
  2
-001-SUG-AR06
  8
_0-4_4
 10
5531.8545165461464
 20
2454.700557229557
 41
0.5
 42
0.5
 50
0
  0
INSERT
  2
-001-SUG-AR06
  8
_0-4_4
 10
5628.0822014257183
 20
2412.203361767034
 41
0.5
 42
0.5
 50
0
  0
INSERT
  2
-001-SUG-AR06
  8
_0-4_4
 10
5723.9545165461468
 20
2588.3005572295569
 41
0.5
 42
0.5
 50
0
  0
LINE
  8
_0-9_T
  6
CENTER2_17
 62
    5
 10
210.72374755990478
 20
369.10936782271932
 11
155.52374755990502
 21
369.10936782271932
  0
ARC
  8
_0-2_2
  6
CONTINUOUS
 62
    2
 10
208.6237475599049
 20
296.71415826023122
 40
6
 50
330.00000000000063
 51
337.38013505196875
  0
LINE
  8
_0-2_2
  6
CONTINUOUS
 62
    2
 10
152.42759513719818
 20
293.71415826023099
 11
179.6237475599049
 21
293.71415826023099
  0
ARC
  8
_0-2_2
  6
CONTINUOUS
 62
    2
 10
157.62374755990487
 20
296.71415826023122
 40
6
 50
202.61986494803131
 51
209.99999999999929
  0
LINE
  8
_0-2_2
  6
CONTINUOUS
 62
    2
 10
214.62374755990629
 20
294.71415826023122
 11
215.68040620881939
 21
294.71415826023122
  0
LINE
  8
_0-2_2
  6
CONTINUOUS
 62
    2
 10
150.56708891099049
 20
294.71415826023122
 11
151.6237475599026
 21
294.71415826023122
  0
ARC
  8
_0-2_2
  6
CONTINUOUS
 62
    2
 10
150.56708891099049
 20
290.7141582602311
 40
4
 50
90
 51
150.00000000000068
  0
ARC
  8
_0-2_2
  6
CONTINUOUS
 62
    2
 10
215.68040620881939
 20
290.7141582602311
 40
4
 50
29.999999999999325
 51
90
  0
ARC
  8
_0-2_2
  6
CONTINUOUS
 62
    2
 10
151.6237475599026
 20
294.21415826023122
 40
0.5
 50
22.619864948032145
 51
90
  0
ARC
  8
_0-2_2
  6
CONTINUOUS
 62
    2
 10
214.62374755990629
 20
294.21415826023122
 40
0.5
 50
90
 51
157.38013505196781
  0
LINE
  8
_0-2_2
  6
H7
 62
    7
 10
303.3355101881038
 20
429.60936782271932
 11
303.3355101881038
 21
522.87012382574972
  0
ARC
  8
_0-2_2
  6
H7
 62
    7
 10
297.33551018810368
 20
429.60936782271932
 40
6
 50
295.32325567117459
 51
0
  0
ARC
  8
_0-2_2
  6
H4
 62
    7
 10
307.33551018810329
 20
338.34740125097068
 40
4
 50
180
 51
259.99999999999397
  0
LINE
  8
_0-2_2
  6
CONTINUOUS
 62
    2
 10
308.33551018810329
 20
334.10936782271932
 11
306.64091747743566
 21
334.4081702389218
  0
LINE
  8
_0-2_2
  6
C5
 62
    7
 10
158.66786965582412
 20
371.20943040096847
 11
149.62374755990487
 21
371.20943040096847
  0
LINE
  8
_0-2_2
  6
C5
 62
    7
 10
216.62374755990538
 20
371.20943040096881
 11
207.57962546398568
 21
371.20943040096881
  0
LINE
  8
_0-2_2
  6
H2
 62
    7
 10
308.33551018810368
 20
524.10936782271938
 11
304.89057515303449
 21
523.50193282924874
  0
ARC
  8
_0-2_2
  6
CONTINUOUS
 62
    2
 10
163.82374755990469
 20
514.2093678227194
 40
1
 50
90
 51
180
  0
ARC
  8
_0-2_2
  6
CONTINUOUS
 62
    2
 10
202.42374755990508
 20
514.2093678227194
 40
1
 50
0
 51
90
  0
ARC
  8
_0-2_2
  6
CONTINUOUS
 62
    2
 10
202.42374755990508
 20
504.00936782271941
 40
1
 50
270
 51
0
  0
ARC
  8
_0-2_2
  6
CONTINUOUS
 62
    2
 10
163.82374755990469
 20
504.00936782271941
 40
1
 50
180
 51
270
  0
LINE
  8
_0-2_2
  6
CONTINUOUS
 62
    2
 10
203.42374755990508
 20
504.00936782271941
 11
203.42374755990508
 21
514.2093678227194
  0
LINE
  8
_0-2_2
  6
CONTINUOUS
 62
    2
 10
162.82374755990469
 20
504.00936782271941
 11
162.82374755990469
 21
514.2093678227194
  0
LINE
  8
_0-2_2
  6
CONTINUOUS
 62
    2
 10
202.42374755990508
 20
503.0093678227193
 11
163.82374755990469
 21
503.0093678227193
  0
LINE
  8
_0-2_2
  6
CONTINUOUS
 62
    2
 10
202.42374755990508
 20
515.2093678227194
 11
163.82374755990469
 21
515.2093678227194
  0
LINE
  8
_0-2_2
  6
C5
 62
    7
 10
153.4668102773652
 20
520.10936782271892
 11
151.62374755990487
 21
520.10936782271892
  0
LINE
  8
_0-2_2
  6
CONTINUOUS
 62
    2
 10
220.6237475599049
 20
518.10936782271915
 11
220.6237475599049
 21
347.14855838914082
  0
LINE
  8
_0-2_2
  6
CONTINUOUS
 62
    2
 10
145.62374755990487
 20
518.10936782271938
 11
145.62374755990487
 21
347.14855838914082
  0
LINE
  8
_0-9_T
  6
CENTER2_17
 62
    5
 10
144.42575113461027
 20
369.10936782271932
 11
222.06956839365998
 21
369.10936782271932
  0
LINE
  8
_0-2_2
  6
CONTINUOUS
 62
    2
 10
214.6237475599049
 20
524.10936782271892
 11
151.62374755990487
 21
524.10936782271938
  0
LINE
  8
_0-9_T
  6
CENTER2_17
 62
    5
 10
183.1237475599049
 20
466.69641775884941
 11
183.1237475599049
 21
435.7482802891131
  0
ARC
  8
_0-2_2
  6
CONTINUOUS
 62
    2
 10
183.1237475599049
 20
343.60936782271932
 40
50
 50
68.621561100578589
 51
111.3784388994214
  0
ARC
  8
_0-2_2
  6
CONTINUOUS
 62
    2
 10
208.6237475599049
 20
369.10936782271932
 40
50
 50
158.621561100566
 51
201.37843889943403
  0
ARC
  8
_0-2_2
  6
CONTINUOUS
 62
    2
 10
183.1237475599049
 20
394.60936782271932
 40
50
 50
248.62156110057865
 51
291.37843889942144
  0
ARC
  8
_0-2_2
  6
CONTINUOUS
 62
    2
 10
157.62374755990487
 20
369.10936782271932
 40
50
 50
338.62156110056611
 51
21.37843889943397
  0
ARC
  8
_0-2_2
  6
CONTINUOUS
 62
    2
 10
183.1237475599049
 20
414.10936782271932
 40
80
 50
244.80656102532734
 51
295.19343897467263
  0
LINE
  8
_0-2_2
  6
CONTINUOUS
 62
    6
 10
163.22374755990478
 20
447.85936782271932
 11
171.02374755990499
 21
447.85936782271932
  0
ARC
  8
_0-2_2
  6
CONTINUOUS
 62
    6
 10
163.22374755990478
 20
446.15936782271922
 40
1.7
 50
90
 51
180
  0
LINE
  8
_0-2_2
  6
CONTINUOUS
 62
    6
 10
161.52374755990502
 20
446.15936782271922
 11
161.52374755990502
 21
442.05936782271908
  0
ARC
  8
_0-2_2
  6
CONTINUOUS
 62
    6
 10
163.22374755990478
 20
442.05936782271908
 40
1.7
 50
180
 51
270
  0
LINE
  8
_0-2_2
  6
CONTINUOUS
 62
    6
 10
163.22374755990478
 20
440.35936782271932
 11
171.02374755990499
 21
440.35936782271932
  0
ARC
  8
_0-2_2
  6
CONTINUOUS
 62
    6
 10
171.02374755990499
 20
442.05936782271908
 40
1.7
 50
270
 51
0
  0
LINE
  8
_0-2_2
  6
CONTINUOUS
 62
    6
 10
172.72374755990478
 20
446.15936782271922
 11
172.72374755990478
 21
442.05936782271908
  0
ARC
  8
_0-2_2
  6
CONTINUOUS
 62
    6
 10
171.02374755990499
 20
446.15936782271922
 40
1.7
 50
0
 51
90
  0
LINE
  8
_0-2_2
  6
CONTINUOUS
 62
    6
 10
163.22374755990478
 20
461.85936782271909
 11
171.02374755990499
 21
461.85936782271909
  0
ARC
  8
_0-2_2
  6
CONTINUOUS
 62
    6
 10
171.02374755990499
 20
460.15936782271922
 40
1.7
 50
0
 51
90
  0
LINE
  8
_0-2_2
  6
CONTINUOUS
 62
    6
 10
172.72374755990478
 20
460.15936782271922
 11
172.72374755990478
 21
456.05936782271908
  0
LINE
  8
_0-2_2
  6
CONTINUOUS
 62
    6
 10
163.22374755990478
 20
454.35936782271932
 11
171.02374755990499
 21
454.35936782271932
  0
LINE
  8
_0-2_2
  6
CONTINUOUS
 62
    6
 10
161.52374755990502
 20
460.15936782271922
 11
161.52374755990502
 21
456.05936782271908
  0
ARC
  8
_0-2_2
  6
CONTINUOUS
 62
    6
 10
163.22374755990478
 20
456.05936782271908
 40
1.7
 50
180
 51
270
  0
ARC
  8
_0-2_2
  6
CONTINUOUS
 62
    6
 10
163.22374755990478
 20
460.15936782271922
 40
1.7
 50
90
 51
180
  0
ARC
  8
_0-2_2
  6
CONTINUOUS
 62
    6
 10
171.02374755990499
 20
456.05936782271908
 40
1.7
 50
270
 51
0
  0
LINE
  8
_0-2_2
  6
CONTINUOUS
 62
    6
 10
163.22374755990478
 20
475.85936782271898
 11
171.02374755990499
 21
475.85936782271898
  0
ARC
  8
_0-2_2
  6
CONTINUOUS
 62
    6
 10
171.02374755990499
 20
474.15936782271928
 40
1.7
 50
0
 51
90
  0
LINE
  8
_0-2_2
  6
CONTINUOUS
 62
    6
 10
172.72374755990478
 20
474.15936782271928
 11
172.72374755990478
 21
470.05936782271908
  0
LINE
  8
_0-2_2
  6
CONTINUOUS
 62
    6
 10
163.22374755990478
 20
468.35936782271909
 11
171.02374755990499
 21
468.35936782271909
  0
LINE
  8
_0-2_2
  6
CONTINUOUS
 62
    6
 10
161.52374755990502
 20
474.15936782271928
 11
161.52374755990502
 21
470.05936782271908
  0
ARC
  8
_0-2_2
  6
CONTINUOUS
 62
    6
 10
163.22374755990478
 20
470.05936782271908
 40
1.7
 50
180
 51
270
  0
ARC
  8
_0-2_2
  6
CONTINUOUS
 62
    6
 10
163.22374755990478
 20
474.15936782271928
 40
1.7
 50
90
 51
180
  0
ARC
  8
_0-2_2
  6
CONTINUOUS
 62
    6
 10
171.02374755990499
 20
470.05936782271908
 40
1.7
 50
270
 51
0
  0
LINE
  8
_0-2_2
  6
CONTINUOUS
 62
    6
 10
163.22374755990478
 20
489.85936782271909
 11
171.02374755990499
 21
489.85936782271909
  0
ARC
  8
_0-2_2
  6
CONTINUOUS
 62
    6
 10
171.02374755990499
 20
488.15936782271922
 40
1.7
 50
0
 51
90
  0
LINE
  8
_0-2_2
  6
CONTINUOUS
 62
    6
 10
172.72374755990478
 20
488.15936782271922
 11
172.72374755990478
 21
484.05936782271908
  0
LINE
  8
_0-2_2
  6
CONTINUOUS
 62
    6
 10
163.22374755990478
 20
482.35936782271909
 11
171.02374755990499
 21
482.35936782271909
  0
LINE
  8
_0-2_2
  6
CONTINUOUS
 62
    6
 10
161.52374755990502
 20
488.15936782271922
 11
161.52374755990502
 21
484.05936782271908
  0
ARC
  8
_0-2_2
  6
CONTINUOUS
 62
    6
 10
163.22374755990478
 20
484.05936782271908
 40
1.7
 50
180
 51
270
  0
ARC
  8
_0-2_2
  6
CONTINUOUS
 62
    6
 10
163.22374755990478
 20
488.15936782271922
 40
1.7
 50
90
 51
180
  0
ARC
  8
_0-2_2
  6
CONTINUOUS
 62
    6
 10
171.02374755990499
 20
484.05936782271908
 40
1.7
 50
270
 51
0
  0
LINE
  8
_0-2_2
  6
CONTINUOUS
 62
    6
 10
179.22374755990478
 20
447.85936782271932
 11
187.02374755990499
 21
447.85936782271932
  0
ARC
  8
_0-2_2
  6
CONTINUOUS
 62
    6
 10
187.02374755990499
 20
446.15936782271922
 40
1.7
 50
0
 51
90
  0
LINE
  8
_0-2_2
  6
CONTINUOUS
 62
    6
 10
188.72374755990478
 20
446.15936782271922
 11
188.72374755990478
 21
442.05936782271908
  0
LINE
  8
_0-2_2
  6
CONTINUOUS
 62
    6
 10
179.22374755990478
 20
440.35936782271932
 11
187.02374755990499
 21
440.35936782271932
  0
LINE
  8
_0-2_2
  6
CONTINUOUS
 62
    6
 10
177.52374755990499
 20
446.15936782271922
 11
177.52374755990499
 21
442.05936782271908
  0
ARC
  8
_0-2_2
  6
CONTINUOUS
 62
    6
 10
179.22374755990478
 20
442.05936782271908
 40
1.7
 50
180
 51
270
  0
ARC
  8
_0-2_2
  6
CONTINUOUS
 62
    6
 10
179.22374755990478
 20
446.15936782271922
 40
1.7
 50
90
 51
180
  0
ARC
  8
_0-2_2
  6
CONTINUOUS
 62
    6
 10
187.02374755990499
 20
442.05936782271908
 40
1.7
 50
270
 51
0
  0
LINE
  8
_0-2_2
  6
CONTINUOUS
 62
    6
 10
179.22374755990478
 20
461.85936782271909
 11
187.02374755990499
 21
461.85936782271909
  0
ARC
  8
_0-2_2
  6
CONTINUOUS
 62
    6
 10
187.02374755990499
 20
460.15936782271922
 40
1.7
 50
0
 51
90
  0
LINE
  8
_0-2_2
  6
CONTINUOUS
 62
    6
 10
188.72374755990478
 20
460.15936782271922
 11
188.72374755990478
 21
456.05936782271908
  0
LINE
  8
_0-2_2
  6
CONTINUOUS
 62
    6
 10
179.22374755990478
 20
454.35936782271932
 11
187.02374755990499
 21
454.35936782271932
  0
LINE
  8
_0-2_2
  6
CONTINUOUS
 62
    6
 10
177.52374755990499
 20
460.15936782271922
 11
177.52374755990499
 21
456.05936782271908
  0
ARC
  8
_0-2_2
  6
CONTINUOUS
 62
    6
 10
179.22374755990478
 20
456.05936782271908
 40
1.7
 50
180
 51
270
  0
ARC
  8
_0-2_2
  6
CONTINUOUS
 62
    6
 10
179.22374755990478
 20
460.15936782271922
 40
1.7
 50
90
 51
180
  0
ARC
  8
_0-2_2
  6
CONTINUOUS
 62
    6
 10
187.02374755990499
 20
456.05936782271908
 40
1.7
 50
270
 51
0
  0
LINE
  8
_0-2_2
  6
CONTINUOUS
 62
    6
 10
179.22374755990478
 20
475.85936782271898
 11
187.02374755990499
 21
475.85936782271898
  0
ARC
  8
_0-2_2
  6
CONTINUOUS
 62
    6
 10
187.02374755990499
 20
474.15936782271928
 40
1.7
 50
0
 51
90
  0
LINE
  8
_0-2_2
  6
CONTINUOUS
 62
    6
 10
188.72374755990478
 20
474.15936782271928
 11
188.72374755990478
 21
470.05936782271908
  0
LINE
  8
_0-2_2
  6
CONTINUOUS
 62
    6
 10
179.22374755990478
 20
468.35936782271909
 11
187.02374755990499
 21
468.35936782271909
  0
LINE
  8
_0-2_2
  6
CONTINUOUS
 62
    6
 10
177.52374755990499
 20
474.15936782271928
 11
177.52374755990499
 21
470.05936782271908
  0
ARC
  8
_0-2_2
  6
CONTINUOUS
 62
    6
 10
179.22374755990478
 20
470.05936782271908
 40
1.7
 50
180
 51
270
  0
ARC
  8
_0-2_2
  6
CONTINUOUS
 62
    6
 10
179.22374755990478
 20
474.15936782271928
 40
1.7
 50
90
 51
180
  0
ARC
  8
_0-2_2
  6
CONTINUOUS
 62
    6
 10
187.02374755990499
 20
470.05936782271908
 40
1.7
 50
270
 51
0
  0
LINE
  8
_0-2_2
  6
CONTINUOUS
 62
    6
 10
179.22374755990478
 20
489.85936782271909
 11
187.02374755990499
 21
489.85936782271909
  0
ARC
  8
_0-2_2
  6
CONTINUOUS
 62
    6
 10
187.02374755990499
 20
488.15936782271922
 40
1.7
 50
0
 51
90
  0
LINE
  8
_0-2_2
  6
CONTINUOUS
 62
    6
 10
188.72374755990478
 20
488.15936782271922
 11
188.72374755990478
 21
484.05936782271908
  0
LINE
  8
_0-2_2
  6
CONTINUOUS
 62
    6
 10
179.22374755990478
 20
482.35936782271909
 11
187.02374755990499
 21
482.35936782271909
  0
LINE
  8
_0-2_2
  6
CONTINUOUS
 62
    6
 10
177.52374755990499
 20
488.15936782271922
 11
177.52374755990499
 21
484.05936782271908
  0
ARC
  8
_0-2_2
  6
CONTINUOUS
 62
    6
 10
179.22374755990478
 20
484.05936782271908
 40
1.7
 50
180
 51
270
  0
ARC
  8
_0-2_2
  6
CONTINUOUS
 62
    6
 10
179.22374755990478
 20
488.15936782271922
 40
1.7
 50
90
 51
180
  0
ARC
  8
_0-2_2
  6
CONTINUOUS
 62
    6
 10
187.02374755990499
 20
484.05936782271908
 40
1.7
 50
270
 51
0
  0
LINE
  8
_0-2_2
  6
CONTINUOUS
 62
    6
 10
195.22374755990478
 20
447.85936782271932
 11
203.02374755990499
 21
447.85936782271932
  0
ARC
  8
_0-2_2
  6
CONTINUOUS
 62
    6
 10
203.02374755990499
 20
446.15936782271922
 40
1.7
 50
0
 51
90
  0
LINE
  8
_0-2_2
  6
CONTINUOUS
 62
    6
 10
204.72374755990478
 20
446.15936782271922
 11
204.72374755990478
 21
442.05936782271908
  0
LINE
  8
_0-2_2
  6
CONTINUOUS
 62
    6
 10
195.22374755990478
 20
440.35936782271932
 11
203.02374755990499
 21
440.35936782271932
  0
LINE
  8
_0-2_2
  6
CONTINUOUS
 62
    6
 10
193.52374755990499
 20
446.15936782271922
 11
193.52374755990499
 21
442.05936782271908
  0
ARC
  8
_0-2_2
  6
CONTINUOUS
 62
    6
 10
195.22374755990478
 20
442.05936782271908
 40
1.7
 50
180
 51
270
  0
ARC
  8
_0-2_2
  6
CONTINUOUS
 62
    6
 10
195.22374755990478
 20
446.15936782271922
 40
1.7
 50
90
 51
180
  0
ARC
  8
_0-2_2
  6
CONTINUOUS
 62
    6
 10
203.02374755990499
 20
442.05936782271908
 40
1.7
 50
270
 51
0
  0
LINE
  8
_0-2_2
  6
CONTINUOUS
 62
    6
 10
195.22374755990478
 20
461.85936782271909
 11
203.02374755990499
 21
461.85936782271909
  0
ARC
  8
_0-2_2
  6
CONTINUOUS
 62
    6
 10
203.02374755990499
 20
460.15936782271922
 40
1.7
 50
0
 51
90
  0
LINE
  8
_0-2_2
  6
CONTINUOUS
 62
    6
 10
204.72374755990478
 20
460.15936782271922
 11
204.72374755990478
 21
456.05936782271908
  0
LINE
  8
_0-2_2
  6
CONTINUOUS
 62
    6
 10
195.22374755990478
 20
454.35936782271932
 11
203.02374755990499
 21
454.35936782271932
  0
LINE
  8
_0-2_2
  6
CONTINUOUS
 62
    6
 10
193.52374755990499
 20
460.15936782271922
 11
193.52374755990499
 21
456.05936782271908
  0
ARC
  8
_0-2_2
  6
CONTINUOUS
 62
    6
 10
195.22374755990478
 20
456.05936782271908
 40
1.7
 50
180
 51
270
  0
ARC
  8
_0-2_2
  6
CONTINUOUS
 62
    6
 10
195.22374755990478
 20
460.15936782271922
 40
1.7
 50
90
 51
180
  0
ARC
  8
_0-2_2
  6
CONTINUOUS
 62
    6
 10
203.02374755990499
 20
456.05936782271908
 40
1.7
 50
270
 51
0
  0
LINE
  8
_0-2_2
  6
CONTINUOUS
 62
    6
 10
195.22374755990478
 20
475.85936782271898
 11
203.02374755990499
 21
475.85936782271898
  0
ARC
  8
_0-2_2
  6
CONTINUOUS
 62
    6
 10
203.02374755990499
 20
474.15936782271928
 40
1.7
 50
0
 51
90
  0
LINE
  8
_0-2_2
  6
CONTINUOUS
 62
    6
 10
204.72374755990478
 20
474.15936782271928
 11
204.72374755990478
 21
470.05936782271908
  0
LINE
  8
_0-2_2
  6
CONTINUOUS
 62
    6
 10
195.22374755990478
 20
468.35936782271909
 11
203.02374755990499
 21
468.35936782271909
  0
LINE
  8
_0-2_2
  6
CONTINUOUS
 62
    6
 10
193.52374755990499
 20
474.15936782271928
 11
193.52374755990499
 21
470.05936782271908
  0
ARC
  8
_0-2_2
  6
CONTINUOUS
 62
    6
 10
195.22374755990478
 20
470.05936782271908
 40
1.7
 50
180
 51
270
  0
ARC
  8
_0-2_2
  6
CONTINUOUS
 62
    6
 10
195.22374755990478
 20
474.15936782271928
 40
1.7
 50
90
 51
180
  0
ARC
  8
_0-2_2
  6
CONTINUOUS
 62
    6
 10
203.02374755990499
 20
470.05936782271908
 40
1.7
 50
270
 51
0
  0
LINE
  8
_0-2_2
  6
CONTINUOUS
 62
    6
 10
195.22374755990478
 20
489.85936782271909
 11
203.02374755990499
 21
489.85936782271909
  0
ARC
  8
_0-2_2
  6
CONTINUOUS
 62
    6
 10
203.02374755990499
 20
488.15936782271922
 40
1.7
 50
0
 51
90
  0
LINE
  8
_0-2_2
  6
CONTINUOUS
 62
    6
 10
204.72374755990478
 20
488.15936782271922
 11
204.72374755990478
 21
484.05936782271908
  0
LINE
  8
_0-2_2
  6
CONTINUOUS
 62
    6
 10
195.22374755990478
 20
482.35936782271909
 11
203.02374755990499
 21
482.35936782271909
  0
LINE
  8
_0-2_2
  6
CONTINUOUS
 62
    6
 10
193.52374755990499
 20
488.15936782271922
 11
193.52374755990499
 21
484.05936782271908
  0
ARC
  8
_0-2_2
  6
CONTINUOUS
 62
    6
 10
195.22374755990478
 20
484.05936782271908
 40
1.7
 50
180
 51
270
  0
ARC
  8
_0-2_2
  6
CONTINUOUS
 62
    6
 10
195.22374755990478
 20
488.15936782271922
 40
1.7
 50
90
 51
180
  0
ARC
  8
_0-2_2
  6
CONTINUOUS
 62
    6
 10
203.02374755990499
 20
484.05936782271908
 40
1.7
 50
270
 51
0
  0
CIRCLE
  8
_0-2_2
  6
CONTINUOUS
 62
    2
 10
164.62374755990487
 20
402.10936782271932
 40
6
  0
ARC
  8
_0-2_2
  6
CONTINUOUS
 62
    2
 10
151.62374755990487
 20
518.10936782271938
 40
6
 50
90
 51
180
  0
ARC
  8
_0-2_2
  6
CONTINUOUS
 62
    2
 10
214.6237475599049
 20
518.10936782271915
 40
6
 50
0
 51
90
  0
ARC
  8
_0-2_2
  6
CONTINUOUS
 62
    2
 10
214.6237475599049
 20
347.14855838914082
 40
6
 50
295.19343897467263
 51
0.0000000000000254
  0
ARC
  8
_0-2_2
  6
CONTINUOUS
 62
    2
 10
151.62374755990487
 20
347.14855838914082
 40
6
 50
180
 51
244.80656102532728
  0
LINE
  8
_0-2_2
  6
CONTINUOUS
 62
    2
 10
195.22374755990478
 20
447.35936782271932
 11
203.02374755990499
 21
447.35936782271932
  0
ARC
  8
_0-2_2
  6
CONTINUOUS
 62
    2
 10
195.22374755990478
 20
446.15936782271922
 40
1.1999999999999991
 50
90
 51
180
  0
LINE
  8
_0-2_2
  6
CONTINUOUS
 62
    2
 10
194.02374755990499
 20
446.15936782271922
 11
194.02374755990499
 21
442.05936782271908
  0
ARC
  8
_0-2_2
  6
CONTINUOUS
 62
    2
 10
195.22374755990478
 20
442.05936782271908
 40
1.1999999999999991
 50
180
 51
270
  0
LINE
  8
_0-2_2
  6
CONTINUOUS
 62
    2
 10
195.22374755990478
 20
440.85936782271921
 11
203.02374755990499
 21
440.85936782271921
  0
ARC
  8
_0-2_2
  6
CONTINUOUS
 62
    2
 10
203.02374755990499
 20
442.05936782271908
 40
1.1999999999999991
 50
270
 51
0
  0
LINE
  8
_0-2_2
  6
CONTINUOUS
 62
    2
 10
204.22374755990478
 20
446.15936782271922
 11
204.22374755990478
 21
442.05936782271908
  0
ARC
  8
_0-2_2
  6
CONTINUOUS
 62
    2
 10
203.02374755990499
 20
446.15936782271922
 40
1.1999999999999991
 50
0
 51
90
  0
LINE
  8
_0-2_2
  6
CONTINUOUS
 62
    2
 10
194.02374755990499
 20
460.15936782271922
 11
194.02374755990499
 21
456.05936782271908
  0
ARC
  8
_0-2_2
  6
CONTINUOUS
 62
    2
 10
195.22374755990478
 20
460.15936782271922
 40
1.1999999999999991
 50
90
 51
180
  0
LINE
  8
_0-2_2
  6
CONTINUOUS
 62
    2
 10
195.22374755990478
 20
461.35936782271921
 11
203.02374755990499
 21
461.35936782271921
  0
ARC
  8
_0-2_2
  6
CONTINUOUS
 62
    2
 10
203.02374755990499
 20
460.15936782271922
 40
1.1999999999999991
 50
0
 51
90
  0
LINE
  8
_0-2_2
  6
CONTINUOUS
 62
    2
 10
204.22374755990478
 20
460.15936782271922
 11
204.22374755990478
 21
456.05936782271908
  0
ARC
  8
_0-2_2
  6
CONTINUOUS
 62
    2
 10
203.02374755990499
 20
456.05936782271908
 40
1.1999999999999991
 50
270
 51
0
  0
LINE
  8
_0-2_2
  6
CONTINUOUS
 62
    2
 10
195.22374755990478
 20
454.85936782271932
 11
203.02374755990499
 21
454.85936782271932
  0
ARC
  8
_0-2_2
  6
CONTINUOUS
 62
    2
 10
195.22374755990478
 20
456.05936782271908
 40
1.1999999999999991
 50
180
 51
270
  0
LINE
  8
_0-2_2
  6
CONTINUOUS
 62
    2
 10
194.02374755990499
 20
474.15936782271928
 11
194.02374755990499
 21
470.05936782271908
  0
ARC
  8
_0-2_2
  6
CONTINUOUS
 62
    2
 10
195.22374755990478
 20
474.15936782271928
 40
1.1999999999999991
 50
90
 51
180
  0
LINE
  8
_0-2_2
  6
CONTINUOUS
 62
    2
 10
195.22374755990478
 20
475.35936782271932
 11
203.02374755990499
 21
475.35936782271932
  0
ARC
  8
_0-2_2
  6
CONTINUOUS
 62
    2
 10
203.02374755990499
 20
474.15936782271928
 40
1.1999999999999991
 50
0
 51
90
  0
LINE
  8
_0-2_2
  6
CONTINUOUS
 62
    2
 10
204.22374755990478
 20
474.15936782271928
 11
204.22374755990478
 21
470.05936782271908
  0
ARC
  8
_0-2_2
  6
CONTINUOUS
 62
    2
 10
203.02374755990499
 20
470.05936782271908
 40
1.1999999999999991
 50
270
 51
0
  0
LINE
  8
_0-2_2
  6
CONTINUOUS
 62
    2
 10
195.22374755990478
 20
468.85936782271932
 11
203.02374755990499
 21
468.85936782271932
  0
ARC
  8
_0-2_2
  6
CONTINUOUS
 62
    2
 10
195.22374755990478
 20
470.05936782271908
 40
1.1999999999999991
 50
180
 51
270
  0
LINE
  8
_0-2_2
  6
CONTINUOUS
 62
    2
 10
194.02374755990499
 20
488.15936782271922
 11
194.02374755990499
 21
484.05936782271908
  0
ARC
  8
_0-2_2
  6
CONTINUOUS
 62
    2
 10
195.22374755990478
 20
488.15936782271922
 40
1.1999999999999991
 50
90
 51
180
  0
LINE
  8
_0-2_2
  6
CONTINUOUS
 62
    2
 10
195.22374755990478
 20
489.35936782271932
 11
203.02374755990499
 21
489.35936782271932
  0
ARC
  8
_0-2_2
  6
CONTINUOUS
 62
    2
 10
203.02374755990499
 20
488.15936782271922
 40
1.1999999999999991
 50
0
 51
90
  0
LINE
  8
_0-2_2
  6
CONTINUOUS
 62
    2
 10
204.22374755990478
 20
488.15936782271922
 11
204.22374755990478
 21
484.05936782271908
  0
ARC
  8
_0-2_2
  6
CONTINUOUS
 62
    2
 10
203.02374755990499
 20
484.05936782271908
 40
1.1999999999999991
 50
270
 51
0
  0
LINE
  8
_0-2_2
  6
CONTINUOUS
 62
    2
 10
195.22374755990478
 20
482.85936782271932
 11
203.02374755990499
 21
482.85936782271932
  0
ARC
  8
_0-2_2
  6
CONTINUOUS
 62
    2
 10
195.22374755990478
 20
484.05936782271908
 40
1.1999999999999991
 50
180
 51
270
  0
LINE
  8
_0-2_2
  6
CONTINUOUS
 62
    2
 10
178.02374755990499
 20
446.15936782271922
 11
178.02374755990499
 21
442.05936782271908
  0
ARC
  8
_0-2_2
  6
CONTINUOUS
 62
    2
 10
179.22374755990478
 20
446.15936782271922
 40
1.1999999999999991
 50
90
 51
180
  0
LINE
  8
_0-2_2
  6
CONTINUOUS
 62
    2
 10
179.22374755990478
 20
447.35936782271932
 11
187.02374755990499
 21
447.35936782271932
  0
ARC
  8
_0-2_2
  6
CONTINUOUS
 62
    2
 10
187.02374755990499
 20
446.15936782271922
 40
1.1999999999999991
 50
0
 51
90
  0
LINE
  8
_0-2_2
  6
CONTINUOUS
 62
    2
 10
188.22374755990478
 20
446.15936782271922
 11
188.22374755990478
 21
442.05936782271908
  0
ARC
  8
_0-2_2
  6
CONTINUOUS
 62
    2
 10
187.02374755990499
 20
442.05936782271908
 40
1.1999999999999991
 50
270
 51
0
  0
LINE
  8
_0-2_2
  6
CONTINUOUS
 62
    2
 10
179.22374755990478
 20
440.85936782271921
 11
187.02374755990499
 21
440.85936782271921
  0
ARC
  8
_0-2_2
  6
CONTINUOUS
 62
    2
 10
179.22374755990478
 20
442.05936782271908
 40
1.1999999999999991
 50
180
 51
270
  0
LINE
  8
_0-2_2
  6
CONTINUOUS
 62
    2
 10
178.02374755990499
 20
460.15936782271922
 11
178.02374755990499
 21
456.05936782271908
  0
ARC
  8
_0-2_2
  6
CONTINUOUS
 62
    2
 10
179.22374755990478
 20
460.15936782271922
 40
1.1999999999999991
 50
90
 51
180
  0
LINE
  8
_0-2_2
  6
CONTINUOUS
 62
    2
 10
179.22374755990478
 20
461.35936782271921
 11
187.02374755990499
 21
461.35936782271921
  0
ARC
  8
_0-2_2
  6
CONTINUOUS
 62
    2
 10
187.02374755990499
 20
460.15936782271922
 40
1.1999999999999991
 50
0
 51
90
  0
LINE
  8
_0-2_2
  6
CONTINUOUS
 62
    2
 10
188.22374755990478
 20
460.15936782271922
 11
188.22374755990478
 21
456.05936782271908
  0
ARC
  8
_0-2_2
  6
CONTINUOUS
 62
    2
 10
187.02374755990499
 20
456.05936782271908
 40
1.1999999999999991
 50
270
 51
0
  0
LINE
  8
_0-2_2
  6
CONTINUOUS
 62
    2
 10
179.22374755990478
 20
454.85936782271932
 11
187.02374755990499
 21
454.85936782271932
  0
ARC
  8
_0-2_2
  6
CONTINUOUS
 62
    2
 10
179.22374755990478
 20
456.05936782271908
 40
1.1999999999999991
 50
180
 51
270
  0
LINE
  8
_0-2_2
  6
CONTINUOUS
 62
    2
 10
178.02374755990499
 20
474.15936782271928
 11
178.02374755990499
 21
470.05936782271908
  0
ARC
  8
_0-2_2
  6
CONTINUOUS
 62
    2
 10
179.22374755990478
 20
474.15936782271928
 40
1.1999999999999991
 50
90
 51
180
  0
LINE
  8
_0-2_2
  6
CONTINUOUS
 62
    2
 10
179.22374755990478
 20
475.35936782271932
 11
187.02374755990499
 21
475.35936782271932
  0
ARC
  8
_0-2_2
  6
CONTINUOUS
 62
    2
 10
187.02374755990499
 20
474.15936782271928
 40
1.1999999999999991
 50
0
 51
90
  0
LINE
  8
_0-2_2
  6
CONTINUOUS
 62
    2
 10
188.22374755990478
 20
474.15936782271928
 11
188.22374755990478
 21
470.05936782271908
  0
ARC
  8
_0-2_2
  6
CONTINUOUS
 62
    2
 10
187.02374755990499
 20
470.05936782271908
 40
1.1999999999999991
 50
270
 51
0
  0
LINE
  8
_0-2_2
  6
CONTINUOUS
 62
    2
 10
179.22374755990478
 20
468.85936782271932
 11
187.02374755990499
 21
468.85936782271932
  0
ARC
  8
_0-2_2
  6
CONTINUOUS
 62
    2
 10
179.22374755990478
 20
470.05936782271908
 40
1.1999999999999991
 50
180
 51
270
  0
LINE
  8
_0-2_2
  6
CONTINUOUS
 62
    2
 10
178.02374755990499
 20
488.15936782271922
 11
178.02374755990499
 21
484.05936782271908
  0
ARC
  8
_0-2_2
  6
CONTINUOUS
 62
    2
 10
179.22374755990478
 20
488.15936782271922
 40
1.1999999999999991
 50
90
 51
180
  0
LINE
  8
_0-2_2
  6
CONTINUOUS
 62
    2
 10
179.22374755990478
 20
489.35936782271932
 11
187.02374755990499
 21
489.35936782271932
  0
ARC
  8
_0-2_2
  6
CONTINUOUS
 62
    2
 10
187.02374755990499
 20
488.15936782271922
 40
1.1999999999999991
 50
0
 51
90
  0
LINE
  8
_0-2_2
  6
CONTINUOUS
 62
    2
 10
188.22374755990478
 20
488.15936782271922
 11
188.22374755990478
 21
484.05936782271908
  0
ARC
  8
_0-2_2
  6
CONTINUOUS
 62
    2
 10
187.02374755990499
 20
484.05936782271908
 40
1.1999999999999991
 50
270
 51
0
  0
LINE
  8
_0-2_2
  6
CONTINUOUS
 62
    2
 10
179.22374755990478
 20
482.85936782271932
 11
187.02374755990499
 21
482.85936782271932
  0
ARC
  8
_0-2_2
  6
CONTINUOUS
 62
    2
 10
179.22374755990478
 20
484.05936782271908
 40
1.1999999999999991
 50
180
 51
270
  0
LINE
  8
_0-2_2
  6
CONTINUOUS
 62
    2
 10
162.02374755990502
 20
446.15936782271922
 11
162.02374755990502
 21
442.05936782271908
  0
ARC
  8
_0-2_2
  6
CONTINUOUS
 62
    2
 10
163.22374755990478
 20
446.15936782271922
 40
1.1999999999999991
 50
90
 51
180
  0
LINE
  8
_0-2_2
  6
CONTINUOUS
 62
    2
 10
163.22374755990478
 20
447.35936782271932
 11
171.02374755990499
 21
447.35936782271932
  0
ARC
  8
_0-2_2
  6
CONTINUOUS
 62
    2
 10
171.02374755990499
 20
446.15936782271922
 40
1.1999999999999991
 50
0
 51
90
  0
LINE
  8
_0-2_2
  6
CONTINUOUS
 62
    2
 10
172.22374755990478
 20
446.15936782271922
 11
172.22374755990478
 21
442.05936782271908
  0
ARC
  8
_0-2_2
  6
CONTINUOUS
 62
    2
 10
171.02374755990499
 20
442.05936782271908
 40
1.1999999999999991
 50
270
 51
0
  0
LINE
  8
_0-2_2
  6
CONTINUOUS
 62
    2
 10
163.22374755990478
 20
440.85936782271921
 11
171.02374755990499
 21
440.85936782271921
  0
ARC
  8
_0-2_2
  6
CONTINUOUS
 62
    2
 10
163.22374755990478
 20
442.05936782271908
 40
1.1999999999999991
 50
180
 51
270
  0
LINE
  8
_0-2_2
  6
CONTINUOUS
 62
    2
 10
162.02374755990502
 20
460.15936782271922
 11
162.02374755990502
 21
456.05936782271908
  0
ARC
  8
_0-2_2
  6
CONTINUOUS
 62
    2
 10
163.22374755990478
 20
460.15936782271922
 40
1.1999999999999991
 50
90
 51
180
  0
LINE
  8
_0-2_2
  6
CONTINUOUS
 62
    2
 10
163.22374755990478
 20
461.35936782271921
 11
171.02374755990499
 21
461.35936782271921
  0
ARC
  8
_0-2_2
  6
CONTINUOUS
 62
    2
 10
171.02374755990499
 20
460.15936782271922
 40
1.1999999999999991
 50
0
 51
90
  0
LINE
  8
_0-2_2
  6
CONTINUOUS
 62
    2
 10
172.22374755990478
 20
460.15936782271922
 11
172.22374755990478
 21
456.05936782271908
  0
ARC
  8
_0-2_2
  6
CONTINUOUS
 62
    2
 10
171.02374755990499
 20
456.05936782271908
 40
1.1999999999999991
 50
270
 51
0
  0
LINE
  8
_0-2_2
  6
CONTINUOUS
 62
    2
 10
163.22374755990478
 20
454.85936782271932
 11
171.02374755990499
 21
454.85936782271932
  0
ARC
  8
_0-2_2
  6
CONTINUOUS
 62
    2
 10
163.22374755990478
 20
456.05936782271908
 40
1.1999999999999991
 50
180
 51
270
  0
LINE
  8
_0-2_2
  6
CONTINUOUS
 62
    2
 10
162.02374755990502
 20
474.15936782271928
 11
162.02374755990502
 21
470.05936782271908
  0
ARC
  8
_0-2_2
  6
CONTINUOUS
 62
    2
 10
163.22374755990478
 20
474.15936782271928
 40
1.1999999999999991
 50
90
 51
180
  0
LINE
  8
_0-2_2
  6
CONTINUOUS
 62
    2
 10
163.22374755990478
 20
475.35936782271932
 11
171.02374755990499
 21
475.35936782271932
  0
ARC
  8
_0-2_2
  6
CONTINUOUS
 62
    2
 10
171.02374755990499
 20
474.15936782271928
 40
1.1999999999999991
 50
0
 51
90
  0
LINE
  8
_0-2_2
  6
CONTINUOUS
 62
    2
 10
172.22374755990478
 20
474.15936782271928
 11
172.22374755990478
 21
470.05936782271908
  0
ARC
  8
_0-2_2
  6
CONTINUOUS
 62
    2
 10
171.02374755990499
 20
470.05936782271908
 40
1.1999999999999991
 50
270
 51
0
  0
LINE
  8
_0-2_2
  6
CONTINUOUS
 62
    2
 10
163.22374755990478
 20
468.85936782271932
 11
171.02374755990499
 21
468.85936782271932
  0
ARC
  8
_0-2_2
  6
CONTINUOUS
 62
    2
 10
163.22374755990478
 20
470.05936782271908
 40
1.1999999999999991
 50
180
 51
270
  0
LINE
  8
_0-2_2
  6
CONTINUOUS
 62
    2
 10
162.02374755990502
 20
488.15936782271922
 11
162.02374755990502
 21
484.05936782271908
  0
ARC
  8
_0-2_2
  6
CONTINUOUS
 62
    2
 10
163.22374755990478
 20
488.15936782271922
 40
1.1999999999999991
 50
90
 51
180
  0
LINE
  8
_0-2_2
  6
CONTINUOUS
 62
    2
 10
163.22374755990478
 20
489.35936782271932
 11
171.02374755990499
 21
489.35936782271932
  0
ARC
  8
_0-2_2
  6
CONTINUOUS
 62
    2
 10
171.02374755990499
 20
488.15936782271922
 40
1.1999999999999991
 50
0
 51
90
  0
LINE
  8
_0-2_2
  6
CONTINUOUS
 62
    2
 10
172.22374755990478
 20
488.15936782271922
 11
172.22374755990478
 21
484.05936782271908
  0
ARC
  8
_0-2_2
  6
CONTINUOUS
 62
    2
 10
171.02374755990499
 20
484.05936782271908
 40
1.1999999999999991
 50
270
 51
0
  0
LINE
  8
_0-2_2
  6
CONTINUOUS
 62
    2
 10
163.22374755990478
 20
482.85936782271932
 11
171.02374755990499
 21
482.85936782271932
  0
ARC
  8
_0-2_2
  6
CONTINUOUS
 62
    2
 10
163.22374755990478
 20
484.05936782271908
 40
1.1999999999999991
 50
180
 51
270
  0
LINE
  8
_0-2_2
  6
CONTINUOUS
 62
    2
 10
308.33551018810329
 20
334.10936782271932
 11
309.33551018810329
 21
334.10936782271932
  0
LINE
  8
_0-2_2
  6
CONTINUOUS
 62
    2
 10
308.33551018810368
 20
524.10936782271938
 11
309.33551018810329
 21
524.10936782271938
  0
LINE
  8
_0-2_2
  6
H4
 62
    7
 10
303.33551018810329
 20
344.60936782271932
 11
303.33551018810329
 21
338.34740125097068
  0
LINE
  8
_0-2_2
  6
H4
 62
    7
 10
303.33551018810329
 20
371.35088742105512
 11
303.33551018810329
 21
344.60936782271932
  0
LINE
  8
_0-2_2
  6
CONTINUOUS
 62
    2
 10
308.33551018810329
 20
334.10936782271932
 11
309.33551018810329
 21
334.10936782271932
  0
ARC
  8
_0-2_2
  6
CONTINUOUS
 62
    2
 10
199.52743514827017
 20
352.70568023435402
 40
5
 50
291.37843889942133
 51
338.62156110056605
  0
ARC
  8
_0-2_2
  6
CONTINUOUS
 62
    2
 10
199.52743514827017
 20
385.51305541108439
 40
5
 50
21.378438899433959
 51
68.621561100578589
  0
ARC
  8
_0-2_2
  6
CONTINUOUS
 62
    2
 10
166.72005997153957
 20
385.51305541108439
 40
5
 50
111.37843889942138
 51
158.62156110056597
  0
ARC
  8
_0-2_2
  6
CONTINUOUS
 62
    2
 10
166.72005997153957
 20
352.70568023435402
 40
5
 50
201.378438899434
 51
248.62156110057856
  0
LINE
  8
_0-2_2
  6
C5
 62
    7
 10
214.6237475599049
 20
520.10936782271892
 11
212.78026534372327
 21
520.10936782271892
  0
LINE
  8
_0-2_2
  6
C5
 62
    7
 10
149.62374755990487
 20
518.10936782271915
 11
149.62374755990487
 21
347.14855838914082
  0
ARC
  8
_0-2_2
  6
C5
 62
    7
 10
151.62374755990487
 20
347.14855838914082
 40
2
 50
180
 51
244.80656102532728
  0
LINE
  8
_0-2_2
  6
C5
 62
    7
 10
216.6237475599049
 20
518.10936782271915
 11
216.6237475599049
 21
347.14855838914082
  0
ARC
  8
_0-2_2
  6
C5
 62
    7
 10
183.1237475599049
 20
414.10936782271909
 40
76
 50
244.80656102532734
 51
295.19343897467263
  0
ARC
  8
_0-2_2
  6
C5
 62
    7
 10
214.6237475599049
 20
347.14855838914082
 40
2
 50
295.19343897467263
 51
0.0000000000000254
  0
ARC
  8
_0-7_7
  6
C5
 62
    7
 10
151.62374755990487
 20
518.10936782271915
 40
2
 50
90
 51
180
  0
ARC
  8
_0-7_7
  6
C5
 62
    7
 10
214.6237475599049
 20
518.10936782271915
 40
2
 50
0
 51
90
  0
ARC
  8
_0-2_2
  6
CONTINUOUS
 62
    2
 10
214.6237475599049
 20
518.10936782271915
 40
6
 50
0
 51
90
  0
ARC
  8
_0-2_2
  6
CONTINUOUS
 62
    2
 10
1238.7848701591347
 20
466.09023815833501
 40
1086.661565288488
 50
177.23121989127051
 51
180.05171779319321
  0
ARC
  8
_0-2_2
  6
CONTINUOUS
 62
    2
 10
-941.64877249104347
 20
464.39377956098758
 40
1155.7727415765851
 50
0.0354742661844522
 51
2.6870052942318123
  0
LINE
  8
_0-2_2
  6
CONTINUOUS
 62
    2
 10
214.1237475598945
 20
429.35206839818068
 11
214.1237475598945
 21
465.10936782294442
  0
LINE
  8
_0-2_2
  6
C5
 62
    7
 10
208.6237475599049
 20
522.38877151763745
 11
208.6237475599049
 21
429.60936782271909
  0
ARC
  8
_0-2_2
  6
CONTINUOUS
 62
    2
 10
209.1237475598945
 20
429.35206839818068
 40
5
 50
270
 51
0
  0
LINE
  8
_0-2_2
  6
C5
 62
    7
 10
208.6237475599049
 20
429.60936782271909
 11
157.62374755990538
 21
429.60936782271909
  0
LINE
  8
_0-2_2
  6
CONTINUOUS
 62
    2
 10
152.12374755990857
 20
429.35206839818068
 11
152.12374755990857
 21
467.07110849384998
  0
LINE
  8
_0-2_2
  6
C5
 62
    7
 10
157.62374755990538
 20
522.38877151763745
 11
157.62374755990538
 21
429.60936782271909
  0
LINE
  8
_0-2_2
  6
CONTINUOUS
 62
    2
 10
209.1237475598945
 20
424.35206839818068
 11
157.12374755990857
 21
424.35206839818068
  0
ARC
  8
_0-2_2
  6
CONTINUOUS
 62
    2
 10
157.12374755990857
 20
429.35206839818068
 40
5
 50
180
 51
270
  0
LINE
  8
_0-9_T
  6
CENTER2_17
 62
    5
 10
183.1237475599049
 20
528.89468372496822
 11
183.1237475599049
 21
328.52246926458378
  0
LINE
  8
_0-2_2
  6
H4
 62
    7
 10
301.3355101881038
 20
407.85936782271932
 11
301.3355101881038
 21
396.35936782271932
  0
LINE
  8
_0-2_2
  6
CONTINUOUS
 62
    2
 10
301.3355101881038
 20
407.85936782271932
 11
301.38661614789078
 21
407.85936782271932
  0
LINE
  8
_0-2_2
  6
CONTINUOUS
 62
    2
 10
84.248802073764523
 20
334.10936782271932
 11
83.248802073764523
 21
334.10936782271932
  0
LINE
  8
_0-2_2
  6
H5
 62
    7
 10
89.248802073764523
 20
371.16232549633207
 11
89.248802073764523
 21
344.60936782271932
  0
LINE
  8
_0-2_2
  6
H5
 62
    7
 10
89.248802073764523
 20
344.60936782271932
 11
89.248802073764523
 21
338.34740125097068
  0
LINE
  8
_0-2_2
  6
CONTINUOUS
 62
    2
 10
84.248802073764068
 20
524.10936782271938
 11
83.248802073764523
 21
524.10936782271938
  0
LINE
  8
_0-2_2
  6
CONTINUOUS
 62
    2
 10
84.248802073764523
 20
334.10936782271932
 11
83.248802073764523
 21
334.10936782271932
  0
LINE
  8
_0-2_2
  6
H5
 62
    7
 10
84.248802073764523
 20
524.10936782271938
 11
87.693737108833261
 21
523.50193282924874
  0
LINE
  8
_0-2_2
  6
H5
 62
    7
 10
84.248802073764523
 20
334.10936782271932
 11
85.943394784432144
 21
334.4081702389218
  0
ARC
  8
_0-2_2
  6
H5
 62
    7
 10
85.248802073764523
 20
338.34740125097068
 40
4
 50
280.00000000000603
 51
0.0000000000000127
  0
ARC
  8
_0-2_2
  6
H7
 62
    7
 10
95.248802073764523
 20
429.60936782271932
 40
6
 50
180
 51
244.67674432882529
  0
LINE
  8
_0-2_2
  6
H7
 62
    7
 10
89.248802073764068
 20
429.60936782271932
 11
89.248802073764068
 21
522.71895551253647
  0
LINE
  8
_0-2_2
  6
CONTINUOUS
 62
    2
 10
186.6237475599049
 20
293.71415826023099
 11
213.81989998261167
 21
293.71415826023099
  0
LINE
  8
_0-2_2
  6
CONTINUOUS
 62
    2
 10
208.85763300283529
 20
522.38877151763745
 11
157.38719660819498
 21
522.38877151763745
  0
ARC
  8
_0-2_2
  6
CONTINUOUS
 62
    2
 10
208.85763300283529
 20
518.38877151763768
 40
4
 50
2.6870052942318123
 51
90
  0
ARC
  8
_0-2_2
  6
CONTINUOUS
 62
    2
 10
157.38719660819498
 20
518.38877151763768
 40
4
 50
90
 51
177.23121989127054
  0
LINE
  8
_0-2_2
  6
H4
 62
    7
 10
301.3355101881038
 20
407.85936782271932
 11
300.55857096852867
 21
409.20506602541599
  0
ARC
  8
_0-2_2
  6
CONTINUOUS
 62
    2
 10
164.62374755990479
 20
403.06866349832285
 40
6.3741438461508482
 50
89.999999999999233
 51
112.96363761488186
  0
ARC
  8
_0-2_2
  6
CONTINUOUS
 62
    2
 10
164.68399759105881
 20
402.92647248909378
 40
6.5285729540276902
 50
112.96363761487949
 51
135.65040555140538
  0
ARC
  8
_0-2_2
  6
CONTINUOUS
 62
    2
 10
164.77744988240397
 20
402.8351181605608
 40
6.6592593882868512
 50
135.65040555139714
 51
157.95625375996383
  0
ARC
  8
_0-2_2
  6
CONTINUOUS
 62
    2
 10
164.92323511624863
 20
402.77608758359673
 40
6.8165423925303266
 50
157.95625375996968
 51
180.00000000000196
  0
ARC
  8
_0-2_2
  6
CONTINUOUS
 62
    2
 10
164.92323511624923
 20
402.77608758359634
 40
6.8165423925309163
 50
179.99999999999852
 51
202.04374624002935
  0
ARC
  8
_0-2_2
  6
CONTINUOUS
 62
    2
 10
164.77744988240423
 20
402.71705700663267
 40
6.6592593882872988
 50
202.04374624003961
 51
224.34959444860351
  0
ARC
  8
_0-2_2
  6
CONTINUOUS
 62
    2
 10
164.68399759106023
 20
402.62570267810088
 40
6.5285729540298139
 50
224.34959444859572
 51
247.03636238511965
  0
ARC
  8
_0-2_2
  6
CONTINUOUS
 62
    2
 10
164.62374755990467
 20
402.48351166886977
 40
6.3741438461504307
 50
247.03636238512263
 51
270.00000000000176
  0
ARC
  8
_0-2_2
  6
CONTINUOUS
 62
    2
 10
164.62374755990524
 20
402.4835116688696
 40
6.3741438461503028
 50
269.99999999999676
 51
292.9636376148776
  0
ARC
  8
_0-2_2
  6
CONTINUOUS
 62
    2
 10
164.56349752874959
 20
402.62570267810071
 40
6.5285729540296353
 50
292.96363761488141
 51
315.65040555140536
  0
ARC
  8
_0-2_2
  6
CONTINUOUS
 62
    2
 10
164.470045237406
 20
402.71705700663244
 40
6.6592593882868165
 50
315.65040555139569
 51
337.95625375996121
  0
ARC
  8
_0-2_2
  6
CONTINUOUS
 62
    2
 10
164.32426000356048
 20
402.77608758359634
 40
6.8165423925309998
 50
337.95625375997076
 51
0.000000000001358
  0
ARC
  8
_0-2_2
  6
CONTINUOUS
 62
    2
 10
164.32426000356151
 20
402.77608758359662
 40
6.8165423925299713
 50
359.99999999999886
 51
22.043746240030902
  0
ARC
  8
_0-2_2
  6
CONTINUOUS
 62
    2
 10
164.47004523740583
 20
402.83511816056102
 40
6.6592593882867392
 50
22.043746240033261
 51
44.349594448601586
  0
ARC
  8
_0-2_2
  6
CONTINUOUS
 62
    2
 10
164.56349752874988
 20
402.92647248909236
 40
6.5285729540294586
 50
44.349594448596733
 51
67.036362385120697
  0
LINE
  8
_0-2_2
  6
CONTINUOUS
 62
    2
 10
167.1105997511294
 20
408.93767329133101
 11
164.62374755990487
 21
409.44280734447369
  0
ARC
  8
_0-2_2
  6
H2
 62
    7
 10
1199.3355101881039
 20
456.10936782271898
 40
900
 50
175.93900219987211
 51
176.1795736565827
  0
ARC
  8
_0-2_2
  6
H2
 62
    7
 10
305.58516786370217
 20
519.56270181719981
 40
4
 50
100.000000000006
 51
175.93900219985909
  0
ARC
  8
_0-2_2
  6
H5
 62
    7
 10
-806.75119792623536
 20
456.10936782271267
 40
900
 50
354.60807703430203
 51
356.17957365656969
  0
ARC
  8
_0-2_2
  6
H5
 62
    7
 10
86.99914439816564
 20
519.56270181719981
 40
4
 50
4.0609978001278417
 51
79.999999999993975
  0
ARC
  8
_0-2_2
  6
CONTINUOUS
 62
    2
 10
93.248802073764523
 20
371.16232549633207
 40
4
 50
174.60807703430191
 51
180
  0
LINE
  8
_0-8_S
  6
CONTINUOUS
 62
    6
 10
299.47481604667956
 20
471.94385989901451
 11
288.01290795973989
 21
476.60306185572529
  0
LINE
  8
_0-8_S
  6
CONTINUOUS
 62
    6
 10
288.01290795973989
 20
476.60306185572529
 11
271.90466278043408
 21
476.60306185572529
  0
INSERT
  2
-000-SUG-AR01
  8
_0-8_S
 10
299.47481604667956
 20
471.94385989901451
 41
1
 42
1
 50
157.87853109425791
  0
TEXT
  8
_0-8_S
 62
    7
 10
271.90466278043408
 20
478.4030618557253
 40
6
 41
1
 50
0
  1
R900
  0
LINE
  8
_0-2_2
  6
CONTINUOUS
 62
    2
 10
156.37374755990487
 20
270.71415826023099
 11
156.37374755990487
 21
269.71415826023087
  0
LINE
  8
_0-2_2
  6
CONTINUOUS
 62
    2
 10
149.87374755990487
 20
270.71415826023099
 11
149.87374755990487
 21
269.71415826023087
  0
LINE
  8
_0-2_2
  6
CONTINUOUS
 62
    2
 10
156.37374755990487
 20
269.71415826023087
 11
149.87374755990487
 21
269.71415826023087
  0
ARC
  8
_0-2_2
  6
CONTINUOUS
 62
    2
 10
153.12374755990487
 20
274.49540826023087
 40
5.7812499999999201
 50
235.79454206189604
 51
304.20545793810402
  0
LINE
  8
_0-2_2
  6
CONTINUOUS
 62
    2
 10
151.26628950669948
 20
269.02067528563919
 11
151.3793472755313
 21
269.12283219630422
  0
LINE
  8
_0-2_2
  6
CONTINUOUS
 62
    2
 10
151.3793472755313
 20
269.12283219630422
 11
152.85103758353068
 21
268.93284420047161
  0
LINE
  8
_0-2_2
  6
CONTINUOUS
 62
    2
 10
152.85103758353068
 20
268.93284420047161
 11
152.92224813449127
 21
269.36031451123188
  0
LINE
  8
_0-2_2
  6
CONTINUOUS
 62
    2
 10
152.92224813449127
 20
269.36031451123188
 11
153.37324988718848
 21
269.33656735168427
  0
LINE
  8
_0-2_2
  6
CONTINUOUS
 62
    2
 10
153.37324988718848
 20
269.33656735168427
 11
153.51567098910971
 21
268.88534630822573
  0
LINE
  8
_0-2_2
  6
CONTINUOUS
 62
    2
 10
153.51567098910971
 20
268.88534630822573
 11
154.98736369202908
 21
269.14657935585183
  0
LINE
  8
_0-2_2
  6
CONTINUOUS
 62
    2
 10
154.98736369202908
 20
269.14657935585183
 11
155.03205847409697
 21
269.03819275987928
  0
LINE
  8
_0-2_2
  6
CONTINUOUS
 62
    2
 10
214.98736369202908
 20
269.14657935585183
 11
215.032058474097
 21
269.03819275987928
  0
LINE
  8
_0-2_2
  6
CONTINUOUS
 62
    2
 10
213.51567098910968
 20
268.88534630822573
 11
214.98736369202908
 21
269.14657935585183
  0
LINE
  8
_0-2_2
  6
CONTINUOUS
 62
    2
 10
213.37324988718848
 20
269.33656735168427
 11
213.51567098910968
 21
268.88534630822573
  0
LINE
  8
_0-2_2
  6
CONTINUOUS
 62
    2
 10
212.9222481344913
 20
269.36031451123188
 11
213.37324988718848
 21
269.33656735168427
  0
LINE
  8
_0-2_2
  6
CONTINUOUS
 62
    2
 10
212.85103758353068
 20
268.93284420047161
 11
212.9222481344913
 21
269.36031451123188
  0
LINE
  8
_0-2_2
  6
CONTINUOUS
 62
    2
 10
211.37934727553139
 20
269.12283219630422
 11
212.85103758353068
 21
268.93284420047161
  0
LINE
  8
_0-2_2
  6
CONTINUOUS
 62
    2
 10
211.26628950669948
 20
269.02067528563919
 11
211.37934727553139
 21
269.12283219630422
  0
ARC
  8
_0-2_2
  6
CONTINUOUS
 62
    2
 10
213.1237475599049
 20
274.49540826023087
 40
5.7812499999999201
 50
235.79454206189604
 51
304.20545793810402
  0
LINE
  8
_0-2_2
  6
CONTINUOUS
 62
    2
 10
216.3737475599049
 20
269.71415826023087
 11
209.8737475599049
 21
269.71415826023087
  0
LINE
  8
_0-2_2
  6
CONTINUOUS
 62
    2
 10
209.8737475599049
 20
270.71415826023099
 11
209.8737475599049
 21
269.71415826023087
  0
LINE
  8
_0-2_2
  6
CONTINUOUS
 62
    2
 10
216.3737475599049
 20
270.71415826023099
 11
216.3737475599049
 21
269.71415826023087
  0
ARC
  8
_0-1_1
  6
CONTINUOUS
 62
    1
 10
210.3737475599049
 20
278.71415826023087
 40
0.5
 50
270
 51
0
  0
ARC
  8
_0-1_1
  6
CONTINUOUS
 62
    1
 10
205.8737475599049
 20
278.71415826023087
 40
0.5
 50
180
 51
270
  0
ARC
  8
_0-1_1
  6
CONTINUOUS
 62
    1
 10
160.37374755990487
 20
278.71415826023087
 40
0.5
 50
270
 51
0
  0
ARC
  8
_0-1_1
  6
CONTINUOUS
 62
    1
 10
155.87374755990487
 20
278.71415826023087
 40
0.5
 50
180
 51
270
  0
LINE
  8
_0-1_1
  6
CONTINUOUS
 62
    1
 10
86.248802073763613
 20
525.85936782271892
 11
77.248802073763613
 21
525.85936782271938
  0
LINE
  8
_0-1_1
  6
CONTINUOUS
 62
    1
 10
86.248802073764068
 20
531.35936782271915
 11
77.248802073764068
 21
531.35936782271949
  0
LINE
  8
_0-1_1
  6
CONTINUOUS
 62
    1
 10
76.748802073764068
 20
530.85936782271938
 11
76.748802073763613
 21
526.35936782271938
  0
ARC
  8
_0-1_1
  6
CONTINUOUS
 62
    1
 10
77.248802073764068
 20
530.85936782271938
 40
0.5
 50
90
 51
180
  0
ARC
  8
_0-1_1
  6
CONTINUOUS
 62
    1
 10
77.248802073763613
 20
526.35936782271938
 40
0.5
 50
180
 51
270
  0
ARC
  8
_0-1_1
  6
CONTINUOUS
 62
    1
 10
77.248802073763613
 20
331.35936782271932
 40
0.5
 50
180
 51
270
  0
ARC
  8
_0-1_1
  6
CONTINUOUS
 62
    1
 10
77.248802073763613
 20
335.85936782271932
 40
0.5
 50
90
 51
180
  0
LINE
  8
_0-1_1
  6
CONTINUOUS
 62
    1
 10
76.748802073763613
 20
335.85936782271932
 11
76.748802073763613
 21
331.35936782271932
  0
LINE
  8
_0-1_1
  6
CONTINUOUS
 62
    1
 10
81.748802073763613
 20
336.35936782271932
 11
77.248802073763613
 21
336.35936782271932
  0
LINE
  8
_0-1_1
  6
CONTINUOUS
 62
    1
 10
86.248802073763613
 20
330.85936782271932
 11
77.248802073763613
 21
330.85936782271932
  0
ARC
  8
_0-1_1
  6
CONTINUOUS
 62
    1
 10
82.748802073763613
 20
524.60936782271938
 40
1
 50
90
 51
180
  0
ARC
  8
_0-1_1
  6
CONTINUOUS
 62
    1
 10
82.748802073763613
 20
333.60936782271932
 40
1
 50
180
 51
270
  0
LINE
  8
_0-1_1
  6
CONTINUOUS
 62
    1
 10
86.248802073763613
 20
332.60936782271932
 11
82.748802073763613
 21
332.60936782271932
  0
LINE
  8
_0-1_1
  6
CONTINUOUS
 62
    1
 10
86.248802073764523
 20
535.10936782271938
 11
86.248802073763613
 21
323.10936782271932
  0
LINE
  8
_0-1_1
  6
CONTINUOUS
 62
    1
 10
86.248802073763613
 20
525.60936782271938
 11
82.748802073763613
 21
525.60936782271938
  0
LINE
  8
_0-1_1
  6
H5
 62
    6
 10
88.748802073763613
 20
334.10936782271932
 11
83.248802073763613
 21
334.10936782271932
  0
LINE
  8
_0-1_1
  6
H5
 62
    6
 10
88.748802073764523
 20
524.10936782271938
 11
83.248802073763613
 21
524.10936782271938
  0
LINE
  8
_0-1_1
  6
H5
 62
    6
 10
83.248802073763613
 20
524.10936782271938
 11
83.248802073763613
 21
334.10936782271932
  0
LINE
  8
_0-1_1
  6
CONTINUOUS
 62
    1
 10
91.248802073764523
 20
531.10936782271892
 11
91.248802073763613
 21
327.10936782271932
  0
ARC
  8
_0-1_1
  6
H5
 62
    6
 10
88.748802073763613
 20
331.60936782271932
 40
2.5
 50
0
 51
90
  0
ARC
  8
_0-1_1
  6
CONTINUOUS
 62
    1
 10
87.248802073763613
 20
327.10936782271932
 40
4
 50
270
 51
0
  0
LINE
  8
_0-1_1
  6
CONTINUOUS
 62
    1
 10
87.248802073763613
 20
323.10936782271932
 11
86.248802073763613
 21
323.10936782271932
  0
ARC
  8
_0-1_1
  6
CONTINUOUS
 62
    1
 10
87.248802073764068
 20
531.10936782271892
 40
4
 50
0
 51
90
  0
LINE
  8
_0-1_1
  6
CONTINUOUS
 62
    1
 10
87.248802073764068
 20
535.10936782271938
 11
86.248802073764068
 21
535.10936782271938
  0
LINE
  8
_0-1_1
  6
CONTINUOUS
 62
    1
 10
69.248802073763613
 20
353.20936782271917
 11
80.748802073763613
 21
353.20936782271917
  0
LINE
  8
_0-1_1
  6
CONTINUOUS
 62
    1
 10
72.748802073764068
 20
340.01778717348668
 11
80.748802073763613
 21
340.01778717348668
  0
LINE
  8
_0-1_1
  6
CONTINUOUS
 62
    1
 10
70.748802073763613
 20
350.10936782271932
 11
70.748802073764068
 21
342.01778717348668
  0
LINE
  8
_0-1_1
  6
CONTINUOUS
 62
    1
 10
69.248802073763613
 20
347.00936782271941
 11
70.748802073763613
 21
347.00936782271941
  0
LINE
  8
_0-1_1
  6
CONTINUOUS
 62
    1
 10
69.248802073763613
 20
353.20936782271917
 11
69.248802073763613
 21
347.00936782271941
  0
ARC
  8
_0-1_1
  6
CONTINUOUS
 62
    1
 10
72.748802073764068
 20
342.01778717348668
 40
2
 50
180
 51
270
  0
LINE
  8
_0-1_1
  6
CONTINUOUS
 62
    1
 10
72.748802073763613
 20
523.10936782271938
 11
80.748802073763613
 21
523.10936782271938
  0
LINE
  8
_0-1_1
  6
CONTINUOUS
 62
    1
 10
69.248802073763613
 20
513.50936782271947
 11
80.748802073763613
 21
513.50936782271901
  0
LINE
  8
_0-1_1
  6
CONTINUOUS
 62
    1
 10
70.748802073763613
 20
521.10936782271938
 11
70.748802073763613
 21
513.50936782271947
  0
LINE
  8
_0-1_1
  6
CONTINUOUS
 62
    1
 10
69.248802073763613
 20
519.7093678227194
 11
69.248802073763613
 21
513.50936782271947
  0
ARC
  8
_0-1_1
  6
CONTINUOUS
 62
    1
 10
72.748802073763613
 20
521.10936782271938
 40
2
 50
90
 51
180
  0
LINE
  8
_0-1_1
  6
CONTINUOUS
 62
    1
 10
70.748802073763613
 20
519.70936782271974
 11
69.248802073763613
 21
519.7093678227194
  0
LINE
  8
_0-1_1
  6
CONTINUOUS
 62
    1
 10
81.748802073763613
 20
524.60936782271938
 11
81.748802073763613
 21
333.60936782271932
  0
ARC
  8
_0-1_1
  6
CONTINUOUS
 62
    1
 10
80.748802073763613
 20
339.01778717348668
 40
1
 50
0
 51
90
  0
ARC
  8
_0-1_1
  6
CONTINUOUS
 62
    1
 10
80.748802073763613
 20
524.10936782271938
 40
1
 50
270
 51
0
  0
ARC
  8
_0-1_1
  6
CONTINUOUS
 62
    1
 10
80.748802073763613
 20
354.20936782271917
 40
1
 50
270
 51
0
  0
ARC
  8
_0-1_1
  6
CONTINUOUS
 62
    1
 10
80.748802073763613
 20
512.50936782271901
 40
1
 50
0
 51
90
  0
ARC
  8
_0-1_1
  6
H5
 62
    6
 10
88.748802073764523
 20
526.60936782271938
 40
2.5
 50
270
 51
0
  0
ARC
  8
_0-1_1
  6
H5
 62
    6
 10
303.83551018810289
 20
526.60936782271938
 40
2.5
 50
180
 51
270
  0
LINE
  8
_0-1_1
  6
CONTINUOUS
 62
    1
 10
476.09550354180897
 20
381.10936782271932
 11
476.09550354180897
 21
513.50936782271901
  0
LINE
  8
_0-1_1
  6
CONTINUOUS
 62
    1
 10
480.09550354180897
 20
381.10936782271932
 11
480.09550354180897
 21
518.10936782271938
  0
LINE
  8
_0-1_1
  6
CONTINUOUS
 62
    1
 10
485.59550354180908
 20
358.10936782271932
 11
485.59550354180908
 21
344.06830843609981
  0
ARC
  8
_0-1_1
  6
CONTINUOUS
 62
    1
 10
311.83551018810329
 20
512.50936782271901
 40
1
 50
90
 51
180
  0
ARC
  8
_0-1_1
  6
CONTINUOUS
 62
    1
 10
311.83551018810289
 20
354.20936782271917
 40
1
 50
180
 51
270
  0
ARC
  8
_0-1_1
  6
CONTINUOUS
 62
    1
 10
311.83551018810329
 20
524.10936782271938
 40
1
 50
180
 51
270
  0
ARC
  8
_0-1_1
  6
CONTINUOUS
 62
    1
 10
311.83551018810289
 20
339.01778717348668
 40
1
 50
90
 51
180
  0
ARC
  8
_0-1_1
  6
CONTINUOUS
 62
    1
 10
145.62374755990487
 20
282.21415826023087
 40
1
 50
0
 51
90
  0
ARC
  8
_0-1_1
  6
CONTINUOUS
 62
    1
 10
220.6237475599049
 20
282.21415826023087
 40
1
 50
90
 51
180
  0
LINE
  8
_0-1_1
  6
CONTINUOUS
 62
    1
 10
216.22374755990478
 20
272.21415826023087
 11
216.22374755990478
 21
270.71415826023099
  0
LINE
  8
_0-1_1
  6
CONTINUOUS
 62
    1
 10
150.02374755990502
 20
272.21415826023087
 11
150.02374755990502
 21
270.71415826023099
  0
ARC
  8
_0-1_1
  6
CONTINUOUS
 62
    1
 10
148.12374755990487
 20
273.71415826023087
 40
1.5
 50
180
 51
270
  0
ARC
  8
_0-1_1
  6
CONTINUOUS
 62
    1
 10
218.1237475599049
 20
273.71415826023087
 40
1.5
 50
270
 51
0
  0
LINE
  8
_0-1_1
  6
CONTINUOUS
 62
    1
 10
219.6237475599049
 20
282.21415826023087
 11
219.6237475599049
 21
273.71415826023087
  0
LINE
  8
_0-1_1
  6
CONTINUOUS
 62
    1
 10
146.62374755990487
 20
282.21415826023087
 11
146.62374755990487
 21
273.71415826023087
  0
LINE
  8
_0-1_1
  6
CONTINUOUS
 62
    1
 10
156.22374755990478
 20
270.71415826023099
 11
150.02374755990502
 21
270.71415826023099
  0
LINE
  8
_0-1_1
  6
CONTINUOUS
 62
    1
 10
156.22374755990478
 20
272.21415826023087
 11
148.12374755990487
 21
272.21415826023087
  0
LINE
  8
_0-1_1
  6
CONTINUOUS
 62
    1
 10
216.22374755990478
 20
270.71415826023099
 11
210.02374755990499
 21
270.71415826023099
  0
LINE
  8
_0-1_1
  6
CONTINUOUS
 62
    1
 10
218.1237475599049
 20
272.21415826023087
 11
210.02374755990499
 21
272.21415826023087
  0
LINE
  8
_0-1_1
  6
CONTINUOUS
 62
    1
 10
210.02374755990499
 20
278.21415826023087
 11
210.02374755990499
 21
270.71415826023099
  0
LINE
  8
_0-1_1
  6
CONTINUOUS
 62
    1
 10
156.22374755990478
 20
278.21415826023087
 11
156.22374755990478
 21
270.71415826023099
  0
LINE
  8
_0-1_1
  6
CONTINUOUS
 62
    1
 10
310.83551018810329
 20
524.60936782271938
 11
310.83551018810277
 21
333.60936782271932
  0
ARC
  8
_0-1_1
  6
CONTINUOUS
 62
    1
 10
466.09550354180908
 20
528.60936782271938
 40
3.75
 50
233.13010235415609
 51
306.86989764584388
  0
ARC
  8
_0-1_1
  6
CONTINUOUS
 62
    1
 10
416.09550354180908
 20
528.60936782271938
 40
3.75
 50
233.13010235415609
 51
306.86989764584388
  0
ARC
  8
_0-1_1
  6
CONTINUOUS
 62
    1
 10
441.09550354180908
 20
414.10936782271932
 40
81.5
 50
288.98278190787573
 51
295.19343897467252
  0
ARC
  8
_0-1_1
  6
CONTINUOUS
 62
    1
 10
466.09550354180908
 20
333.60936782271932
 40
3.75
 50
66.244226104604564
 51
148.2610782290497
  0
ARC
  8
_0-1_1
  6
CONTINUOUS
 62
    1
 10
441.09550354180908
 20
414.10936782271932
 40
81.5
 50
254.4774775742319
 51
285.52252242576822
  0
ARC
  8
_0-1_1
  6
CONTINUOUS
 62
    1
 10
416.09550354180908
 20
333.60936782271932
 40
3.75
 50
31.738921770950309
 51
113.75577389539538
  0
LINE
  8
_0-1_1
  6
CONTINUOUS
 62
    1
 10
463.84550354180817
 20
525.60936782271938
 11
418.34550354180908
 21
525.60936782271938
  0
LINE
  8
_0-1_1
  6
CONTINUOUS
 62
    1
 10
413.84550354180868
 20
525.60936782271938
 11
409.59550354180908
 21
525.60936782271938
  0
LINE
  8
_0-1_1
  6
CONTINUOUS
 62
    1
 10
321.83551018810329
 20
519.7093678227194
 11
323.33551018810329
 21
519.7093678227194
  0
ARC
  8
_0-1_1
  6
CONTINUOUS
 62
    1
 10
319.83551018810329
 20
521.10936782271938
 40
2
 50
0
 51
90
  0
LINE
  8
_0-1_1
  6
CONTINUOUS
 62
    1
 10
323.33551018810329
 20
519.7093678227194
 11
323.33551018810329
 21
513.50936782271901
  0
LINE
  8
_0-1_1
  6
CONTINUOUS
 62
    1
 10
321.83551018810329
 20
521.10936782271938
 11
321.83551018810329
 21
513.50936782271901
  0
LINE
  8
_0-1_1
  6
CONTINUOUS
 62
    1
 10
323.33551018810329
 20
513.50936782271901
 11
311.83551018810329
 21
513.50936782271901
  0
LINE
  8
_0-1_1
  6
CONTINUOUS
 62
    1
 10
319.83551018810329
 20
523.10936782271938
 11
311.83551018810329
 21
523.10936782271938
  0
ARC
  8
_0-1_1
  6
CONTINUOUS
 62
    1
 10
319.83551018810238
 20
342.01778717348668
 40
2
 50
270
 51
0
  0
LINE
  8
_0-1_1
  6
CONTINUOUS
 62
    1
 10
323.33551018810277
 20
353.20936782271917
 11
323.33551018810277
 21
347.00936782271941
  0
LINE
  8
_0-1_1
  6
CONTINUOUS
 62
    1
 10
323.33551018810277
 20
347.00936782271941
 11
321.83551018810277
 21
347.00936782271941
  0
LINE
  8
_0-1_1
  6
CONTINUOUS
 62
    1
 10
321.83551018810277
 20
350.10936782271932
 11
321.83551018810238
 21
342.01778717348668
  0
LINE
  8
_0-1_1
  6
CONTINUOUS
 62
    1
 10
319.83551018810238
 20
340.01778717348668
 11
311.83551018810289
 21
340.01778717348668
  0
LINE
  8
_0-1_1
  6
CONTINUOUS
 62
    1
 10
323.33551018810277
 20
353.20936782271917
 11
311.83551018810289
 21
353.20936782271917
  0
ARC
  8
_0-1_1
  6
CONTINUOUS
 62
    1
 10
468.99550354180866
 20
341.01778717348668
 40
1
 50
180
 51
286.03297133316744
  0
ARC
  8
_0-1_1
  6
CONTINUOUS
 62
    1
 10
476.59550354180908
 20
352.20936782271917
 40
1
 50
0
 51
90
  0
ARC
  8
_0-1_1
  6
CONTINUOUS
 62
    1
 10
413.19550354180899
 20
341.01778717348668
 40
1
 50
253.96702866683253
 51
0.0000000000000254
  0
ARC
  8
_0-1_1
  6
CONTINUOUS
 62
    1
 10
405.59550354180908
 20
352.20936782271917
 40
1
 50
90
 51
180
  0
ARC
  8
_0-1_1
  6
CONTINUOUS
 62
    1
 10
476.59550354180857
 20
514.50936782271924
 40
1
 50
270
 51
0
  0
ARC
  8
_0-1_1
  6
CONTINUOUS
 62
    1
 10
468.99550354180866
 20
522.10936782271915
 40
1
 50
90
 51
180
  0
ARC
  8
_0-1_1
  6
CONTINUOUS
 62
    1
 10
405.59550354180908
 20
514.50936782271924
 40
1
 50
180
 51
270
  0
ARC
  8
_0-1_1
  6
CONTINUOUS
 62
    1
 10
413.19550354180899
 20
522.10936782271915
 40
1
 50
0
 51
90
  0
LINE
  8
_0-1_1
  6
CONTINUOUS
 62
    1
 10
467.99550354180866
 20
521.60936782271938
 11
414.19550354180899
 21
521.60936782271938
  0
LINE
  8
_0-1_1
  6
CONTINUOUS
 62
    1
 10
476.09550354180897
 20
353.20936782271917
 11
476.09550354180897
 21
358.10936782271932
  0
LINE
  8
_0-1_1
  6
CONTINUOUS
 62
    1
 10
406.09550354180908
 20
353.20936782271917
 11
406.09550354180908
 21
513.50936782271947
  0
ARC
  8
_0-1_1
  6
CONTINUOUS
 62
    1
 10
416.09550354180908
 20
351.10936782271932
 40
10
 50
259.04721580110572
 51
270
  0
ARC
  8
_0-1_1
  6
CONTINUOUS
 62
    1
 10
416.09550354180908
 20
351.10936782271932
 40
11.5
 50
180
 51
253.96702866683253
  0
LINE
  8
_0-1_1
  6
CONTINUOUS
 62
    1
 10
404.59550354180908
 20
514.50936782271924
 11
404.59550354180908
 21
516.60936782271938
  0
LINE
  8
_0-1_1
  6
CONTINUOUS
 62
    1
 10
404.59550354180908
 20
351.10936782271932
 11
404.59550354180908
 21
352.20936782271917
  0
ARC
  8
_0-1_1
  6
CONTINUOUS
 62
    1
 10
411.09550354180908
 20
516.60936782271938
 40
6.5
 50
90
 51
180
  0
LINE
  8
_0-1_1
  6
CONTINUOUS
 62
    1
 10
413.19550354180899
 20
523.10936782271938
 11
411.09550354180908
 21
523.10936782271938
  0
LINE
  8
_0-1_1
  6
CONTINUOUS
 62
    1
 10
477.59550354180857
 20
514.50936782271924
 11
477.59550354180908
 21
516.60936782271938
  0
LINE
  8
_0-1_1
  6
CONTINUOUS
 62
    1
 10
471.09550354180897
 20
523.10936782271938
 11
468.99550354180866
 21
523.10936782271938
  0
ARC
  8
_0-1_1
  6
CONTINUOUS
 62
    1
 10
471.09550354180897
 20
516.60936782271938
 40
6.5
 50
0
 51
90
  0
LINE
  8
_0-1_1
  6
CONTINUOUS
 62
    1
 10
471.09550354180897
 20
513.50936782271901
 11
476.59550354180857
 21
513.50936782271901
  0
LINE
  8
_0-1_1
  6
CONTINUOUS
 62
    1
 10
467.99550354180866
 20
516.60936782271938
 11
467.99550354180866
 21
522.10936782271915
  0
LINE
  8
_0-1_1
  6
CONTINUOUS
 62
    1
 10
411.09550354180908
 20
513.50936782271947
 11
405.59550354180908
 21
513.50936782271901
  0
LINE
  8
_0-1_1
  6
CONTINUOUS
 62
    1
 10
414.19550354180899
 20
516.60936782271938
 11
414.19550354180899
 21
522.10936782271915
  0
LINE
  8
_0-1_1
  6
CONTINUOUS
 62
    1
 10
414.19550354180899
 20
350.10936782271932
 11
414.19550354180899
 21
341.01778717348668
  0
LINE
  8
_0-1_1
  6
CONTINUOUS
 62
    1
 10
411.09550354180908
 20
353.20936782271917
 11
405.59550354180908
 21
353.20936782271917
  0
LINE
  8
_0-1_1
  6
CONTINUOUS
 62
    1
 10
471.09550354180897
 20
353.20936782271917
 11
476.59550354180908
 21
353.20936782271917
  0
LINE
  8
_0-1_1
  6
CONTINUOUS
 62
    1
 10
467.99550354180866
 20
350.10936782271932
 11
467.99550354180866
 21
341.01778717348668
  0
ARC
  8
_0-1_1
  6
CONTINUOUS
 62
    1
 10
466.09550354180908
 20
351.10936782271932
 40
11.5
 50
286.03297133316744
 51
0.0000000000000254
  0
LINE
  8
_0-1_1
  6
CONTINUOUS
 62
    1
 10
477.59550354180908
 20
351.10936782271932
 11
477.59550354180908
 21
352.20936782271917
  0
ARC
  8
_0-1_1
  6
CONTINUOUS
 62
    1
 10
470.59550354180897
 20
344.06830843609981
 40
15
 50
292.83992669377511
 51
0.0000000000000127
  0
ARC
  8
_0-1_1
  6
CONTINUOUS
 62
    1
 10
411.59550354180908
 20
344.06830843609958
 40
15
 50
180
 51
247.16007330622477
  0
ARC
  8
_0-1_1
  6
CONTINUOUS
 62
    1
 10
441.09550354180908
 20
414.10936782271932
 40
91
 50
247.16007330622483
 51
292.83992669377517
  0
ARC
  8
_0-1_1
  6
CONTINUOUS
 62
    1
 10
212.6237475599049
 20
344.06830843609981
 40
15
 50
292.83992669377511
 51
0.0000000000000127
  0
ARC
  8
_0-1_1
  6
CONTINUOUS
 62
    1
 10
153.62374755990487
 20
344.06830843609981
 40
15
 50
180
 51
247.16007330622477
  0
ARC
  8
_0-1_1
  6
CONTINUOUS
 62
    1
 10
183.1237475599049
 20
414.10936782271932
 40
91
 50
247.16007330622483
 51
292.83992669377517
  0
ARC
  8
_0-1_1
  6
CONTINUOUS
 62
    1
 10
411.59550354180908
 20
520.10936782271949
 40
15
 50
90
 51
180
  0
ARC
  8
_0-1_1
  6
CONTINUOUS
 62
    1
 10
470.59550354180897
 20
520.10936782271938
 40
15
 50
0
 51
90
  0
LINE
  8
_0-1_1
  6
CONTINUOUS
 62
    1
 10
396.59550354180908
 20
519.60936782271949
 11
396.59550354180908
 21
344.06830843609958
  0
LINE
  8
_0-1_1
  6
CONTINUOUS
 62
    1
 10
485.59550354180908
 20
519.60936782271938
 11
485.59550354180908
 21
381.10936782271932
  0
ARC
  8
_0-1_1
  6
CONTINUOUS
 62
    1
 10
153.62374755990487
 20
520.10936782271938
 40
15
 50
90
 51
180
  0
ARC
  8
_0-1_1
  6
CONTINUOUS
 62
    1
 10
212.6237475599049
 20
520.10936782271938
 40
15
 50
0
 51
90
  0
LINE
  8
_0-1_1
  6
CONTINUOUS
 62
    1
 10
138.62374755990493
 20
344.06830843609981
 11
138.62374755990493
 21
520.10936782271938
  0
CIRCLE
  8
_0-1_1
  6
CONTINUOUS
 62
    1
 10
416.09550354180908
 20
528.60936782271938
 40
1.5
  0
CIRCLE
  8
_0-1_1
  6
CONTINUOUS
 62
    1
 10
466.09550354180908
 20
528.60936782271938
 40
1.5
  0
CIRCLE
  8
_0-1_1
  6
CONTINUOUS
 62
    1
 10
466.09550354180908
 20
333.60936782271932
 40
1.5
  0
CIRCLE
  8
_0-1_1
  6
CONTINUOUS
 62
    1
 10
416.09550354180908
 20
333.60936782271932
 40
1.5
  0
CIRCLE
  8
_0-1_1
  6
CONTINUOUS
 62
    1
 10
466.09550354180908
 20
333.60936782271932
 40
2.75
  0
CIRCLE
  8
_0-1_1
  6
CONTINUOUS
 62
    1
 10
416.09550354180908
 20
333.60936782271932
 40
2.75
  0
LINE
  8
_0-1_1
  6
CONTINUOUS
 62
    1
 10
155.37374755990487
 20
283.21415826023099
 11
145.12374755990487
 21
283.21415826023099
  0
LINE
  8
_0-1_1
  6
CONTINUOUS
 62
    1
 10
205.3737475599049
 20
283.21415826023099
 11
160.87374755990487
 21
283.21415826023099
  0
CIRCLE
  8
_0-1_1
  6
CONTINUOUS
 62
    1
 10
466.09550354180908
 20
528.60936782271938
 40
2.75
  0
CIRCLE
  8
_0-1_1
  6
CONTINUOUS
 62
    1
 10
416.09550354180908
 20
528.60936782271938
 40
2.75
  0
LINE
  8
_0-1_1
  6
CONTINUOUS
 62
    1
 10
470.59550354180897
 20
535.10936782271938
 11
411.59550354180908
 21
535.10936782271949
  0
LINE
  8
_0-1_1
  6
CONTINUOUS
 62
    1
 10
466.09550354180908
 20
341.10936782271932
 11
416.09550354180908
 21
341.10936782271932
  0
ARC
  8
_0-1_1
  6
CONTINUOUS
 62
    1
 10
466.09550354180908
 20
351.10936782271932
 40
10
 50
270
 51
280.95278419889428
  0
LINE
  8
_0-1_1
  6
CONTINUOUS
 62
    1
 10
472.59550354180908
 20
525.60936782271938
 11
468.34550354180948
 21
525.60936782271938
  0
ARC
  8
_0-1_1
  6
CONTINUOUS
 62
    1
 10
409.59550354180908
 20
518.10936782271938
 40
7.5
 50
90
 51
180
  0
ARC
  8
_0-1_1
  6
CONTINUOUS
 62
    1
 10
472.59550354180908
 20
518.10936782271938
 40
7.5
 50
0
 51
90
  0
LINE
  8
_0-1_1
  6
CONTINUOUS
 62
    1
 10
480.09550354180897
 20
347.14855838914099
 11
480.09550354180897
 21
358.10936782271932
  0
LINE
  8
_0-1_1
  6
CONTINUOUS
 62
    1
 10
402.09550354180908
 20
347.14855838914099
 11
402.09550354180908
 21
518.10936782271938
  0
ARC
  8
_0-1_1
  6
CONTINUOUS
 62
    1
 10
472.59550354180908
 20
347.14855838914099
 40
7.5
 50
295.19343897467263
 51
0.0000000000000254
  0
ARC
  8
_0-1_1
  6
CONTINUOUS
 62
    1
 10
441.09550354180908
 20
414.10936782271932
 40
81.5
 50
244.80656102532734
 51
251.01721809212427
  0
ARC
  8
_0-1_1
  6
CONTINUOUS
 62
    1
 10
409.59550354180908
 20
347.14855838914099
 40
7.5
 50
180
 51
244.80656102532728
  0
LINE
  8
_0-1_1
  6
CONTINUOUS
 62
    1
 10
221.1237475599049
 20
283.21415826023099
 11
210.8737475599049
 21
283.21415826023099
  0
LINE
  8
_0-1_1
  6
CONTINUOUS
 62
    1
 10
138.62374755990493
 20
287.71415826023087
 11
138.62374755990493
 21
288.71415826023087
  0
ARC
  8
_0-1_1
  6
CONTINUOUS
 62
    1
 10
142.62374755990487
 20
288.71415826023087
 40
4
 50
90
 51
180
  0
LINE
  8
_0-1_1
  6
CONTINUOUS
 62
    1
 10
227.6237475599049
 20
288.71415826023087
 11
227.6237475599049
 21
287.71415826023139
  0
ARC
  8
_0-1_1
  6
CONTINUOUS
 62
    1
 10
223.6237475599049
 20
288.71415826023087
 40
4
 50
0
 51
90
  0
LINE
  8
_0-1_1
  6
CONTINUOUS
 62
    1
 10
305.33551018810329
 20
535.10936782271938
 11
306.33551018810329
 21
535.10936782271938
  0
ARC
  8
_0-1_1
  6
CONTINUOUS
 62
    1
 10
305.33551018810329
 20
531.10936782271938
 40
4
 50
90
 51
180
  0
LINE
  8
_0-1_1
  6
CONTINUOUS
 62
    1
 10
305.33551018810277
 20
323.10936782271932
 11
306.33551018810277
 21
323.10936782271932
  0
ARC
  8
_0-1_1
  6
CONTINUOUS
 62
    1
 10
305.33551018810277
 20
327.10936782271932
 40
4
 50
180
 51
270
  0
LINE
  8
_0-1_1
  6
CONTINUOUS
 62
    1
 10
223.6237475599049
 20
292.71415826023087
 11
142.62374755990487
 21
292.71415826023087
  0
ARC
  8
_0-1_1
  6
H5
 62
    6
 10
303.83551018810289
 20
331.60936782271932
 40
2.5
 50
90
 51
180
  0
LINE
  8
_0-1_1
  6
CONTINUOUS
 62
    1
 10
301.33551018810289
 20
531.10936782271938
 11
301.33551018810289
 21
327.10936782271932
  0
LINE
  8
_0-1_1
  6
H5
 62
    6
 10
309.33551018810329
 20
524.10936782271938
 11
309.33551018810277
 21
334.10936782271932
  0
LINE
  8
_0-1_1
  6
H5
 62
    6
 10
303.83551018810289
 20
524.10936782271938
 11
309.33551018810329
 21
524.10936782271938
  0
LINE
  8
_0-1_1
  6
H5
 62
    6
 10
303.83551018810289
 20
334.10936782271932
 11
309.33551018810277
 21
334.10936782271932
  0
LINE
  8
_0-1_1
  6
CONTINUOUS
 62
    1
 10
138.62374755990493
 20
287.71415826023087
 11
227.6237475599049
 21
287.71415826023372
  0
LINE
  8
_0-1_1
  6
CONTINUOUS
 62
    1
 10
144.12374755990487
 20
284.21415826023087
 11
144.12374755990487
 21
287.71415826023139
  0
ARC
  8
_0-1_1
  6
CONTINUOUS
 62
    1
 10
145.12374755990487
 20
284.21415826023087
 40
1
 50
180
 51
270
  0
LINE
  8
_0-1_1
  6
CONTINUOUS
 62
    1
 10
222.12374755990447
 20
287.71415826023139
 11
222.1237475599049
 21
284.21415826023087
  0
ARC
  8
_0-1_1
  6
CONTINUOUS
 62
    1
 10
221.1237475599049
 20
284.21415826023087
 40
1
 50
270
 51
0
  0
LINE
  8
_0-1_1
  6
CONTINUOUS
 62
    1
 10
212.6237475599049
 20
535.10936782271938
 11
153.62374755990487
 21
535.10936782271938
  0
LINE
  8
_0-1_1
  6
CONTINUOUS
 62
    1
 10
306.33551018810329
 20
525.60936782271938
 11
309.83551018810329
 21
525.60936782271938
  0
LINE
  8
_0-1_1
  6
CONTINUOUS
 62
    1
 10
306.33551018810277
 20
535.10936782271938
 11
306.33551018810277
 21
323.10936782271932
  0
LINE
  8
_0-1_1
  6
CONTINUOUS
 62
    1
 10
306.33551018810277
 20
332.60936782271932
 11
309.83551018810289
 21
332.60936782271932
  0
ARC
  8
_0-1_1
  6
CONTINUOUS
 62
    1
 10
309.83551018810289
 20
333.60936782271932
 40
1
 50
270
 51
0
  0
ARC
  8
_0-1_1
  6
CONTINUOUS
 62
    1
 10
309.83551018810329
 20
524.60936782271938
 40
1
 50
0
 51
90
  0
LINE
  8
_0-1_1
  6
CONTINUOUS
 62
    1
 10
306.33551018810277
 20
330.85936782271932
 11
315.33551018810277
 21
330.85936782271932
  0
LINE
  8
_0-1_1
  6
CONTINUOUS
 62
    1
 10
310.83551018810277
 20
336.35936782271932
 11
315.33551018810277
 21
336.35936782271932
  0
LINE
  8
_0-1_1
  6
CONTINUOUS
 62
    1
 10
315.83551018810289
 20
335.85936782271932
 11
315.83551018810289
 21
331.35936782271932
  0
ARC
  8
_0-1_1
  6
CONTINUOUS
 62
    1
 10
315.33551018810277
 20
335.85936782271932
 40
0.5
 50
0
 51
90
  0
ARC
  8
_0-1_1
  6
CONTINUOUS
 62
    1
 10
315.33551018810277
 20
331.35936782271932
 40
0.5
 50
270
 51
0
  0
ARC
  8
_0-1_1
  6
CONTINUOUS
 62
    1
 10
315.33551018810329
 20
526.35936782271938
 40
0.5
 50
270
 51
0
  0
ARC
  8
_0-1_1
  6
CONTINUOUS
 62
    1
 10
315.33551018810329
 20
530.85936782271938
 40
0.5
 50
0
 51
90
  0
LINE
  8
_0-1_1
  6
CONTINUOUS
 62
    1
 10
315.83551018810329
 20
530.85936782271938
 11
315.83551018810329
 21
526.35936782271938
  0
LINE
  8
_0-1_1
  6
CONTINUOUS
 62
    1
 10
306.33551018810329
 20
531.35936782271915
 11
315.33551018810329
 21
531.35936782271938
  0
LINE
  8
_0-1_1
  6
CONTINUOUS
 62
    1
 10
306.33551018810329
 20
525.85936782271892
 11
315.33551018810329
 21
525.85936782271938
  0
LINE
  8
_0-1_1
  6
CONTINUOUS
 62
    1
 10
210.3737475599049
 20
278.21415826023087
 11
205.8737475599049
 21
278.21415826023087
  0
LINE
  8
_0-1_1
  6
CONTINUOUS
 62
    1
 10
155.37374755990487
 20
287.71415826023087
 11
155.37374755990487
 21
278.71415826023087
  0
LINE
  8
_0-1_1
  6
CONTINUOUS
 62
    1
 10
160.87374755990487
 20
287.71415826023087
 11
160.87374755990487
 21
278.71415826023087
  0
LINE
  8
_0-1_1
  6
CONTINUOUS
 62
    1
 10
210.8737475599049
 20
287.71415826023087
 11
210.8737475599049
 21
278.71415826023087
  0
LINE
  8
_0-1_1
  6
CONTINUOUS
 62
    1
 10
205.3737475599049
 20
287.71415826023087
 11
205.3737475599049
 21
278.71415826023087
  0
LINE
  8
_0-1_1
  6
CONTINUOUS
 62
    1
 10
160.37374755990487
 20
278.21415826023087
 11
155.87374755990487
 21
278.21415826023087
  0
LINE
  8
_0-4_4
  6
CONTINUOUS
 62
    4
 10
485.09550354180908
 20
381.10936782271932
 11
485.09550354180908
 21
358.10936782271932
  0
LINE
  8
_0-4_4
  6
CONTINUOUS
 62
    4
 10
479.09550354180897
 20
381.10936782271932
 11
479.09550354180897
 21
358.10936782271932
  0
ARC
  8
_0-2_2
  6
CONTINUOUS
 62
    2
 10
73.030052073763613
 20
516.60936782271938
 40
5.7812499999999201
 50
145.7945420618928
 51
214.20545793810717
  0
LINE
  8
_0-2_2
  6
CONTINUOUS
 62
    2
 10
68.248802073763613
 20
513.35936782271938
 11
68.248802073763613
 21
519.85936782271915
  0
LINE
  8
_0-2_2
  6
CONTINUOUS
 62
    2
 10
69.248802073763613
 20
519.85936782271915
 11
68.248802073763613
 21
519.85936782271915
  0
LINE
  8
_0-2_2
  6
CONTINUOUS
 62
    2
 10
69.248802073763613
 20
513.35936782271938
 11
68.248802073763613
 21
513.35936782271938
  0
ARC
  8
_0-2_2
  6
CONTINUOUS
 62
    2
 10
76.030052073764978
 20
438.60936782271921
 40
5.7812499999999201
 50
145.7945420618928
 51
214.20545793810717
  0
LINE
  8
_0-2_2
  6
CONTINUOUS
 62
    2
 10
71.248802073764978
 20
435.35936782271932
 11
71.248802073764978
 21
441.85936782271932
  0
LINE
  8
_0-2_2
  6
CONTINUOUS
 62
    2
 10
72.248802073764978
 20
441.85936782271932
 11
71.248802073764978
 21
441.85936782271932
  0
LINE
  8
_0-2_2
  6
CONTINUOUS
 62
    2
 10
72.248802073764978
 20
435.35936782271932
 11
71.248802073764978
 21
435.35936782271932
  0
LINE
  8
_0-2_2
  6
CONTINUOUS
 62
    2
 10
69.248802073763613
 20
346.85936782271932
 11
68.248802073763613
 21
346.85936782271932
  0
LINE
  8
_0-2_2
  6
CONTINUOUS
 62
    2
 10
69.248802073763613
 20
353.35936782271932
 11
68.248802073763613
 21
353.35936782271932
  0
LINE
  8
_0-2_2
  6
CONTINUOUS
 62
    2
 10
68.248802073763613
 20
346.85936782271932
 11
68.248802073763613
 21
353.35936782271932
  0
ARC
  8
_0-2_2
  6
CONTINUOUS
 62
    2
 10
73.030052073763613
 20
350.10936782271932
 40
5.7812499999999201
 50
145.7945420618928
 51
214.20545793810717
  0
LINE
  8
_0-2_2
  6
CONTINUOUS
 62
    2
 10
323.3355101881038
 20
513.35936782271892
 11
324.3355101881038
 21
513.35936782271892
  0
LINE
  8
_0-2_2
  6
CONTINUOUS
 62
    2
 10
323.3355101881038
 20
519.85936782271915
 11
324.3355101881038
 21
519.85936782271915
  0
LINE
  8
_0-2_2
  6
CONTINUOUS
 62
    2
 10
324.3355101881038
 20
513.35936782271892
 11
324.3355101881038
 21
519.85936782271915
  0
ARC
  8
_0-2_2
  6
CONTINUOUS
 62
    2
 10
319.55426018810419
 20
516.60936782271915
 40
5.7812499999999201
 50
325.79454206189274
 51
34.205457938107173
  0
ARC
  8
_0-2_2
  6
CONTINUOUS
 62
    2
 10
319.55426018810289
 20
350.10936782271932
 40
5.7812499999999201
 50
325.79454206189274
 51
34.205457938107173
  0
LINE
  8
_0-2_2
  6
CONTINUOUS
 62
    2
 10
324.33551018810289
 20
346.85936782271909
 11
324.33551018810289
 21
353.35936782271909
  0
LINE
  8
_0-2_2
  6
CONTINUOUS
 62
    2
 10
323.33551018810277
 20
353.35936782271909
 11
324.33551018810289
 21
353.35936782271909
  0
LINE
  8
_0-2_2
  6
CONTINUOUS
 62
    2
 10
323.33551018810277
 20
346.85936782271909
 11
324.33551018810289
 21
346.85936782271909
  0
LINE
  8
_0-4_4
  6
CONTINUOUS
 62
    4
 10
474.59550354180908
 20
358.10936782271932
 11
474.59550354180908
 21
357.60936782271932
  0
LINE
  8
_0-4_4
  6
CONTINUOUS
 62
    4
 10
471.59550354180897
 20
357.60936782271932
 11
476.09550354180897
 21
357.60936782271932
  0
ARC
  8
_0-4_4
  6
CONTINUOUS
 62
    4
 10
503.24837645342518
 20
368.10936782271932
 40
1
 50
9.4623222080339318
 51
90.000000000000014
  0
ARC
  8
_0-4_4
  6
CONTINUOUS
 62
    4
 10
497.96187031390377
 20
368.10936782271932
 40
1
 50
90
 51
171.80913862353819
  0
ARC
  8
_0-4_4
  6
CONTINUOUS
 62
    4
 10
494.64580343638039
 20
359.10936782271932
 40
1
 50
270
 51
351.80913862353822
  0
ARC
  8
_0-4_4
  6
CONTINUOUS
 62
    4
 10
506.9426306301919
 20
358.10936782271932
 40
1
 50
189.4623222080339
 51
270
  0
ARC
  8
_0-4_4
  6
CONTINUOUS
 62
    4
 10
507.38049265968937
 20
360.10936782271932
 40
3
 50
270
 51
350.9152797126103
  0
ARC
  8
_0-4_4
  6
CONTINUOUS
 62
    4
 10
507.38049265968937
 20
378.10936782271932
 40
3
 50
9.0847202873896968
 51
90
  0
LINE
  8
_0-4_4
  6
CONTINUOUS
 62
    4
 10
497.96187031390377
 20
369.10936782271932
 11
503.24837645342518
 21
369.10936782271932
  0
LINE
  8
_0-4_4
  6
CONTINUOUS
 62
    4
 10
496.97207134640377
 20
368.25183888622331
 11
495.6356024038804
 21
358.96689675921562
  0
LINE
  8
_0-4_4
  6
CONTINUOUS
 62
    4
 10
494.64580343638039
 20
358.10936782271932
 11
471.59550354180897
 21
358.10936782271932
  0
ARC
  8
_0-4_4
  6
CONTINUOUS
 62
    4
 10
451.09550354180806
 20
369.10936782271932
 40
60
 50
350.9152797126103
 51
9.0847202873896897
  0
LINE
  8
_0-4_4
  6
CONTINUOUS
 62
    4
 10
504.23477037725786
 20
368.27376681002482
 11
505.95623670635939
 21
357.9449688354141
  0
LINE
  8
_0-4_4
  6
CONTINUOUS
 62
    4
 10
506.9426306301919
 20
357.10936782271932
 11
507.38049265968937
 21
357.10936782271932
  0
LINE
  8
_0-4_4
  6
CONTINUOUS
 62
    4
 10
471.59550354180897
 20
381.10936782271932
 11
507.38049265968937
 21
381.10936782271932
  0
INSERT
  2
-001-SUG-AR06
  8
_0-4_4
 10
4716.1806219816417
 20
3051.0784469609002
 41
1
 42
1
 50
0
  0
INSERT
  2
-001-SUG-AR06
  8
_0-4_4
 10
4716.1806219816417
 20
3051.0784469609002
 41
0.5
 42
0.5
 50
0
  0
INSERT
  2
-001-SUG-AR06
  8
_0-4_4
 10
4812.4083068612126
 20
3008.5812514983772
 41
0.5
 42
0.5
 50
0
  0
INSERT
  2
-001-SUG-AR06
  8
_0-4_4
 10
4908.2806219816421
 20
3184.6784469609001
 41
0.5
 42
0.5
 50
0
  0
ARC
  8
_0-2_2
  6
H5
 62
    7
 10
-806.75119792623536
 20
456.10936782271267
 40
900
 50
3.8204263434172874
 51
4.0609978001278408
  0
ARC
  8
_0-2_2
  6
CONTINUOUS
 62
    2
 10
-806.75119792623536
 20
456.10936782271267
 40
900
 50
356.17957365656969
 51
3.8204263434172967
  0
ARC
  8
_0-2_2
  6
CONTINUOUS
 62
    2
 10
1199.3355101881039
 20
456.10936782271898
 40
900
 50
176.1795736565827
 51
183.8204263434173
  0
ARC
  8
_0-2_2
  6
H4
 62
    7
 10
1199.3355101881039
 20
456.10936782271898
 40
900
 50
183.8204263434173
 51
185.40390060322019
  0
LINE
  8
_0-8_S
  6
CONTINUOUS
 62
    6
 10
186.1237475599049
 20
323.10936782271932
 11
240.89939313706498
 21
323.10936782271932
  0
LINE
  8
_0-8_S
  6
CONTINUOUS
 62
    6
 10
238.89939313706498
 20
323.10936782271932
 11
238.89939313706498
 21
369.10936782271932
  0
LINE
  8
_0-8_S
  6
CONTINUOUS
 62
    6
 10
219.6237475599049
 20
369.10936782271932
 11
240.89939313706498
 21
369.10936782271932
  0
INSERT
  2
-000-SUG-AR01
  8
_0-8_S
 10
238.89939313706498
 20
323.10936782271932
 41
1
 42
1
 50
90
  0
INSERT
  2
-000-SUG-AR01
  8
_0-8_S
 10
238.89939313706498
 20
369.10936782271932
 41
1
 42
1
 50
270
  0
TEXT
  8
_0-8_S
 62
    7
 10
237.09939313706479
 20
341.3950821084336
 40
6
 41
1
 50
90
  1
46
  0
LINE
  8
_0-8_S
  6
CONTINUOUS
 62
    6
 10
238.89939313706498
 20
369.10936782271932
 11
238.89939313706498
 21
524.10936782271892
  0
LINE
  8
_0-8_S
  6
CONTINUOUS
 62
    6
 10
217.6237475599049
 20
524.10936782271892
 11
240.89939313706498
 21
524.10936782271892
  0
INSERT
  2
-000-SUG-AR01
  8
_0-8_S
 10
238.89939313706498
 20
369.10936782271932
 41
1
 42
1
 50
90
  0
INSERT
  2
-000-SUG-AR01
  8
_0-8_S
 10
238.89939313706498
 20
524.10936782271892
 41
1
 42
1
 50
270
  0
TEXT
  8
_0-8_S
 62
    7
 10
237.09939313706479
 20
439.4665106798621
 40
6
 41
1
 50
90
  1
155
  0
LINE
  8
_0-8_S
  6
CONTINUOUS
 62
    6
 10
238.89939313706498
 20
524.10936782271892
 11
238.89939313706498
 21
535.10936782271938
  0
LINE
  8
_0-8_S
  6
CONTINUOUS
 62
    6
 10
215.6237475599049
 20
535.10936782271938
 11
240.89939313706498
 21
535.10936782271938
  0
INSERT
  2
-000-SUG-AR01
  8
_0-8_S
 10
238.89939313706498
 20
524.10936782271892
 41
1
 42
1
 50
90
  0
INSERT
  2
-000-SUG-AR01
  8
_0-8_S
 10
238.89939313706498
 20
535.10936782271938
 41
1
 42
1
 50
270
  0
TEXT
  8
_0-8_S
 62
    7
 10
237.09939313706479
 20
526.60936782271938
 40
6
 41
1
 50
90
  1
11
  0
LINE
  8
_0-4_4
  6
CONTINUOUS
 62
    4
 10
145.12374755990487
 20
263.7141582602311
 11
148.12374755990487
 21
263.7141582602311
  0
LINE
  8
_0-4_4
  6
CONTINUOUS
 62
    4
 10
146.07643875336299
 20
261.4141582602312
 11
148.12374755990487
 21
261.4141582602312
  0
LINE
  8
_0-4_4
  6
CONTINUOUS
 62
    4
 10
113.12374755990538
 20
255.41415826023101
 11
140.07643875336299
 21
255.4141582602312
  0
LINE
  8
_0-4_4
  6
CONTINUOUS
 62
    4
 10
113.12374755990538
 20
257.7141582602311
 11
139.12374755990487
 21
257.7141582602311
  0
LINE
  8
_0-4_4
  6
CONTINUOUS
 62
    4
 10
128.91864657473559
 20
257.7141582602311
 11
128.91864657473559
 21
255.4141582602312
  0
LINE
  8
_0-4_4
  6
CONTINUOUS
 62
    4
 10
126.25738078780967
 20
257.7141582602311
 11
126.25738078780967
 21
255.4141582602312
  0
LINE
  8
_0-4_4
  6
CONTINUOUS
 62
    4
 10
120.97087464828826
 20
257.7141582602311
 11
120.97087464828826
 21
255.4141582602312
  0
LINE
  8
_0-4_4
  6
CONTINUOUS
 62
    4
 10
117.92299536765211
 20
257.7141582602311
 11
117.92299536765211
 21
255.4141582602312
  0
LINE
  8
_0-4_4
  6
CONTINUOUS
 62
    4
 10
113.12374755990538
 20
257.7141582602311
 11
113.12374755990538
 21
255.4141582602312
  0
LINE
  8
_0-4_4
  6
CONTINUOUS
 62
    4
 10
145.12374755990487
 20
263.7141582602311
 11
139.12374755990487
 21
257.7141582602311
  0
LINE
  8
_0-4_4
  6
CONTINUOUS
 62
    4
 10
146.07643875336299
 20
261.4141582602312
 11
140.07643875336299
 21
255.4141582602312
  0
LINE
  8
_0-8_S
  6
CONTINUOUS
 62
    6
 10
135.62374755990493
 20
287.71415826023087
 11
98.899393137064976
 21
287.71415826023087
  0
LINE
  8
_0-8_S
  6
CONTINUOUS
 62
    6
 10
110.12374755990538
 20
257.7141582602311
 11
98.899393137064976
 21
257.7141582602311
  0
LINE
  8
_0-8_S
  6
CONTINUOUS
 62
    6
 10
100.89939313706498
 20
287.71415826023087
 11
100.89939313706498
 21
257.7141582602311
  0
INSERT
  2
-000-SUG-AR01
  8
_0-8_S
 10
100.89939313706498
 20
287.71415826023087
 41
1
 42
1
 50
270
  0
INSERT
  2
-000-SUG-AR01
  8
_0-8_S
 10
100.89939313706498
 20
257.7141582602311
 41
1
 42
1
 50
90
  0
TEXT
  8
_0-8_S
 62
    7
 10
99.099393137064794
 20
267.85701540308833
 40
6
 41
1
 50
90
  1
30
  0
LINE
  8
_0-8_S
  6
CONTINUOUS
 62
    6
 10
110.12374755990538
 20
255.41415826023101
 11
98.899393137064976
 21
255.41415826023101
  0
LINE
  8
_0-8_S
  6
CONTINUOUS
 62
    6
 10
110.12374755990538
 20
257.7141582602311
 11
98.899393137064976
 21
257.7141582602311
  0
LINE
  8
_0-8_S
  6
CONTINUOUS
 62
    6
 10
100.89939313706498
 20
231.42759614103409
 11
100.89939313706498
 21
271.71415826023122
  0
INSERT
  2
-000-SUG-AR01
  8
_0-8_S
 10
100.89939313706498
 20
255.41415826023101
 41
1
 42
1
 50
270
  0
INSERT
  2
-000-SUG-AR01
  8
_0-8_S
 10
100.89939313706498
 20
257.7141582602311
 41
1
 42
1
 50
90
  0
TEXT
  8
_0-8_S
 62
    7
 10
99.099393137064794
 20
232.34188185531968
 40
6
 41
1
 50
90
  1
2.3
  0
LINE
  8
_0-8_S
  6
CONTINUOUS
 62
    6
 10
135.62374755990493
 20
287.71415826023087
 11
98.899393137064976
 21
287.71415826023087
  0
LINE
  8
_0-8_S
  6
CONTINUOUS
 62
    6
 10
139.62374755990487
 20
292.71415826023087
 11
98.899393137064976
 21
292.71415826023087
  0
LINE
  8
_0-8_S
  6
CONTINUOUS
 62
    6
 10
100.89939313706498
 20
273.71415826023087
 11
100.89939313706498
 21
302.82759614103401
  0
INSERT
  2
-000-SUG-AR01
  8
_0-8_S
 10
100.89939313706498
 20
287.71415826023087
 41
1
 42
1
 50
270
  0
INSERT
  2
-000-SUG-AR01
  8
_0-8_S
 10
100.89939313706498
 20
292.71415826023087
 41
1
 42
1
 50
90
  0
TEXT
  8
_0-8_S
 62
    7
 10
99.099393137064794
 20
298.42759614103409
 40
6
 41
1
 50
90
  1
5
  0
LINE
  8
_0-8_S
  6
CONTINUOUS
 62
    6
 10
135.62374755990493
 20
287.71415826023087
 11
110.89939313706498
 21
287.71415826023087
  0
LINE
  8
_0-8_S
  6
CONTINUOUS
 62
    6
 10
153.22374755990478
 20
278.21415826023087
 11
110.89939313706498
 21
278.21415826023087
  0
LINE
  8
_0-8_S
  6
CONTINUOUS
 62
    6
 10
112.89939313706498
 20
287.71415826023087
 11
112.89939313706498
 21
278.21415826023087
  0
INSERT
  2
-000-SUG-AR01
  8
_0-8_S
 10
112.89939313706498
 20
287.71415826023087
 41
1
 42
1
 50
270
  0
INSERT
  2
-000-SUG-AR01
  8
_0-8_S
 10
112.89939313706498
 20
278.21415826023087
 41
1
 42
1
 50
90
  0
TEXT
  8
_0-8_S
 62
    7
 10
111.09939313706479
 20
276.6784439745166
 40
6
 41
1
 50
90
  1
9.5
  0
LINE
  8
_0-8_S
  6
CONTINUOUS
 62
    6
 10
153.62374755990487
 20
520.10936782271938
 11
132.58307579151176
 21
545.87962291364011
  0
LINE
  8
_0-8_S
  6
CONTINUOUS
 62
    6
 10
132.58307579151176
 20
545.87962291364011
 11
105.22954477481596
 21
545.87962291364011
  0
INSERT
  2
-000-SUG-AR01
  8
_0-8_S
 10
144.13709134128277
 20
531.72846218457369
 41
1
 42
1
 50
129.23064883451389
  0
TEXT
  8
_0-8_S
 62
    7
 10
105.22954477481596
 20
547.67962291363961
 40
6
 41
1
 50
0
  1
4-R15
  0
LINE
  8
_0-8_S
  6
CONTINUOUS
 62
    6
 10
416.09550354180908
 20
533.10936782271938
 11
416.09550354180908
 21
541.66848198187677
  0
LINE
  8
_0-8_S
  6
CONTINUOUS
 62
    6
 10
466.09550354180908
 20
533.10936782271938
 11
466.09550354180908
 21
541.66848198187677
  0
LINE
  8
_0-8_S
  6
CONTINUOUS
 62
    6
 10
416.09550354180908
 20
539.66848198187677
 11
466.09550354180908
 21
539.66848198187677
  0
INSERT
  2
-000-SUG-AR01
  8
_0-8_S
 10
416.09550354180908
 20
539.66848198187677
 41
1
 42
1
 50
0
  0
INSERT
  2
-000-SUG-AR01
  8
_0-8_S
 10
466.09550354180908
 20
539.66848198187677
 41
1
 42
1
 50
180
  0
TEXT
  8
_0-8_S
 62
    7
 10
436.2383606846663
 20
541.46848198187649
 40
6
 41
1
 50
0
  1
50
  0
LINE
  8
_0-8_S
  6
CONTINUOUS
 62
    6
 10
470.59550354180897
 20
528.60936782271938
 11
563.07523563522489
 21
528.60936782271938
  0
LINE
  8
_0-8_S
  6
CONTINUOUS
 62
    6
 10
561.07523563522489
 20
528.60936782271938
 11
561.07523563522489
 21
369.10936782271932
  0
LINE
  8
_0-8_S
  6
CONTINUOUS
 62
    6
 10
518.81881723403035
 20
369.10936782271932
 11
563.07523563522489
 21
369.10936782271932
  0
INSERT
  2
-000-SUG-AR01
  8
_0-8_S
 10
561.07523563522489
 20
528.60936782271938
 41
1
 42
1
 50
270
  0
INSERT
  2
-000-SUG-AR01
  8
_0-8_S
 10
561.07523563522489
 20
369.10936782271932
 41
1
 42
1
 50
90
  0
TEXT
  8
_0-8_S
 62
    7
 10
559.2752356352247
 20
437.43079639414788
 40
6
 41
1
 50
90
  1
159.5
  0
LINE
  8
_0-8_S
  6
CONTINUOUS
 62
    6
 10
561.07523563522489
 20
369.10936782271932
 11
561.07523563522489
 21
333.60936782271932
  0
LINE
  8
_0-8_S
  6
CONTINUOUS
 62
    6
 10
471.84550354180908
 20
333.60936782271932
 11
563.07523563522489
 21
333.60936782271932
  0
INSERT
  2
-000-SUG-AR01
  8
_0-8_S
 10
561.07523563522489
 20
369.10936782271932
 41
1
 42
1
 50
270
  0
INSERT
  2
-000-SUG-AR01
  8
_0-8_S
 10
561.07523563522489
 20
333.60936782271932
 41
1
 42
1
 50
90
  0
TEXT
  8
_0-8_S
 62
    7
 10
559.2752356352247
 20
342.21651067986221
 40
6
 41
1
 50
90
  1
35.5
  0
LINE
  8
_0-8_S
  6
CONTINUOUS
 62
    6
 10
406.59550354180908
 20
525.60936782271938
 11
361.07523563522489
 21
525.60936782271938
  0
LINE
  8
_0-8_S
  6
CONTINUOUS
 62
    6
 10
363.07523563522489
 20
525.60936782271938
 11
363.07523563522489
 21
369.10936782271932
  0
LINE
  8
_0-8_S
  6
CONTINUOUS
 62
    6
 10
421.40362988774029
 20
369.10936782271932
 11
361.07523563522489
 21
369.10936782271932
  0
INSERT
  2
-000-SUG-AR01
  8
_0-8_S
 10
363.07523563522489
 20
525.60936782271938
 41
1
 42
1
 50
270
  0
INSERT
  2
-000-SUG-AR01
  8
_0-8_S
 10
363.07523563522489
 20
369.10936782271932
 41
1
 42
1
 50
90
  0
TEXT
  8
_0-8_S
 62
    7
 10
361.2752356352247
 20
435.93079639414782
 40
6
 41
1
 50
90
  1
156.8
  0
LINE
  8
_0-8_S
  6
CONTINUOUS
 62
    6
 10
363.07523563522489
 20
369.10936782271932
 11
363.07523563522489
 21
332.60936782271932
  0
LINE
  8
_0-8_S
  6
CONTINUOUS
 62
    6
 10
438.09550354180908
 20
332.60936782271932
 11
361.07523563522489
 21
332.60936782271932
  0
INSERT
  2
-000-SUG-AR01
  8
_0-8_S
 10
363.07523563522489
 20
369.10936782271932
 41
1
 42
1
 50
270
  0
INSERT
  2
-000-SUG-AR01
  8
_0-8_S
 10
363.07523563522489
 20
332.60936782271932
 41
1
 42
1
 50
90
  0
TEXT
  8
_0-8_S
 62
    7
 10
361.2752356352247
 20
341.71651067986221
 40
6
 41
1
 50
90
  1
36.8
  0
LINE
  8
_0-8_S
  6
CONTINUOUS
 62
    6
 10
402.09550354180897
 20
563.43203885604112
 11
402.09550354180908
 21
528.46077164045641
  0
LINE
  8
_0-8_S
  6
CONTINUOUS
 62
    6
 10
480.09550354180908
 20
564.96423021267333
 11
480.09550354180897
 21
512.3574838774158
  0
LINE
  8
_0-8_S
  6
CONTINUOUS
 62
    6
 10
402.09550354180908
 20
550.16934473667948
 11
480.09550354180897
 21
550.16934473667948
  0
INSERT
  2
-000-SUG-AR01
  8
_0-8_S
 10
402.09550354180908
 20
550.16934473667948
 41
1
 42
1
 50
0
  0
INSERT
  2
-000-SUG-AR01
  8
_0-8_S
 10
480.09550354180897
 20
550.16934473667948
 41
1
 42
1
 50
180
  0
TEXT
  8
_0-8_S
 62
    7
 10
431.95264639895191
 20
551.96934473667943
 40
6
 41
1
 50
0
  1
78.5
  0
LINE
  8
_0-8_S
  6
CONTINUOUS
 62
    6
 10
510.38049265968931
 20
381.10936782271932
 11
533.07523563522489
 21
381.10936782271932
  0
LINE
  8
_0-8_S
  6
CONTINUOUS
 62
    6
 10
531.07523563522489
 20
381.10936782271932
 11
531.07523563522489
 21
369.10936782271932
  0
LINE
  8
_0-8_S
  6
CONTINUOUS
 62
    6
 10
518.81881723403035
 20
369.10936782271932
 11
533.07523563522489
 21
369.10936782271932
  0
INSERT
  2
-000-SUG-AR01
  8
_0-8_S
 10
531.07523563522489
 20
381.10936782271932
 41
1
 42
1
 50
270
  0
INSERT
  2
-000-SUG-AR01
  8
_0-8_S
 10
531.07523563522489
 20
369.10936782271932
 41
1
 42
1
 50
90
  0
TEXT
  8
_0-8_S
 62
    7
 10
529.2752356352247
 20
370.82365353700499
 40
6
 41
1
 50
90
  1
12
  0
LINE
  8
_0-8_S
  6
CONTINUOUS
 62
    6
 10
531.07523563522489
 20
369.10936782271932
 11
531.07523563522489
 21
357.10936782271932
  0
LINE
  8
_0-8_S
  6
CONTINUOUS
 62
    6
 10
509.94263063019201
 20
357.10936782271932
 11
533.07523563522489
 21
357.10936782271932
  0
INSERT
  2
-000-SUG-AR01
  8
_0-8_S
 10
531.07523563522489
 20
369.10936782271932
 41
1
 42
1
 50
270
  0
INSERT
  2
-000-SUG-AR01
  8
_0-8_S
 10
531.07523563522489
 20
357.10936782271932
 41
1
 42
1
 50
90
  0
TEXT
  8
_0-8_S
 62
    7
 10
529.2752356352247
 20
358.82365353700499
 40
6
 41
1
 50
90
  1
12
  0
LINE
  8
_0-8_S
  6
CONTINUOUS
 62
    6
 10
519.81881723403035
 20
369.10936782271932
 11
546.29501412528475
 21
369.10936782271932
  0
LINE
  8
_0-8_S
  6
CONTINUOUS
 62
    6
 10
491.69787417663548
 20
429.41492482055747
 11
508.71644548995516
 21
449.69686832402709
  0
ARC
  8
_0-8_S
  6
CONTINUOUS
 62
    6
 10
441.09550354180908
 20
369.10936782271932
 40
103.199510583476
 50
0
 51
50.000000000004107
  0
INSERT
  2
-000-SUG-AR01
  8
_0-8_S
 10
544.29501412528487
 20
369.10936782271932
 41
1
 42
1
 50
91.663709993138738
  0
INSERT
  2
-000-SUG-AR01
  8
_0-8_S
 10
507.43087027058186
 20
448.16477943778921
 41
1
 42
1
 50
318.33629000688001
  0
TEXT
  8
_0-8_S
 62
    7
 10
534.66015634592861
 20
405.55156294293818
 40
6
 41
1
 50
115.00000000000389
  1
50゜
  0
LINE
  8
_0-8_S
  6
CONTINUOUS
 62
    6
 10
441.09550354180908
 20
308.2275961410341
 11
504.09550354180857
 21
308.2275961410341
  0
INSERT
  2
-000-SUG-AR01
  8
_0-8_S
 10
441.09550354180908
 20
308.2275961410341
 41
1
 42
1
 50
0
  0
INSERT
  2
-000-SUG-AR01
  8
_0-8_S
 10
504.09550354180857
 20
308.2275961410341
 41
1
 42
1
 50
180
  0
TEXT
  8
_0-8_S
 62
    7
 10
467.73836068466579
 20
310.02759614103411
 40
6
 41
1
 50
0
  1
63
  0
INSERT
  2
-000-SUG-AR01
  8
_0-8_S
 10
504.09550354180857
 20
308.2275961410341
 41
1
 42
1
 50
180
  0
LINE
  8
_0-8_S
  6
CONTINUOUS
 62
    6
 10
497.09550354180857
 20
366.10936782271932
 11
497.09550354180857
 21
318.2275961410341
  0
LINE
  8
_0-8_S
  6
CONTINUOUS
 62
    6
 10
504.09550354180857
 20
366.10936782271932
 11
504.09550354180857
 21
318.2275961410341
  0
LINE
  8
_0-8_S
  6
CONTINUOUS
 62
    6
 10
483.09550354180857
 20
320.2275961410341
 11
518.09550354180851
 21
320.2275961410341
  0
INSERT
  2
-000-SUG-AR01
  8
_0-8_S
 10
497.09550354180857
 20
320.2275961410341
 41
1
 42
1
 50
180
  0
INSERT
  2
-000-SUG-AR01
  8
_0-8_S
 10
504.09550354180857
 20
320.2275961410341
 41
1
 42
1
 50
0
  0
TEXT
  8
_0-8_S
 62
    7
 10
498.59550354180857
 20
322.02759614103411
 40
6
 41
1
 50
0
  1
7
  0
LINE
  8
_0-4_4
  6
CONTINUOUS
 62
    4
 10
138.62374755990493
 20
381.10936782271932
 11
116.83875844202419
 21
381.10936782271932
  0
LINE
  8
_0-4_4
  6
CONTINUOUS
 62
    4
 10
117.27662047152205
 20
357.10936782271932
 11
116.83875844202419
 21
357.10936782271932
  0
LINE
  8
_0-4_4
  6
CONTINUOUS
 62
    4
 10
119.98448072445615
 20
368.27376681002482
 11
118.26301439535416
 21
357.9449688354141
  0
ARC
  8
_0-4_4
  6
CONTINUOUS
 62
    4
 10
173.12374755990538
 20
369.10936782271932
 40
60
 50
170.9152797126103
 51
189.0847202873897
  0
LINE
  8
_0-4_4
  6
CONTINUOUS
 62
    4
 10
129.57344766533367
 20
358.10936782271932
 11
138.62374755990493
 21
358.10936782271932
  0
LINE
  8
_0-4_4
  6
CONTINUOUS
 62
    4
 10
127.24717975531019
 20
368.25183888622331
 11
128.58364869783361
 21
358.96689675921562
  0
LINE
  8
_0-4_4
  6
CONTINUOUS
 62
    4
 10
126.25738078781012
 20
369.10936782271932
 11
120.97087464828826
 21
369.10936782271932
  0
ARC
  8
_0-4_4
  6
CONTINUOUS
 62
    4
 10
116.83875844202419
 20
378.10936782271932
 40
3
 50
90
 51
170.9152797126103
  0
ARC
  8
_0-4_4
  6
CONTINUOUS
 62
    4
 10
116.83875844202419
 20
360.10936782271932
 40
3
 50
189.0847202873897
 51
270
  0
ARC
  8
_0-4_4
  6
CONTINUOUS
 62
    4
 10
117.27662047152205
 20
358.10936782271932
 40
1
 50
270
 51
350.53767779196608
  0
ARC
  8
_0-4_4
  6
CONTINUOUS
 62
    4
 10
129.57344766533367
 20
359.10936782271932
 40
1
 50
188.19086137646181
 51
270
  0
ARC
  8
_0-4_4
  6
CONTINUOUS
 62
    4
 10
126.25738078781012
 20
368.10936782271932
 40
1
 50
8.190861376461779
 51
90
  0
ARC
  8
_0-4_4
  6
CONTINUOUS
 62
    4
 10
120.97087464828826
 20
368.10936782271932
 40
1
 50
90
 51
170.53767779196599
  0
LINE
  8
_0-4_4
  6
CONTINUOUS
 62
    4
 10
56.248802073763613
 20
381.10936782271932
 11
56.248802073763613
 21
357.10936782271932
  0
LINE
  8
_0-4_4
  6
CONTINUOUS
 62
    4
 10
58.548802073763795
 20
357.10936782271932
 11
56.248802073763613
 21
357.10936782271932
  0
LINE
  8
_0-4_4
  6
CONTINUOUS
 62
    4
 10
62.248802073763159
 20
381.10936782271932
 11
56.248802073763613
 21
381.10936782271932
  0
LINE
  8
_0-4_4
  6
CONTINUOUS
 62
    4
 10
58.548802073763795
 20
381.10936782271932
 11
58.548802073763795
 21
357.10936782271932
  0
CIRCLE
  8
_0-3_3
  6
CONTINUOUS
 62
    3
 10
612.64309065779287
 20
511.83765273740698
 40
1
  0
CIRCLE
  8
_0-3_3
  6
CONTINUOUS
 62
    3
 10
637.64309065779287
 20
511.83765273740698
 40
1
  0
ARC
  8
_0-3_3
  6
CONTINUOUS
 62
    3
 10
640.14309065779275
 20
505.83765273740698
 40
5
 50
0
 51
90
  0
ARC
  8
_0-3_3
  6
CONTINUOUS
 62
    3
 10
610.14309065779241
 20
505.83765273740698
 40
5
 50
90
 51
180
  0
LINE
  8
_0-3_3
  6
CONTINUOUS
 62
    3
 10
640.14309065779275
 20
510.83765273740698
 11
639.37514146536103
 21
510.83765273740698
  0
ARC
  8
_0-3_3
  6
CONTINUOUS
 62
    3
 10
640.14309065779275
 20
504.08765273740698
 40
5
 50
0
 51
90
  0
ARC
  8
_0-3_3
  6
CONTINUOUS
 62
    3
 10
610.14309065779241
 20
504.08765273740698
 40
5
 50
90
 51
180
  0
LINE
  8
_0-3_3
  6
CONTINUOUS
 62
    3
 10
640.14309065779275
 20
509.08765273740698
 11
610.14309065779241
 21
509.08765273740698
  0
ARC
  8
_0-3_3
  6
CONTINUOUS
 62
    3
 10
640.14309065779275
 20
422.3376527374071
 40
5
 50
270
 51
0
  0
ARC
  8
_0-3_3
  6
CONTINUOUS
 62
    3
 10
610.14309065779275
 20
422.3376527374071
 40
5
 50
180
 51
270
  0
LINE
  8
_0-3_3
  6
CONTINUOUS
 62
    3
 10
640.14309065779275
 20
417.33765273740698
 11
610.14309065779275
 21
417.33765273740698
  0
ARC
  8
_0-3_3
  6
CONTINUOUS
 62
    3
 10
625.14309065779287
 20
454.58765273740698
 40
41.25
 50
245.55666457230029
 51
250.29032809998637
  0
ARC
  8
_0-3_3
  6
CONTINUOUS
 62
    3
 10
722.04104739966476
 20
422.3376527374071
 40
5
 50
180
 51
270
  0
ARC
  8
_0-3_3
  6
CONTINUOUS
 62
    3
 10
752.04104739966476
 20
422.3376527374071
 40
5
 50
270
 51
0
  0
LINE
  8
_0-3_3
  6
CONTINUOUS
 62
    3
 10
722.04104739966476
 20
417.33765273740698
 11
752.04104739966476
 21
417.33765273740698
  0
ARC
  8
_0-3_3
  6
CONTINUOUS
 62
    3
 10
752.04104739966476
 20
504.08765273740698
 40
5
 50
0
 51
90
  0
ARC
  8
_0-3_3
  6
CONTINUOUS
 62
    3
 10
722.04104739966476
 20
504.08765273740698
 40
5
 50
90
 51
180
  0
CIRCLE
  8
_0-3_3
  6
CONTINUOUS
 62
    3
 10
749.54104739966465
 20
511.83765273740698
 40
1
  0
CIRCLE
  8
_0-3_3
  6
CONTINUOUS
 62
    3
 10
724.54104739966465
 20
511.83765273740698
 40
1
  0
CIRCLE
  8
_0-3_3
  6
H5
 62
    6
 10
749.54104739966465
 20
511.83765273740698
 40
1.875
  0
CIRCLE
  8
_0-3_3
  6
H5
 62
    6
 10
724.54104739966465
 20
511.83765273740698
 40
1.875
  0
LINE
  8
_0-3_3
  6
CONTINUOUS
 62
    3
 10
694.6897096532806
 20
510.83765273740698
 11
696.93970965327867
 21
510.83765273740698
  0
LINE
  8
_0-3_3
  6
CONTINUOUS
 62
    3
 10
722.04104739966476
 20
509.08765273740698
 11
752.04104739966476
 21
509.08765273740698
  0
LINE
  8
_0-3_3
  6
CONTINUOUS
 62
    3
 10
757.04104739966465
 20
504.08765273740698
 11
757.04104739966465
 21
422.3376527374071
  0
LINE
  8
_0-3_3
  6
CONTINUOUS
 62
    3
 10
717.04104739966465
 20
504.08765273740698
 11
717.04104739966465
 21
422.3376527374071
  0
LINE
  8
_0-3_3
  6
CONTINUOUS
 62
    3
 10
645.14309065779287
 20
421.58670578129647
 11
645.14309065779287
 21
505.83765273740698
  0
LINE
  8
_0-3_3
  6
CONTINUOUS
 62
    3
 10
605.14309065779241
 20
421.58670578129647
 11
605.14309065779241
 21
505.83765273740698
  0
LINE
  8
_0-3_3
  6
CONTINUOUS
 62
    3
 10
703.68970965327969
 20
509.08765273740698
 11
703.68970965327969
 21
520.72652526829631
  0
LINE
  8
_0-3_3
  6
CONTINUOUS
 62
    3
 10
696.93970965327969
 20
509.08765273740698
 11
703.68970965327969
 21
509.08765273740698
  0
LINE
  8
_0-3_3
  6
CONTINUOUS
 62
    3
 10
696.93970965327969
 20
509.08765273740698
 11
696.93970965327867
 21
510.83765273740698
  0
LINE
  8
_0-3_3
  6
CONTINUOUS
 62
    3
 10
694.68970965327969
 20
513.83765273740698
 11
694.68970965327969
 21
520.72652526829631
  0
LINE
  8
_0-3_3
  6
CONTINUOUS
 62
    3
 10
696.93970965327867
 20
417.33765273740698
 11
703.68970965327867
 21
417.33765273740698
  0
LINE
  8
_0-3_3
  6
CONTINUOUS
 62
    3
 10
694.68970965327867
 20
410.3376527374071
 11
696.93970965327867
 21
410.3376527374071
  0
LINE
  8
_0-3_3
  6
CONTINUOUS
 62
    3
 10
703.68970965327867
 20
509.08765273740698
 11
703.68970965327867
 21
405.84607063362722
  0
LINE
  8
_0-3_3
  6
CONTINUOUS
 62
    3
 10
694.6897096532806
 20
513.83765273740698
 11
694.68970965327867
 21
405.84607063362722
  0
CIRCLE
  8
_0-3_3
  6
H5
 62
    6
 10
724.54104739966465
 20
414.3376527374071
 40
1.875
  0
CIRCLE
  8
_0-3_3
  6
H5
 62
    6
 10
749.54104739966465
 20
414.3376527374071
 40
1.875
  0
CIRCLE
  8
_0-3_3
  6
CONTINUOUS
 62
    3
 10
724.54104739966465
 20
414.3376527374071
 40
1
  0
CIRCLE
  8
_0-3_3
  6
CONTINUOUS
 62
    3
 10
749.54104739966465
 20
414.3376527374071
 40
1
  0
CIRCLE
  8
_0-3_3
  6
CONTINUOUS
 62
    3
 10
637.64309065779287
 20
414.3376527374071
 40
1
  0
CIRCLE
  8
_0-3_3
  6
CONTINUOUS
 62
    3
 10
612.64309065779287
 20
414.3376527374071
 40
1
  0
CIRCLE
  8
_0-3_3
  6
CONTINUOUS
 62
    3
 10
612.64309065779287
 20
414.3376527374071
 40
2
  0
CIRCLE
  8
_0-3_3
  6
CONTINUOUS
 62
    3
 10
637.64309065779287
 20
414.3376527374071
 40
2
  0
ARC
  8
_0-3_3
  6
CONTINUOUS
 62
    3
 10
625.14309065779287
 20
454.58765273740698
 40
41.25
 50
255.20436756636784
 51
284.79563243363225
  0
ARC
  8
_0-3_3
  6
CONTINUOUS
 62
    3
 10
625.14309065779287
 20
454.58765273740698
 40
41.25
 50
289.70967190001357
 51
294.44333542769971
  0
CIRCLE
  8
_0-3_3
  6
CONTINUOUS
 62
    3
 10
612.64309065779287
 20
511.83765273740698
 40
2
  0
CIRCLE
  8
_0-3_3
  6
CONTINUOUS
 62
    3
 10
637.64309065779287
 20
511.83765273740698
 40
2
  0
LINE
  8
_0-3_3
  6
CONTINUOUS
 62
    3
 10
635.9110398502238
 20
510.83765273740698
 11
614.37514146536103
 21
510.83765273740698
  0
LINE
  8
_0-3_3
  6
CONTINUOUS
 62
    3
 10
610.9110398502238
 20
510.83765273740698
 11
610.14309065779241
 21
510.83765273740698
  0
LINE
  8
_0-3_3
  6
H5
 62
    6
 10
696.93970965327867
 20
412.33765273740698
 11
699.68970965327878
 21
412.33765273740698
  0
LINE
  8
_0-3_3
  6
H5
 62
    6
 10
699.68970965327878
 20
412.33765273740698
 11
699.68970965327878
 21
416.3376527374071
  0
LINE
  8
_0-3_3
  6
H5
 62
    6
 10
699.68970965327878
 20
416.3376527374071
 11
696.93970965327867
 21
416.3376527374071
  0
LINE
  8
_0-3_3
  6
CONTINUOUS
 62
    3
 10
696.93970965327867
 20
410.3376527374071
 11
696.93970965327867
 21
421.58670578129647
  0
LINE
  8
_0-3_3
  6
H5
 62
    6
 10
699.68970965327878
 20
413.33765273740698
 11
703.68970965327867
 21
413.33765273740698
  0
LINE
  8
_0-3_3
  6
H5
 62
    6
 10
699.68970965327878
 20
415.33765273740698
 11
703.68970965327867
 21
415.33765273740698
  0
LINE
  8
_0-3_3
  6
H5
 62
    6
 10
696.93970965327867
 20
509.83765273740698
 11
699.6897096532806
 21
509.83765273740698
  0
LINE
  8
_0-3_3
  6
H5
 62
    6
 10
694.6897096532806
 20
513.83765273740698
 11
699.6897096532806
 21
513.83765273740698
  0
LINE
  8
_0-3_3
  6
H5
 62
    6
 10
699.6897096532806
 20
513.83765273740698
 11
699.6897096532806
 21
509.83765273740698
  0
LINE
  8
_0-3_3
  6
CONTINUOUS
 62
    3
 10
694.6897096532806
 20
510.83765273740698
 11
696.93970965327867
 21
510.83765273740698
  0
LINE
  8
_0-3_3
  6
H5
 62
    6
 10
699.6897096532806
 20
512.83765273740698
 11
703.68970965327969
 21
512.83765273740698
  0
LINE
  8
_0-3_3
  6
H5
 62
    6
 10
699.6897096532806
 20
510.83765273740698
 11
703.68970965327969
 21
510.83765273740698
  0
ARC
  8
_0-3_3
  6
CONTINUOUS
 62
    3
 10
640.14309065779275
 20
421.58670578129647
 40
5
 50
294.44333542769971
 51
0
  0
ARC
  8
_0-3_3
  6
CONTINUOUS
 62
    3
 10
610.14309065779241
 20
421.58670578129647
 40
5
 50
180
 51
245.55666457230029
  0
LINE
  8
_0-3_3
  6
CONTINUOUS
 62
    3
 10
696.93970965327867
 20
504.08765273740698
 11
696.93970965327867
 21
509.08765273740698
  0
TEXT
  8
_0-8_S
 62
    7
 10
649.94634743635413
 20
548.22759614103416
 40
6
 41
1
 50
0
  1
(1/4)
  0
LINE
  8
_0-8_S
  6
CONTINUOUS
 62
    6
 10
612.64309065779287
 20
515.83765273740698
 11
612.64309065779287
 21
526.22759614103416
  0
LINE
  8
_0-8_S
  6
CONTINUOUS
 62
    6
 10
637.64309065779287
 20
515.83765273740698
 11
637.64309065779287
 21
526.22759614103416
  0
LINE
  8
_0-8_S
  6
CONTINUOUS
 62
    6
 10
612.64309065779287
 20
524.22759614103416
 11
637.64309065779287
 21
524.22759614103416
  0
INSERT
  2
-000-SUG-AR01
  8
_0-8_S
 10
612.64309065779287
 20
524.22759614103416
 41
1
 42
1
 50
0
  0
INSERT
  2
-000-SUG-AR01
  8
_0-8_S
 10
637.64309065779287
 20
524.22759614103416
 41
1
 42
1
 50
180
  0
TEXT
  8
_0-8_S
 62
    7
 10
620.28594780064998
 20
526.027596141034
 40
6
 41
1
 50
0
  1
50
  0
LINE
  8
_0-8_S
  6
CONTINUOUS
 62
    6
 10
605.14309065779241
 20
507.08765273740698
 11
605.14309065779241
 21
538.22759614103416
  0
LINE
  8
_0-8_S
  6
CONTINUOUS
 62
    6
 10
645.14309065779287
 20
508.83765273740698
 11
645.14309065779287
 21
538.22759614103416
  0
LINE
  8
_0-8_S
  6
CONTINUOUS
 62
    6
 10
605.14309065779241
 20
536.22759614103416
 11
645.14309065779287
 21
536.22759614103416
  0
INSERT
  2
-000-SUG-AR01
  8
_0-8_S
 10
605.14309065779241
 20
536.22759614103416
 41
1
 42
1
 50
0
  0
INSERT
  2
-000-SUG-AR01
  8
_0-8_S
 10
645.14309065779287
 20
536.22759614103416
 41
1
 42
1
 50
180
  0
TEXT
  8
_0-8_S
 62
    7
 10
620.28594780064998
 20
538.027596141034
 40
6
 41
1
 50
0
  1
80
  0
LINE
  8
_0-8_S
  6
CONTINUOUS
 62
    6
 10
607.14309065779241
 20
509.08765273740698
 11
589.07523563522489
 21
509.08765273740698
  0
LINE
  8
_0-8_S
  6
CONTINUOUS
 62
    6
 10
607.14309065779241
 20
510.83765273740698
 11
589.07523563522489
 21
510.83765273740698
  0
LINE
  8
_0-8_S
  6
CONTINUOUS
 62
    6
 10
591.07523563522489
 20
495.08765273740698
 11
591.07523563522489
 21
530.22759614103416
  0
INSERT
  2
-000-SUG-AR01
  8
_0-8_S
 10
591.07523563522489
 20
509.08765273740698
 41
1
 42
1
 50
270
  0
INSERT
  2
-000-SUG-AR01
  8
_0-8_S
 10
591.07523563522489
 20
510.83765273740698
 41
1
 42
1
 50
90
  0
TEXT
  8
_0-8_S
 62
    7
 10
589.2752356352247
 20
514.34188185531991
 40
6
 41
1
 50
90
  1
3.5
  0
LINE
  8
_0-8_S
  6
CONTINUOUS
 62
    6
 10
643.14309065779275
 20
509.08765273740698
 11
659.07523563522534
 21
509.08765273740698
  0
LINE
  8
_0-8_S
  6
CONTINUOUS
 62
    6
 10
641.64309065779287
 20
511.83765273740698
 11
659.07523563522534
 21
511.83765273740698
  0
LINE
  8
_0-8_S
  6
CONTINUOUS
 62
    6
 10
657.07523563522534
 20
495.08765273740698
 11
657.07523563522534
 21
530.82759614103406
  0
INSERT
  2
-000-SUG-AR01
  8
_0-8_S
 10
657.07523563522534
 20
509.08765273740698
 41
1
 42
1
 50
270
  0
INSERT
  2
-000-SUG-AR01
  8
_0-8_S
 10
657.07523563522534
 20
511.83765273740698
 41
1
 42
1
 50
90
  0
TEXT
  8
_0-8_S
 62
    7
 10
655.27523563522413
 20
514.94188185531982
 40
6
 41
1
 50
90
  1
5.5
  0
LINE
  8
_0-8_S
  6
CONTINUOUS
 62
    6
 10
607.14309065779241
 20
510.83765273740698
 11
577.07523563522489
 21
510.83765273740698
  0
LINE
  8
_0-8_S
  6
CONTINUOUS
 62
    6
 10
622.14309065779275
 20
413.33765273740698
 11
577.07523563522489
 21
413.33765273740698
  0
LINE
  8
_0-8_S
  6
CONTINUOUS
 62
    6
 10
579.07523563522489
 20
510.83765273740698
 11
579.07523563522489
 21
413.33765273740698
  0
INSERT
  2
-000-SUG-AR01
  8
_0-8_S
 10
579.07523563522489
 20
510.83765273740698
 41
1
 42
1
 50
270
  0
INSERT
  2
-000-SUG-AR01
  8
_0-8_S
 10
579.07523563522489
 20
413.33765273740698
 41
1
 42
1
 50
90
  0
TEXT
  8
_0-8_S
 62
    7
 10
577.27523563522459
 20
454.94479559454987
 40
6
 41
1
 50
90
  1
195
  0
LINE
  8
_0-8_S
  6
CONTINUOUS
 62
    6
 10
607.14309065779241
 20
509.08765273740698
 11
589.07523563522489
 21
509.08765273740698
  0
LINE
  8
_0-8_S
  6
CONTINUOUS
 62
    6
 10
607.14309065779275
 20
417.33765273740698
 11
589.07523563522489
 21
417.33765273740698
  0
LINE
  8
_0-8_S
  6
CONTINUOUS
 62
    6
 10
591.07523563522489
 20
509.08765273740698
 11
591.07523563522489
 21
417.33765273740698
  0
INSERT
  2
-000-SUG-AR01
  8
_0-8_S
 10
591.07523563522489
 20
509.08765273740698
 41
1
 42
1
 50
270
  0
INSERT
  2
-000-SUG-AR01
  8
_0-8_S
 10
591.07523563522489
 20
417.33765273740698
 41
1
 42
1
 50
90
  0
TEXT
  8
_0-8_S
 62
    7
 10
589.2752356352247
 20
451.78408130883548
 40
6
 41
1
 50
90
  1
183.5
  0
LINE
  8
_0-8_S
  6
CONTINUOUS
 62
    6
 10
641.64309065779287
 20
511.83765273740698
 11
671.07523563522534
 21
511.83765273740698
  0
LINE
  8
_0-8_S
  6
CONTINUOUS
 62
    6
 10
641.64309065779287
 20
414.3376527374071
 11
671.07523563522534
 21
414.3376527374071
  0
LINE
  8
_0-8_S
  6
CONTINUOUS
 62
    6
 10
669.07523563522534
 20
511.83765273740698
 11
669.07523563522534
 21
414.3376527374071
  0
INSERT
  2
-000-SUG-AR01
  8
_0-8_S
 10
669.07523563522534
 20
511.83765273740698
 41
1
 42
1
 50
270
  0
INSERT
  2
-000-SUG-AR01
  8
_0-8_S
 10
669.07523563522534
 20
414.3376527374071
 41
1
 42
1
 50
90
  0
TEXT
  8
_0-8_S
 62
    7
 10
667.27523563522413
 20
455.94479559454982
 40
6
 41
1
 50
90
  1
195
  0
LINE
  8
_0-8_S
  6
CONTINUOUS
 62
    6
 10
625.14309065779287
 20
454.58765273740698
 11
635.30809199882538
 21
389.36147287972739
  0
LINE
  8
_0-8_S
  6
CONTINUOUS
 62
    6
 10
635.30809199882538
 20
389.36147287972739
 11
654.18712986556534
 21
389.36147287972739
  0
INSERT
  2
-000-SUG-AR01
  8
_0-8_S
 10
631.49491754375344
 20
413.82962536597051
 41
1
 42
1
 50
278.85785791307723
  0
TEXT
  8
_0-8_S
 62
    7
 10
639.13720483863722
 20
391.16147287972763
 40
6
 41
1
 50
0
  1
R82.5
  0
LINE
  8
_0-8_S
  6
CONTINUOUS
 62
    6
 10
637.64309065779287
 20
414.3376527374071
 11
644.27223786445791
 21
399.68017392840602
  0
LINE
  8
_0-8_S
  6
CONTINUOUS
 62
    6
 10
644.27223786445791
 20
399.68017392840602
 11
670.75721611218728
 21
399.68017392840602
  0
INSERT
  2
-000-SUG-AR01
  8
_0-8_S
 10
638.46725951084625
 20
412.51536140459092
 41
1
 42
1
 50
294.33584264225539
  0
TEXT
  8
_0-8_S
 62
    7
 10
646.41435896933024
 20
401.48017392840592
 40
6
 41
1
 50
0
  1
4-φ8
  0
LINE
  8
_0-8_S
  6
CONTINUOUS
 62
    6
 10
612.64309065779287
 20
414.3376527374071
 11
600.40224319064623
 21
388.13952182790553
  0
LINE
  8
_0-8_S
  6
CONTINUOUS
 62
    6
 10
600.40224319064623
 20
388.13952182790553
 11
568.34862130776798
 21
388.13952182790553
  0
INSERT
  2
-000-SUG-AR01
  8
_0-8_S
 10
612.21977776890833
 20
413.43166918451828
 41
1
 42
1
 50
244.9560785831718
  0
TEXT
  8
_0-8_S
 62
    7
 10
568.34862130776798
 20
389.93952182790548
 40
6
 41
1
 50
0
  1
4-φ4
  0
LINE
  8
_0-8_S
  6
CONTINUOUS
 62
    6
 10
606.87812445932138
 20
418.55083405639778
 11
616.15741073893264
 21
430.90782549861012
  0
LINE
  8
_0-8_S
  6
CONTINUOUS
 62
    6
 10
616.15741073893264
 20
430.90782549861012
 11
640.46926480368199
 21
430.90782549861012
  0
INSERT
  2
-000-SUG-AR01
  8
_0-8_S
 10
606.87812445932138
 20
418.55083405639778
 41
1
 42
1
 50
53.09586482151407
  0
TEXT
  8
_0-8_S
 62
    7
 10
612.75497908939633
 20
432.70782549861042
 40
6
 41
1
 50
0
  1
8-R10
  0
LINE
  8
_0-8_S
  6
CONTINUOUS
 62
    6
 10
694.68970965327969
 20
523.72652526829631
 11
694.68970965327969
 21
538.22759614103416
  0
LINE
  8
_0-8_S
  6
CONTINUOUS
 62
    6
 10
699.6897096532806
 20
516.83765273740698
 11
699.6897096532806
 21
538.22759614103416
  0
LINE
  8
_0-8_S
  6
CONTINUOUS
 62
    6
 10
679.87523563522461
 20
536.22759614103416
 11
713.68970965328049
 21
536.22759614103416
  0
INSERT
  2
-000-SUG-AR01
  8
_0-8_S
 10
694.68970965327969
 20
536.22759614103416
 41
1
 42
1
 50
180
  0
INSERT
  2
-000-SUG-AR01
  8
_0-8_S
 10
699.6897096532806
 20
536.22759614103416
 41
1
 42
1
 50
0
  0
TEXT
  8
_0-8_S
 62
    7
 10
677.98952134950991
 20
538.027596141034
 40
6
 41
1
 50
0
  1
10
  0
LINE
  8
_0-8_S
  6
CONTINUOUS
 62
    6
 10
694.68970965327969
 20
523.72652526829631
 11
694.68970965327969
 21
550.22759614103416
  0
LINE
  8
_0-8_S
  6
CONTINUOUS
 62
    6
 10
703.68970965327969
 20
523.72652526829631
 11
703.68970965327969
 21
550.22759614103416
  0
LINE
  8
_0-8_S
  6
CONTINUOUS
 62
    6
 10
682.84730463915116
 20
548.22759614103416
 11
717.58527645262564
 21
548.22759614103416
  0
INSERT
  2
-000-SUG-AR01
  8
_0-8_S
 10
694.68970965327969
 20
548.22759614103416
 41
1
 42
1
 50
180
  0
INSERT
  2
-000-SUG-AR01
  8
_0-8_S
 10
703.68970965327969
 20
548.22759614103416
 41
1
 42
1
 50
0
  0
TEXT
  8
_0-8_S
 62
    7
 10
685.58970965327967
 20
550.02759614103411
 40
6
 41
1
 50
0
  1
18～25
  0
LINE
  8
_0-8_S
  6
CONTINUOUS
 62
    6
 10
696.93970965327867
 20
501.08765273740698
 11
696.93970965327867
 21
492.2275961410341
  0
LINE
  8
_0-8_S
  6
CONTINUOUS
 62
    6
 10
673.27523563522413
 20
494.2275961410341
 11
710.93970965327878
 21
494.2275961410341
  0
INSERT
  2
-000-SUG-AR01
  8
_0-8_S
 10
694.6897096532806
 20
494.2275961410341
 41
1
 42
1
 50
180
  0
INSERT
  2
-000-SUG-AR01
  8
_0-8_S
 10
696.93970965327867
 20
494.2275961410341
 41
1
 42
1
 50
0
  0
TEXT
  8
_0-8_S
 62
    7
 10
680.87523563522461
 20
496.027596141034
 40
6
 41
1
 50
0
  1
5
  0
LINE
  8
_0-8_S
  6
CONTINUOUS
 62
    6
 10
138.62374755990493
 20
523.10936782271938
 11
138.62374755990493
 21
550.22759614103416
  0
LINE
  8
_0-8_S
  6
CONTINUOUS
 62
    6
 10
227.6237475599049
 20
523.10936782271938
 11
227.6237475599049
 21
550.22759614103416
  0
LINE
  8
_0-8_S
  6
CONTINUOUS
 62
    6
 10
138.62374755990493
 20
548.22759614103416
 11
227.6237475599049
 21
548.22759614103416
  0
INSERT
  2
-000-SUG-AR01
  8
_0-8_S
 10
138.62374755990493
 20
548.22759614103416
 41
1
 42
1
 50
0
  0
INSERT
  2
-000-SUG-AR01
  8
_0-8_S
 10
227.6237475599049
 20
548.22759614103416
 41
1
 42
1
 50
180
  0
TEXT
  8
_0-8_S
 62
    7
 10
178.40946184561918
 20
550.02759614103411
 40
6
 41
1
 50
0
  1
89
  0
INSERT
  2
-000-SUG-AR01
  8
_0-8_S
 10
196.07463280320039
 20
511.7757519778047
 41
1
 42
1
 50
33.544206208881207
  0
LINE
  8
_0-8_S
  6
CONTINUOUS
 62
    6
 10
504.09550354180857
 20
363.10936782271932
 11
504.09550354180857
 21
342.2275961410341
  0
LINE
  8
_0-8_S
  6
CONTINUOUS
 62
    6
 10
506.1001796741956
 20
351.08131102839661
 11
506.1001796741956
 21
342.2275961410341
  0
LINE
  8
_0-8_S
  6
CONTINUOUS
 62
    6
 10
490.09550354180857
 20
344.2275961410341
 11
523.87523563522495
 21
344.2275961410341
  0
INSERT
  2
-000-SUG-AR01
  8
_0-8_S
 10
504.09550354180857
 20
344.2275961410341
 41
1
 42
1
 50
180
  0
INSERT
  2
-000-SUG-AR01
  8
_0-8_S
 10
506.1001796741956
 20
344.2275961410341
 41
1
 42
1
 50
0
  0
TEXT
  8
_0-8_S
 62
    7
 10
519.47523563522498
 20
346.027596141034
 40
6
 41
1
 50
0
  1
2
  0
LINE
  8
_0-8_S
  6
CONTINUOUS
 62
    6
 10
504.09550354180857
 20
363.10936782271932
 11
504.09550354180857
 21
306.2275961410341
  0
LINE
  8
_0-8_S
  6
CONTINUOUS
 62
    6
 10
511.09550354180817
 20
366.10936782271932
 11
511.09550354180817
 21
306.2275961410341
  0
LINE
  8
_0-8_S
  6
CONTINUOUS
 62
    6
 10
490.09550354180857
 20
308.2275961410341
 11
523.27523563522459
 21
308.2275961410341
  0
INSERT
  2
-000-SUG-AR01
  8
_0-8_S
 10
504.09550354180857
 20
308.2275961410341
 41
1
 42
1
 50
180
  0
INSERT
  2
-000-SUG-AR01
  8
_0-8_S
 10
511.09550354180817
 20
308.2275961410341
 41
1
 42
1
 50
0
  0
TEXT
  8
_0-8_S
 62
    7
 10
518.87523563522495
 20
310.02759614103411
 40
6
 41
1
 50
0
  1
7
  0
LINE
  8
_0-8_S
  6
CONTINUOUS
 62
    6
 10
441.09550354180908
 20
314.25822326922952
 11
441.09550354180908
 21
306.88291227233248
  0
TEXT
  8
_0-8_S
 62
    7
 10
611.07009600458093
 20
41.932003095536572
 40
6
 41
1
 50
0
  1
（木製アウトドア用）
  0
LINE
  8
_0-8_S
  6
CONTINUOUS
 62
    6
 10
466.09550354180908
 20
528.60936782271938
 11
489.06881388907129
 21
548.38632554209789
  0
LINE
  8
_0-8_S
  6
CONTINUOUS
 62
    6
 10
489.06881388907129
 20
548.38632554209789
 11
562.00368721588325
 21
548.38632554209789
  0
INSERT
  2
-000-SUG-AR01
  8
_0-8_S
 10
467.23229412107941
 20
529.58799296999587
 41
1
 42
1
 50
40.724064387967424
  0
TEXT
  8
_0-8_S
 62
    7
 10
506.20368721588329
 20
550.18632554209807
 40
6
 41
0.6999999999999998
 50
0
  1
4-M3×0.5ネジ有効9
  0
INSERT
  2
-002-製品図-OPNUSマ__ク
  8
_0-4_4
 10
489.47523563522498
 20
26.627596141033962
 41
2
 42
2
 50
0
  0
TEXT
  8
_0-8_S
 62
    7
 10
58.310840757909205
 20
168.80785154735889
 40
6
 41
1
 50
0
  1
製品型式
  0
TEXT
  8
_0-8_S
 62
    7
 10
67.699539804120491
 20
158.47969532876019
 40
6
 41
1
 50
0
  1
EL127*B-**
  0
LINE
  8
_0-6_6
  6
CONTINUOUS
 62
    6
 10
66.643085717134795
 20
156.676698974207
 11
87.102646476680434
 21
156.676698974207
  0
LINE
  8
_0-6_6
  6
CONTINUOUS
 62
    6
 10
88.387544321848395
 20
156.676698974207
 11
92.044567587515189
 21
156.676698974207
  0
LINE
  8
_0-6_6
  6
CONTINUOUS
 62
    6
 10
93.050483288755345
 20
156.676698974207
 11
97.004024465203543
 21
156.676698974207
  0
LINE
  8
_0-6_6
  6
CONTINUOUS
 62
    6
 10
112.42813944964189
 20
156.676698974207
 11
120.03870031860686
 21
156.676698974207
  0
LINE
  8
_0-6_6
  6
CONTINUOUS
 62
    6
 10
115.27494965284029
 20
156.676698974207
 11
115.27494965284029
 21
149.80405719705379
  0
LINE
  8
_0-6_6
  6
CONTINUOUS
 62
    6
 10
95.027253876979444
 20
156.676698974207
 11
95.027253876979444
 21
134.30274426931069
  0
LINE
  8
_0-6_6
  6
CONTINUOUS
 62
    6
 10
90.216055954681792
 20
156.676698974207
 11
90.216055954681792
 21
126.5520878054391
  0
LINE
  8
_0-6_6
  6
CONTINUOUS
 62
    6
 10
76.872866096907615
 20
156.676698974207
 11
76.872866096907615
 21
118.80143134156759
  0
LINE
  8
_0-6_6
  6
CONTINUOUS
 62
    6
 10
115.27494965284029
 20
149.80405719705379
 11
127.09790849649823
 21
149.80405719705379
  0
LINE
  8
_0-6_6
  6
CONTINUOUS
 62
    6
 10
95.027253876979444
 20
134.30274426931069
 11
127.09790849649823
 21
134.30274426931069
  0
LINE
  8
_0-6_6
  6
CONTINUOUS
 62
    6
 10
90.216055954681792
 20
126.5520878054391
 11
127.09790849649823
 21
126.5520878054391
  0
LINE
  8
_0-6_6
  6
CONTINUOUS
 62
    6
 10
76.872866096907615
 20
118.80143134156759
 11
127.09790849649823
 21
118.80143134156737
  0
TEXT
  8
_0-8_S
 62
    7
 10
128.01789805205942
 20
148.89013451323962
 40
6
 41
1
 50
0
  1
連番
  0
TEXT
  8
_0-8_S
 62
    7
 10
128.01789805205942
 20
133.38882158549649
 40
6
 41
0.6999999999999998
 50
0
  1
B:ワンタイム　M:メンバー　
  0
TEXT
  8
_0-8_S
 62
    7
 10
127.09790849649823
 20
125.63816512162492
 40
6
 41
1
 50
0
  1
タイプ　7:標準
  0
TEXT
  8
_0-8_S
 62
    7
 10
128.01789805205942
 20
118.03982555139686
 40
6
 41
1
 50
0
  1
シリーズ
  0
LINE
  8
_0-8_S
  6
CONTINUOUS
 62
    6
 10
99.416812223319425
 20
156.676698974207
 11
102.28295788635376
 21
156.676698974207
  0
LINE
  8
_0-8_S
  6
CONTINUOUS
 62
    6
 10
100.84988505483659
 20
156.676698974207
 11
100.84988505483659
 21
142.05340073318229
  0
LINE
  8
_0-8_S
  6
CONTINUOUS
 62
    6
 10
100.84988505483659
 20
142.05340073318229
 11
127.09790849649823
 21
142.05340073318229
  0
TEXT
  8
_0-8_S
 62
    7
 10
127.09790849649823
 20
141.13947804936799
 40
6
 41
1
 50
0
  1
カマカム
  0
INSERT
  2
-001-SUG-AR06
  8
_0-4_4
 10
1149.0062167966839
 20
-73.524107208891166
 41
1
 42
1
 50
0
  0
INSERT
  2
-001-SUG-AR06
  8
_0-4_4
 10
1149.0062167966839
 20
-73.524107208891166
 41
0.5
 42
0.5
 50
0
  0
INSERT
  2
-001-SUG-AR06
  8
_0-4_4
 10
1245.2339016762558
 20
-116.02130267141376
 41
0.5
 42
0.5
 50
0
  0
INSERT
  2
-001-SUG-AR06
  8
_0-4_4
 10
1341.1062167966838
 20
60.075892791108856
 41
0.5
 42
0.5
 50
0
  0
INSERT
  2
-001-SUG-AR06
  8
_0-4_4
 10
2733.1178368187998
 20
-78.266078393693817
 41
1
 42
1
 50
0
  0
INSERT
  2
-001-SUG-AR06
  8
_0-4_4
 10
2733.1178368187998
 20
-78.266078393693817
 41
0.5
 42
0.5
 50
0
  0
INSERT
  2
-001-SUG-AR06
  8
_0-4_4
 10
2829.3455216983721
 20
-120.76327385621641
 41
0.5
 42
0.5
 50
0
  0
INSERT
  2
-001-SUG-AR06
  8
_0-4_4
 10
2925.2178368188011
 20
55.333921606306205
 41
0.5
 42
0.5
 50
0
  0
INSERT
  2
-001-SUG-AR06
  8
_0-4_4
 10
2835.952497060935
 20
-72.997118054450368
 41
1
 42
1
 50
0
  0
INSERT
  2
-001-SUG-AR06
  8
_0-4_4
 10
2835.952497060935
 20
-72.997118054450368
 41
0.5
 42
0.5
 50
0
  0
INSERT
  2
-001-SUG-AR06
  8
_0-4_4
 10
2932.1801819405059
 20
-115.49431351697297
 41
0.5
 42
0.5
 50
0
  0
INSERT
  2
-001-SUG-AR06
  8
_0-4_4
 10
3028.052497060934
 20
60.602881945549655
 41
0.5
 42
0.5
 50
0
  0
INSERT
  2
-001-SUG-AR06
  8
_0-4_4
 10
4420.0641170830513
 20
-77.739089239253019
 41
1
 42
1
 50
0
  0
INSERT
  2
-001-SUG-AR06
  8
_0-4_4
 10
4420.0641170830513
 20
-77.739089239253019
 41
0.5
 42
0.5
 50
0
  0
INSERT
  2
-001-SUG-AR06
  8
_0-4_4
 10
4516.2918019626222
 20
-120.23628470177562
 41
0.5
 42
0.5
 50
0
  0
INSERT
  2
-001-SUG-AR06
  8
_0-4_4
 10
4612.1641170830508
 20
55.860910760747004
 41
0.5
 42
0.5
 50
0
  0
INSERT
  2
-001-SUG-AR06
  8
_0-4_4
 10
3721.9810278477498
 20
-76.907629875916996
 41
1
 42
1
 50
0
  0
INSERT
  2
-001-SUG-AR06
  8
_0-4_4
 10
3721.9810278477498
 20
-76.907629875916996
 41
0.5
 42
0.5
 50
0
  0
INSERT
  2
-001-SUG-AR06
  8
_0-4_4
 10
3818.2087127273221
 20
-119.40482533843971
 41
0.5
 42
0.5
 50
0
  0
INSERT
  2
-001-SUG-AR06
  8
_0-4_4
 10
3914.0810278477502
 20
56.69237012408297
 41
0.5
 42
0.5
 50
0
  0
INSERT
  2
-001-SUG-AR06
  8
_0-4_4
 10
5306.0926478698657
 20
-81.649601060719704
 41
1
 42
1
 50
0
  0
INSERT
  2
-001-SUG-AR06
  8
_0-4_4
 10
5306.0926478698657
 20
-81.649601060719704
 41
0.5
 42
0.5
 50
0
  0
INSERT
  2
-001-SUG-AR06
  8
_0-4_4
 10
5402.3203327494366
 20
-124.1467965232423
 41
0.5
 42
0.5
 50
0
  0
INSERT
  2
-001-SUG-AR06
  8
_0-4_4
 10
5498.1926478698661
 20
51.950398939280319
 41
0.5
 42
0.5
 50
0
  0
INSERT
  2
-001-SUG-AR06
  8
_0-4_4
 10
-1895.8602252313722
 20
3294.3929249311723
 41
1
 42
1
 50
0
  0
INSERT
  2
-001-SUG-AR06
  8
_0-4_4
 10
-1895.8602252313722
 20
3294.3929249311723
 41
0.5
 42
0.5
 50
0
  0
INSERT
  2
-001-SUG-AR06
  8
_0-4_4
 10
-1799.6325403517999
 20
3251.8957294686493
 41
0.5
 42
0.5
 50
0
  0
INSERT
  2
-001-SUG-AR06
  8
_0-4_4
 10
-1703.7602252313723
 20
3427.9929249311713
 41
0.5
 42
0.5
 50
0
  0
INSERT
  2
-001-SUG-AR06
  8
_0-4_4
 10
-311.7486052092562
 20
3289.6509537463689
 41
1
 42
1
 50
0
  0
INSERT
  2
-001-SUG-AR06
  8
_0-4_4
 10
-311.7486052092562
 20
3289.6509537463689
 41
0.5
 42
0.5
 50
0
  0
INSERT
  2
-001-SUG-AR06
  8
_0-4_4
 10
-215.5209203296846
 20
3247.1537582838473
 41
0.5
 42
0.5
 50
0
  0
INSERT
  2
-001-SUG-AR06
  8
_0-4_4
 10
-119.64860520925595
 20
3423.2509537463693
 41
0.5
 42
0.5
 50
0
  0
INSERT
  2
-001-SUG-AR06
  8
_0-4_4
 10
-1074.6207590647382
 20
3851.998370511717
 41
1
 42
1
 50
0
  0
INSERT
  2
-001-SUG-AR06
  8
_0-4_4
 10
-1074.6207590647382
 20
3851.998370511717
 41
0.5
 42
0.5
 50
0
  0
INSERT
  2
-001-SUG-AR06
  8
_0-4_4
 10
-978.39307418516614
 20
3809.501175049194
 41
0.5
 42
0.5
 50
0
  0
INSERT
  2
-001-SUG-AR06
  8
_0-4_4
 10
-882.52075906473806
 20
3985.5983705117173
 41
0.5
 42
0.5
 50
0
  0
INSERT
  2
-001-SUG-AR06
  8
_0-4_4
 10
509.490860957378
 20
3847.2563993269141
 41
1
 42
1
 50
0
  0
INSERT
  2
-001-SUG-AR06
  8
_0-4_4
 10
509.490860957378
 20
3847.2563993269141
 41
0.5
 42
0.5
 50
0
  0
INSERT
  2
-001-SUG-AR06
  8
_0-4_4
 10
605.71854583694983
 20
3804.7592038643911
 41
0.5
 42
0.5
 50
0
  0
INSERT
  2
-001-SUG-AR06
  8
_0-4_4
 10
701.59086095737825
 20
3980.856399326914
 41
0.5
 42
0.5
 50
0
  0
INSERT
  2
-001-SUG-AR06
  8
_0-4_4
 10
-783.66187219219887
 20
3300.3273436561913
 41
1
 42
1
 50
0
  0
INSERT
  2
-001-SUG-AR06
  8
_0-4_4
 10
-783.66187219219887
 20
3300.3273436561913
 41
0.5
 42
0.5
 50
0
  0
INSERT
  2
-001-SUG-AR06
  8
_0-4_4
 10
-687.43418731262727
 20
3257.8301481936692
 41
0.5
 42
0.5
 50
0
  0
INSERT
  2
-001-SUG-AR06
  8
_0-4_4
 10
-591.56187219219885
 20
3433.9273436561912
 41
0.5
 42
0.5
 50
0
  0
INSERT
  2
-001-SUG-AR06
  8
_0-4_4
 10
800.4497478299171
 20
3295.5853724713884
 41
1
 42
1
 50
0
  0
INSERT
  2
-001-SUG-AR06
  8
_0-4_4
 10
800.4497478299171
 20
3295.5853724713884
 41
0.5
 42
0.5
 50
0
  0
INSERT
  2
-001-SUG-AR06
  8
_0-4_4
 10
896.67743270948836
 20
3253.0881770088663
 41
0.5
 42
0.5
 50
0
  0
INSERT
  2
-001-SUG-AR06
  8
_0-4_4
 10
992.54974782991701
 20
3429.1853724713883
 41
0.5
 42
0.5
 50
0
  0
INSERT
  2
-001-SUG-AR06
  8
_0-4_4
 10
950.35622785434305
 20
2071.9982412395252
 41
1
 42
1
 50
0
  0
INSERT
  2
-001-SUG-AR06
  8
_0-4_4
 10
950.35622785434305
 20
2071.9982412395252
 41
0.5
 42
0.5
 50
0
  0
INSERT
  2
-001-SUG-AR06
  8
_0-4_4
 10
1046.583912733915
 20
2029.5010457770031
 41
0.5
 42
0.5
 50
0
  0
INSERT
  2
-001-SUG-AR06
  8
_0-4_4
 10
1142.4562278543431
 20
2205.5982412395251
 41
0.5
 42
0.5
 50
0
  0
CIRCLE
  8
_0-4_4
  6
CONTINUOUS
 62
    4
 10
461.09550354180897
 20
347.60936782271921
 40
0.5
  0
LINE
  8
_0-4_4
  6
CONTINUOUS
 62
    4
 10
48.948802073763545
 20
348.10936782271921
 11
49.248802073763613
 21
348.10936782271921
  0
LINE
  8
_0-4_4
  6
CONTINUOUS
 62
    4
 10
343.63551018810421
 20
348.10936782271921
 11
343.63551018810421
 21
347.10936782271921
  0
LINE
  8
_0-4_4
  6
CONTINUOUS
 62
    4
 10
48.948802073763602
 20
348.10936782271921
 11
48.948802073763602
 21
347.10936782271921
  0
LINE
  8
_0-4_4
  6
CONTINUOUS
 62
    4
 10
48.948802073763602
 20
347.10936782271921
 11
49.248802073763613
 21
347.10936782271921
  0
LINE
  8
_0-4_4
  6
CONTINUOUS
 62
    4
 10
343.63551018810421
 20
348.10936782271921
 11
343.33551018810419
 21
348.10936782271921
  0
LINE
  8
_0-4_4
  6
CONTINUOUS
 62
    4
 10
343.63551018810421
 20
347.10936782271921
 11
343.33551018810419
 21
347.10936782271921
  0
ARC
  8
_0-4_4
  6
CONTINUOUS
 62
    4
 10
213.74503684246409
 20
195.88848644053999
 40
4
 50
180
 51
252.07978686060696
  0
ARC
  8
_0-4_4
  6
CONTINUOUS
 62
    4
 10
229.74503684246397
 20
195.88848644053999
 40
4
 50
287.92021313939301
 51
0.0000000000000127
  0
ARC
  8
_0-4_4
  6
CONTINUOUS
 62
    4
 10
221.7779512039983
 20
203.84120966806651
 40
0.9443069597512333
 50
177.65540669311059
 51
229.95808328792958
  0
ARC
  8
_0-4_4
  6
CONTINUOUS
 62
    4
 10
226.94476561481878
 20
203.62966101880269
 40
6.1154503523548369
 50
157.70845696162939
 51
177.65540669311059
  0
ARC
  8
_0-4_4
  6
CONTINUOUS
 62
    4
 10
233.4203537464787
 20
200.97494528847071
 40
13.114075735940229
 50
147.51108976630158
 51
157.70845696162937
  0
ARC
  8
_0-4_4
  6
CONTINUOUS
 62
    4
 10
242.49774818303018
 20
195.1944769748512
 40
23.875716116546421
 50
139.95808328792972
 51
147.51108976629743
  0
ARC
  8
_0-4_4
  6
CONTINUOUS
 62
    4
 10
242.4977481830222
 20
195.19447697485791
 40
23.8757161165361
 50
132.4050768095556
 51
139.9580832879297
  0
ARC
  8
_0-4_4
  6
CONTINUOUS
 62
    4
 10
235.24044424920248
 20
203.14082477076781
 40
13.11407573593446
 50
122.20770961422819
 51
132.4050768095633
  0
ARC
  8
_0-4_4
  6
CONTINUOUS
 62
    4
 10
231.51024597214507
 20
209.06251186766158
 40
6.1154503523550252
 50
102.26075988275261
 51
122.20770961422822
  0
ARC
  8
_0-4_4
  6
CONTINUOUS
 62
    4
 10
230.41209581848
 20
214.11570790847341
 40
0.9443069597512494
 50
49.958083287929625
 51
102.2607598827495
  0
ARC
  8
_0-4_4
  6
CONTINUOUS
 62
    4
 10
230.41209581848
 20
214.11570790847341
 40
0.9443069597512483
 50
357.65540669310747
 51
49.958083287929675
  0
ARC
  8
_0-4_4
  6
CONTINUOUS
 62
    4
 10
225.24528140765938
 20
214.3272565577372
 40
6.115450352354971
 50
337.70845696162939
 51
357.65540669311059
  0
ARC
  8
_0-4_4
  6
CONTINUOUS
 62
    4
 10
218.76969327599937
 20
216.9819722880693
 40
13.114075735940601
 50
327.51108976630161
 51
337.70845696162939
  0
ARC
  8
_0-4_4
  6
CONTINUOUS
 62
    4
 10
209.69229883944789
 20
222.76244060168901
 40
23.875716116547011
 50
319.9580832879297
 51
327.51108976629752
  0
ARC
  8
_0-4_4
  6
CONTINUOUS
 62
    4
 10
209.69229883945559
 20
222.7624406016825
 40
23.8757161165369
 50
317.48333147896147
 51
319.9580832879297
  0
ARC
  8
_0-4_4
  6
CONTINUOUS
 62
    4
 10
216.94960277327559
 20
214.81609280577248
 40
13.11407573593492
 50
302.20770961422818
 51
309.01789687250198
  0
ARC
  8
_0-4_4
  6
CONTINUOUS
 62
    4
 10
220.67980105033348
 20
208.894405708878
 40
6.1154503523547543
 50
282.2607598827496
 51
302.20770961422818
  0
ARC
  8
_0-4_4
  6
CONTINUOUS
 62
    4
 10
221.7779512039983
 20
203.84120966806651
 40
0.9443069597512121
 50
229.95808328792964
 51
282.26075988275261
  0
ARC
  8
_0-4_4
  6
CONTINUOUS
 62
    4
 10
222.75399662646649
 20
203.5748349546395
 40
0.9443069597512333
 50
177.65540669311059
 51
229.95808328792958
  0
ARC
  8
_0-4_4
  6
CONTINUOUS
 62
    4
 10
227.92081103728688
 20
203.36328630537571
 40
6.1154503523548369
 50
157.70845696162939
 51
177.65540669311059
  0
ARC
  8
_0-4_4
  6
CONTINUOUS
 62
    4
 10
234.39639916894677
 20
200.70857057504361
 40
13.114075735940229
 50
147.51108976630158
 51
157.70845696162937
  0
ARC
  8
_0-4_4
  6
CONTINUOUS
 62
    4
 10
243.47379360549829
 20
194.92810226142419
 40
23.875716116546421
 50
139.95808328792972
 51
147.51108976629743
  0
ARC
  8
_0-4_4
  6
CONTINUOUS
 62
    4
 10
243.47379360549027
 20
194.92810226143089
 40
23.8757161165361
 50
132.4050768095556
 51
139.9580832879297
  0
ARC
  8
_0-4_4
  6
CONTINUOUS
 62
    4
 10
236.21648967167067
 20
202.87445005734071
 40
13.11407573593446
 50
122.20770961422819
 51
132.4050768095633
  0
ARC
  8
_0-4_4
  6
CONTINUOUS
 62
    4
 10
232.48629139461318
 20
208.7961371542346
 40
6.1154503523550252
 50
102.26075988275261
 51
122.20770961422822
  0
ARC
  8
_0-4_4
  6
CONTINUOUS
 62
    4
 10
231.38814124094819
 20
213.8493331950464
 40
0.9443069597512494
 50
49.958083287929625
 51
102.2607598827495
  0
ARC
  8
_0-4_4
  6
CONTINUOUS
 62
    4
 10
231.38814124094819
 20
213.8493331950464
 40
0.9443069597512483
 50
357.65540669310747
 51
49.958083287929675
  0
ARC
  8
_0-4_4
  6
CONTINUOUS
 62
    4
 10
226.22132683012748
 20
214.06088184431019
 40
6.115450352354971
 50
337.70845696162939
 51
357.65540669311059
  0
ARC
  8
_0-4_4
  6
CONTINUOUS
 62
    4
 10
219.74573869846759
 20
216.71559757464229
 40
13.114075735940601
 50
327.51108976630161
 51
337.70845696162939
  0
ARC
  8
_0-4_4
  6
CONTINUOUS
 62
    4
 10
210.66834426191599
 20
222.496065888262
 40
23.875716116547011
 50
319.9580832879297
 51
327.51108976629752
  0
ARC
  8
_0-4_4
  6
CONTINUOUS
 62
    4
 10
210.66834426192369
 20
222.49606588825549
 40
23.8757161165369
 50
318.34467750434669
 51
319.9580832879297
  0
ARC
  8
_0-4_4
  6
CONTINUOUS
 62
    4
 10
217.92564819574369
 20
214.5497180923455
 40
13.11407573593492
 50
302.20770961422818
 51
310.83136659473098
  0
ARC
  8
_0-4_4
  6
CONTINUOUS
 62
    4
 10
221.65584647280158
 20
208.62803099545098
 40
6.1154503523547543
 50
282.2607598827496
 51
302.20770961422818
  0
ARC
  8
_0-4_4
  6
CONTINUOUS
 62
    4
 10
222.75399662646649
 20
203.5748349546395
 40
0.9443069597512121
 50
229.95808328792964
 51
282.26075988275261
  0
ARC
  8
_0-4_4
  6
CONTINUOUS
 62
    4
 10
225.99503684246409
 20
185.127120194246
 40
0.5
 50
270
 51
0
  0
LINE
  8
_0-4_4
  6
CONTINUOUS
 62
    4
 10
220.5485902330573
 20
160.77356680365281
 11
224.19503684246399
 21
164.42001341305951
  0
LINE
  8
_0-4_4
  6
CONTINUOUS
 62
    4
 10
219.81201462090448
 20
160.80572638940271
 11
216.99503684246397
 21
164.16286977711729
  0
ARC
  8
_0-4_4
  6
CONTINUOUS
 62
    4
 10
220.19503684246399
 20
161.127120194246
 40
0.5
 50
219.99999999999991
 51
314.99999999999977
  0
ARC
  8
_0-4_4
  6
CONTINUOUS
 62
    4
 10
221.74503684246397
 20
220.627120194246
 40
30
 50
279.11017015292663
 51
287.92021313939301
  0
LINE
  8
_0-4_4
  6
CONTINUOUS
 62
    4
 10
226.49503684246397
 20
191.0055486626747
 11
226.49503684246397
 21
185.127120194246
  0
LINE
  8
_0-4_4
  6
CONTINUOUS
 62
    4
 10
227.24503684246397
 20
201.62712019424609
 11
227.24503684246397
 21
204.627120194246
  0
LINE
  8
_0-4_4
  6
CONTINUOUS
 62
    4
 10
216.24503684246397
 20
201.62712019424609
 11
227.24503684246397
 21
201.62712019424609
  0
LINE
  8
_0-4_4
  6
CONTINUOUS
 62
    4
 10
216.24503684246397
 20
204.627120194246
 11
216.24503684246397
 21
201.62712019424609
  0
LINE
  8
_0-4_4
  6
CONTINUOUS
 62
    4
 10
227.24503684246397
 20
204.627120194246
 11
216.24503684246397
 21
204.627120194246
  0
ARC
  8
_0-4_4
  6
CONTINUOUS
 62
    4
 10
230.74503684246409
 20
203.627120194246
 40
3
 50
0
 51
90
  0
ARC
  8
_0-4_4
  6
CONTINUOUS
 62
    4
 10
212.74503684246409
 20
203.627120194246
 40
3
 50
90
 51
180
  0
ARC
  8
_0-4_4
  6
CONTINUOUS
 62
    4
 10
221.74503684246397
 20
220.627120194246
 40
30
 50
252.07978686060699
 51
260.88982984707337
  0
LINE
  8
_0-4_4
  6
CONTINUOUS
 62
    4
 10
233.74503684246397
 20
203.627120194246
 11
233.74503684246397
 21
195.88848644053999
  0
LINE
  8
_0-4_4
  6
CONTINUOUS
 62
    4
 10
209.74503684246397
 20
203.627120194246
 11
209.74503684246397
 21
195.88848644053999
  0
LINE
  8
_0-4_4
  6
CONTINUOUS
 62
    4
 10
216.99503684246397
 20
191.0055486626747
 11
216.99503684246397
 21
164.16286977711729
  0
LINE
  8
_0-4_4
  6
CONTINUOUS
 62
    4
 10
224.19503684246399
 20
184.627120194246
 11
224.19503684246399
 21
164.42001341305951
  0
LINE
  8
_0-4_4
  6
CONTINUOUS
 62
    4
 10
225.99503684246397
 20
184.627120194246
 11
224.19503684246399
 21
184.627120194246
  0
LINE
  8
_0-4_4
  6
CONTINUOUS
 62
    4
 10
230.74503684246397
 20
206.627120194246
 11
212.74503684246397
 21
206.627120194246
  0
ARC
  8
_0-2_2
  6
CONTINUOUS
 62
    2
 10
471.09550354180897
 20
516.60936782271938
 40
2
 50
75.522487814069734
 51
104.47751218593018
  0
ARC
  8
_0-2_2
  6
CONTINUOUS
 62
    2
 10
471.09550354180897
 20
516.60936782271938
 40
2
 50
315.52248781406729
 51
344.47751218592992
  0
LINE
  8
_0-2_2
  6
CONTINUOUS
 62
    2
 10
471.09550354180919
 20
516.03201755352973
 11
472.52255452493381
 21
515.20810928427522
  0
LINE
  8
_0-2_2
  6
CONTINUOUS
 62
    2
 10
471.59550354180891
 20
516.89804295731437
 11
473.02255452493381
 21
516.07413468805976
  0
LINE
  8
_0-2_2
  6
CONTINUOUS
 62
    2
 10
471.09550354180919
 20
516.03201755352961
 11
469.66845255868418
 21
515.20810928427522
  0
LINE
  8
_0-2_2
  6
CONTINUOUS
 62
    2
 10
470.59550354180897
 20
516.89804295731392
 11
469.16845255868407
 21
516.07413468805953
  0
LINE
  8
_0-2_2
  6
CONTINUOUS
 62
    2
 10
470.59550354180897
 20
518.54585949582292
 11
470.59550354180897
 21
516.89804295731392
  0
LINE
  8
_0-2_2
  6
CONTINUOUS
 62
    2
 10
471.59550354180897
 20
518.54585949582292
 11
471.5955035418088
 21
516.89804295731415
  0
ARC
  8
_0-2_2
  6
CONTINUOUS
 62
    2
 10
471.09550354180891
 20
516.60936782271938
 40
2
 50
195.5224878140701
 51
224.47751218593271
  0
ARC
  8
_0-2_2
  6
CONTINUOUS
 62
    2
 10
471.09550354180891
 20
438.60936782271921
 40
2
 50
195.5224878140701
 51
224.47751218593271
  0
LINE
  8
_0-2_2
  6
CONTINUOUS
 62
    2
 10
471.59550354180897
 20
440.54585949582298
 11
471.5955035418088
 21
438.89804295731432
  0
LINE
  8
_0-2_2
  6
CONTINUOUS
 62
    2
 10
470.59550354180897
 20
440.54585949582298
 11
470.59550354180897
 21
438.89804295731392
  0
LINE
  8
_0-2_2
  6
CONTINUOUS
 62
    2
 10
470.59550354180897
 20
438.89804295731398
 11
469.16845255868407
 21
438.07413468805959
  0
LINE
  8
_0-2_2
  6
CONTINUOUS
 62
    2
 10
471.09550354180919
 20
438.03201755352961
 11
469.66845255868418
 21
437.20810928427522
  0
LINE
  8
_0-2_2
  6
CONTINUOUS
 62
    2
 10
471.59550354180891
 20
438.89804295731437
 11
473.02255452493381
 21
438.0741346880597
  0
LINE
  8
_0-2_2
  6
CONTINUOUS
 62
    2
 10
471.09550354180919
 20
438.03201755352973
 11
472.52255452493381
 21
437.20810928427528
  0
ARC
  8
_0-2_2
  6
CONTINUOUS
 62
    2
 10
471.09550354180897
 20
438.60936782271921
 40
2
 50
315.52248781406729
 51
344.47751218592992
  0
ARC
  8
_0-2_2
  6
CONTINUOUS
 62
    2
 10
471.09550354180897
 20
438.60936782271921
 40
2
 50
75.522487814069734
 51
104.47751218593018
  0
ARC
  8
_0-2_2
  6
CONTINUOUS
 62
    2
 10
471.09550354180891
 20
350.10936782271932
 40
2
 50
195.5224878140701
 51
224.47751218593271
  0
LINE
  8
_0-2_2
  6
CONTINUOUS
 62
    2
 10
471.59550354180897
 20
352.04585949582298
 11
471.5955035418088
 21
350.39804295731432
  0
LINE
  8
_0-2_2
  6
CONTINUOUS
 62
    2
 10
470.59550354180897
 20
352.04585949582298
 11
470.59550354180897
 21
350.39804295731398
  0
LINE
  8
_0-2_2
  6
CONTINUOUS
 62
    2
 10
470.59550354180897
 20
350.39804295731409
 11
469.16845255868407
 21
349.57413468805959
  0
LINE
  8
_0-2_2
  6
CONTINUOUS
 62
    2
 10
471.09550354180919
 20
349.53201755352973
 11
469.66845255868418
 21
348.70810928427522
  0
LINE
  8
_0-2_2
  6
CONTINUOUS
 62
    2
 10
471.59550354180891
 20
350.39804295731437
 11
473.02255452493381
 21
349.5741346880597
  0
LINE
  8
_0-2_2
  6
CONTINUOUS
 62
    2
 10
471.09550354180919
 20
349.53201755352973
 11
472.52255452493381
 21
348.70810928427528
  0
ARC
  8
_0-2_2
  6
CONTINUOUS
 62
    2
 10
471.09550354180897
 20
350.10936782271932
 40
2
 50
315.52248781406729
 51
344.47751218592992
  0
ARC
  8
_0-2_2
  6
CONTINUOUS
 62
    2
 10
471.09550354180897
 20
350.10936782271932
 40
2
 50
75.522487814069734
 51
104.47751218593018
  0
ARC
  8
_0-2_2
  6
CONTINUOUS
 62
    2
 10
411.09550354180897
 20
350.10936782271932
 40
2
 50
195.5224878140701
 51
224.47751218593271
  0
LINE
  8
_0-2_2
  6
CONTINUOUS
 62
    2
 10
411.59550354180908
 20
352.04585949582298
 11
411.59550354180891
 21
350.39804295731432
  0
LINE
  8
_0-2_2
  6
CONTINUOUS
 62
    2
 10
410.59550354180908
 20
352.04585949582298
 11
410.59550354180897
 21
350.39804295731398
  0
LINE
  8
_0-2_2
  6
CONTINUOUS
 62
    2
 10
410.59550354180897
 20
350.39804295731409
 11
409.16845255868418
 21
349.57413468805959
  0
LINE
  8
_0-2_2
  6
CONTINUOUS
 62
    2
 10
411.09550354180931
 20
349.53201755352973
 11
409.66845255868429
 21
348.70810928427522
  0
LINE
  8
_0-2_2
  6
CONTINUOUS
 62
    2
 10
411.59550354180897
 20
350.39804295731437
 11
413.02255452493387
 21
349.5741346880597
  0
LINE
  8
_0-2_2
  6
CONTINUOUS
 62
    2
 10
411.09550354180931
 20
349.53201755352973
 11
412.52255452493387
 21
348.70810928427528
  0
ARC
  8
_0-2_2
  6
CONTINUOUS
 62
    2
 10
411.09550354180908
 20
350.10936782271932
 40
2
 50
315.52248781406729
 51
344.47751218592992
  0
ARC
  8
_0-2_2
  6
CONTINUOUS
 62
    2
 10
411.09550354180908
 20
350.10936782271932
 40
2
 50
75.522487814069734
 51
104.47751218593018
  0
ARC
  8
_0-2_2
  6
CONTINUOUS
 62
    2
 10
411.09550354180897
 20
438.60936782271921
 40
2
 50
195.5224878140701
 51
224.47751218593271
  0
LINE
  8
_0-2_2
  6
CONTINUOUS
 62
    2
 10
411.59550354180908
 20
440.54585949582298
 11
411.59550354180891
 21
438.89804295731432
  0
LINE
  8
_0-2_2
  6
CONTINUOUS
 62
    2
 10
410.59550354180908
 20
440.54585949582298
 11
410.59550354180897
 21
438.89804295731392
  0
LINE
  8
_0-2_2
  6
CONTINUOUS
 62
    2
 10
410.59550354180897
 20
438.89804295731398
 11
409.16845255868418
 21
438.07413468805959
  0
LINE
  8
_0-2_2
  6
CONTINUOUS
 62
    2
 10
411.09550354180931
 20
438.03201755352961
 11
409.66845255868429
 21
437.20810928427522
  0
LINE
  8
_0-2_2
  6
CONTINUOUS
 62
    2
 10
411.59550354180897
 20
438.89804295731437
 11
413.02255452493387
 21
438.0741346880597
  0
LINE
  8
_0-2_2
  6
CONTINUOUS
 62
    2
 10
411.09550354180931
 20
438.03201755352973
 11
412.52255452493387
 21
437.20810928427528
  0
ARC
  8
_0-2_2
  6
CONTINUOUS
 62
    2
 10
411.09550354180908
 20
438.60936782271921
 40
2
 50
315.52248781406729
 51
344.47751218592992
  0
ARC
  8
_0-2_2
  6
CONTINUOUS
 62
    2
 10
411.09550354180908
 20
438.60936782271921
 40
2
 50
75.522487814069734
 51
104.47751218593018
  0
ARC
  8
_0-2_2
  6
CONTINUOUS
 62
    2
 10
411.09550354180908
 20
516.60936782271938
 40
2
 50
315.52248781406729
 51
344.47751218592992
  0
ARC
  8
_0-2_2
  6
CONTINUOUS
 62
    2
 10
411.09550354180897
 20
516.60936782271938
 40
2
 50
195.5224878140701
 51
224.47751218593271
  0
LINE
  8
_0-2_2
  6
CONTINUOUS
 62
    2
 10
411.59550354180908
 20
518.54585949582292
 11
411.59550354180891
 21
516.89804295731415
  0
LINE
  8
_0-2_2
  6
CONTINUOUS
 62
    2
 10
410.59550354180908
 20
518.54585949582292
 11
410.59550354180897
 21
516.89804295731392
  0
LINE
  8
_0-2_2
  6
CONTINUOUS
 62
    2
 10
410.59550354180897
 20
516.89804295731392
 11
409.16845255868418
 21
516.07413468805953
  0
LINE
  8
_0-2_2
  6
CONTINUOUS
 62
    2
 10
411.09550354180931
 20
516.03201755352961
 11
409.66845255868429
 21
515.20810928427522
  0
LINE
  8
_0-2_2
  6
CONTINUOUS
 62
    2
 10
411.59550354180897
 20
516.89804295731437
 11
413.02255452493387
 21
516.07413468805976
  0
LINE
  8
_0-2_2
  6
CONTINUOUS
 62
    2
 10
411.09550354180931
 20
516.03201755352973
 11
412.52255452493387
 21
515.20810928427522
  0
ARC
  8
_0-2_2
  6
CONTINUOUS
 62
    2
 10
411.09550354180908
 20
516.60936782271938
 40
2
 50
75.522487814069734
 51
104.47751218593018
  0
LINE
  8
_0-2_2
  6
CONTINUOUS
 62
    2
 10
325.11476322429269
 20
516.89804295731369
 11
324.98940984303556
 21
516.0741346880593
  0
LINE
  8
_0-2_2
  6
CONTINUOUS
 62
    2
 10
325.00153946885519
 20
518.54585949582281
 11
325.11476322429269
 21
516.89804295731369
  0
LINE
  8
_0-2_2
  6
CONTINUOUS
 62
    2
 10
324.98940984303556
 20
516.0741346880593
 11
325.16312157620581
 21
515.20810928427488
  0
LINE
  8
_0-2_2
  6
CONTINUOUS
 62
    2
 10
321.98940984303556
 20
438.07413468805942
 11
322.16312157620581
 21
437.20810928427488
  0
LINE
  8
_0-2_2
  6
CONTINUOUS
 62
    2
 10
322.00153946885519
 20
440.54585949582281
 11
322.11476322429269
 21
438.89804295731369
  0
LINE
  8
_0-2_2
  6
CONTINUOUS
 62
    2
 10
322.11476322429269
 20
438.89804295731369
 11
321.98940984303556
 21
438.07413468805942
  0
LINE
  8
_0-2_2
  6
CONTINUOUS
 62
    2
 10
324.98940984303556
 20
349.57413468805942
 11
325.16312157620581
 21
348.708109284275
  0
LINE
  8
_0-2_2
  6
CONTINUOUS
 62
    2
 10
325.00153946885519
 20
352.04585949582292
 11
325.11476322429269
 21
350.39804295731369
  0
LINE
  8
_0-2_2
  6
CONTINUOUS
 62
    2
 10
325.11476322429269
 20
350.39804295731369
 11
324.98940984303556
 21
349.57413468805942
  0
LINE
  8
_0-2_2
  6
CONTINUOUS
 62
    2
 10
67.469549037575121
 20
516.89804295731392
 11
67.594902418832248
 21
516.07413468805953
  0
LINE
  8
_0-2_2
  6
CONTINUOUS
 62
    2
 10
67.582772793012623
 20
518.54585949582315
 11
67.469549037575121
 21
516.89804295731392
  0
LINE
  8
_0-2_2
  6
CONTINUOUS
 62
    2
 10
67.594902418832248
 20
516.07413468805953
 11
67.421190685662054
 21
515.20810928427522
  0
LINE
  8
_0-2_2
  6
CONTINUOUS
 62
    2
 10
70.469549037575121
 20
438.89804295731392
 11
70.594902418832248
 21
438.07413468805959
  0
LINE
  8
_0-2_2
  6
CONTINUOUS
 62
    2
 10
70.582772793012623
 20
440.54585949582309
 11
70.469549037575121
 21
438.89804295731392
  0
LINE
  8
_0-2_2
  6
CONTINUOUS
 62
    2
 10
70.594902418832248
 20
438.07413468805959
 11
70.421190685662054
 21
437.20810928427522
  0
LINE
  8
_0-2_2
  6
CONTINUOUS
 62
    2
 10
67.469549037575121
 20
350.39804295731398
 11
67.594902418832248
 21
349.57413468805959
  0
LINE
  8
_0-2_2
  6
CONTINUOUS
 62
    2
 10
67.582772793012623
 20
352.04585949582309
 11
67.469549037575121
 21
350.39804295731398
  0
LINE
  8
_0-2_2
  6
CONTINUOUS
 62
    2
 10
67.594902418832248
 20
349.57413468805959
 11
67.421190685662054
 21
348.70810928427522
  0
INSERT
  2
-003-AI9-BLK1
  8
_0-8_S
 10
183.10979118800469
 20
397.60084585331049
 41
1
 42
1
 50
0
  0
CIRCLE
  8
_0-2_2
  6
CONTINUOUS
 62
    2
 10
164.4998353556748
 20
411.10059513121411
 40
0.75
  0
ARC
  8
_0-2_2
  6
CONTINUOUS
 62
    2
 10
300.93488518785927
 20
411.10936782271938
 40
0.9
 50
124.55461611034748
 51
241.18036892395824
  0
ENDSEC
  0
EOF
