  0
SECTION
  2
HEADER
  9
$ACADVER
  1
AC1009
  9
$INSBASE
 10
0
 20
0
 30
0
  9
$EXTMIN
 10
0
 20
0
  9
$EXTMAX
 10
841
 20
594
  9
$LIMMIN
 10
0
 20
0
  9
$LIMMAX
 10
841
 20
594
  9
$LTSCALE
 40
1
  0
ENDSEC
  0
SECTION
  2
TABLES
  0
TABLE
  2
LTYPE
 70
     9
  0
LTYPE
  2
CONTINUOUS
 70
    64
  3
実線
 72
    65
 73
     0
 40
0.0
  0
LTYPE
  2
DASHED1
 70
    64
  3
--  --  --  --  --  --  --  --  
 72
    65
 73
     2
 40
2.5
 49
1.25
 49
-1.25
  0
LTYPE
  2
DASHED2
 70
    64
  3
----    ----    ----    ----    
 72
    65
 73
     2
 40
5.0
 49
2.5
 49
-2.5
  0
LTYPE
  2
DASHED3
 70
    64
  3
------  ------  ------  ------  
 72
    65
 73
     2
 40
5.0
 49
3.75
 49
-1.25
  0
LTYPE
  2
CENTER1
 70
    64
  3
----- - ----- - ----- - ----- - 
 72
    65
 73
     4
 40
10.0
 49
6.25
 49
-1.25
 49
1.25
 49
-1.25
  0
LTYPE
  2
CENTER2
 70
    64
  3
----------  --  ----------  --  
 72
    65
 73
     4
 40
20.0
 49
12.5
 49
-2.5
 49
2.5
 49
-2.5
  0
LTYPE
  2
PHANTOM1
 70
    64
  3
--- - - --- - - --- - - --- - - 
 72
    65
 73
     6
 40
10.0
 49
3.25
 49
-1.25
 49
1.25
 49
-1.25
 49
1.25
 49
-1.25
  0
LTYPE
  2
PHANTOM2
 70
    64
  3
--------  -  -  --------  -  -  
 72
    65
 73
     6
 40
20.0
 49
10.0
 49
-2.5
 49
1.25
 49
-2.5
 49
1.25
 49
-2.5
  0
LTYPE
  2
DOT
 70
    64
  3
-   -   -   -   -   -   -   -   
 72
    65
 73
     2
 40
2.5
 49
0.625
 49
-1.875
  0
LTYPE
  2
DUMMY
 70
    64
  3
ダミー
 72
    65
 73
     0
 40
0.0
  0
LTYPE
  2
RAND1
 70
    64
  3
ランダム線1
 72
    65
 73
     4
 40
10.0
 49
1.0
 49
-2.0
 49
3.0
 49
-4.0
  0
LTYPE
  2
RAND2
 70
    64
  3
ランダム線2
 72
    65
 73
     4
 40
14.0
 49
2.0
 49
-3.0
 49
4.0
 49
-5.0
  0
LTYPE
  2
RAND3
 70
    64
  3
ランダム線3
 72
    65
 73
     4
 40
18.0
 49
3.0
 49
-4.0
 49
5.0
 49
-6.0
  0
LTYPE
  2
RAND4
 70
    64
  3
ランダム線4
 72
    65
 73
     4
 40
22.0
 49
4.0
 49
-5.0
 49
6.0
 49
-7.0
  0
LTYPE
  2
RAND5
 70
    64
  3
ランダム線5
 72
    65
 73
     4
 40
26.0
 49
5.0
 49
-6.0
 49
7.0
 49
-8.0
  0
LTYPE
  2
LONG1
 70
    64
  3
----------  --  ----------  --  
 72
    65
 73
     4
 40
40.0
 49
32.5
 49
-2.5
 49
2.5
 49
-2.5
  0
LTYPE
  2
LONG2
 70
    64
  3
--------  -  -  --------  -  -  
 72
    65
 73
     6
 40
40.0
 49
30.0
 49
-2.5
 49
1.25
 49
-2.5
 49
1.25
 49
-2.5
  0
LTYPE
  2
LONG3
 70
    64
  3
+++++++++++++++..+++++++++++++++
 72
    65
 73
     2
 40
40.0
 49
37.5
 49
-2.5
  0
LTYPE
  2
LONG4
 70
    64
  3
+++++++++++++++..+++++++++++++++
 72
    65
 73
     2
 40
80.0
 49
75.0
 49
-5.0
  0
LTYPE
  2
LONG5
 70
    64
  3
----------  --  ----------  --  
 72
    65
 73
     4
 40
60.0
 49
37.5
 49
-7.5
 49
7.5
 49
-7.5
  0
LTYPE
  2
dashed
 70
   64
  3
-------   -------------   ------
 72
   65
 73
    2
 40
7.5
 49
6
 49
-1.5
  0
LTYPE
  2
dashed_spaced
 70
   64
  3
----        --------        ----
 72
   65
 73
    2
 40
12
 49
6
 49
-6
  0
LTYPE
  2
long_dashed_dotted
 70
   64
  3
------------- --- --------------
 72
   65
 73
    4
 40
15.25
 49
12
 49
-1.5
 49
0.25
 49
-1.5
  0
LTYPE
  2
long_dashed_double-dotted
 70
   64
  3
----------- --- --- ------------
 72
   65
 73
    6
 40
17
 49
12
 49
-1.5
 49
0.25
 49
-1.5
 49
0.25
 49
-1.5
  0
LTYPE
  2
long_dashed_triplicate-dotted
 70
   64
  3
--------- --- --- --- ----------
 72
   65
 73
    8
 40
18.75
 49
12
 49
-1.5
 49
0.25
 49
-1.5
 49
0.25
 49
-1.5
 49
0.25
 49
-1.5
  0
LTYPE
  2
dotted
 70
   64
  3
   -       -       -       -    
 72
   65
 73
    2
 40
1.75
 49
0.25
 49
-1.5
  0
LTYPE
  2
chain
 70
   64
  3
-------------- -- --------------
 72
   65
 73
    4
 40
18.5
 49
12
 49
-1.5
 49
3.5
 49
-1.5
  0
LTYPE
  2
chain_double_dash
 70
   64
  3
------------ -- -- -------------
 72
   65
 73
    6
 40
23.5
 49
12
 49
-1.5
 49
3.5
 49
-1.5
 49
3.5
 49
-1.5
  0
LTYPE
  2
dashed_dotted
 70
   64
  3
-----------     -     ----------
 72
   65
 73
    4
 40
9.25
 49
6
 49
-1.5
 49
0.25
 49
-1.5
  0
LTYPE
  2
double-dashed_dotted
 70
   64
  3
------   -----------   -   -----
 72
   65
 73
    6
 40
16.75
 49
6
 49
-1.5
 49
6
 49
-1.5
 49
0.25
 49
-1.5
  0
LTYPE
  2
dashed_double-dotted
 70
   64
  3
---------    -    -    ---------
 72
   65
 73
    6
 40
11
 49
6
 49
-1.5
 49
0.25
 49
-1.5
 49
0.25
 49
-1.5
  0
LTYPE
  2
double-dashed_double-dotted
 70
   64
  3
-----   ---------   -   -   ----
 72
   65
 73
    8
 40
18.5
 49
6
 49
-1.5
 49
6
 49
-1.5
 49
0.25
 49
-1.5
 49
0.25
 49
-1.5
  0
LTYPE
  2
dashed_triplicate-dotted
 70
   64
  3
-------    -    -    -    ------
 72
   65
 73
    8
 40
12.75
 49
6
 49
-1.5
 49
0.25
 49
-1.5
 49
0.25
 49
-1.5
 49
0.25
 49
-1.5
  0
LTYPE
  2
double-dashed_triplicate-dotted
 70
   64
  3
-----  ---------  -  -  -  -----
 72
   65
 73
   10
 40
20.25
 49
6
 49
-1.5
 49
6
 49
-1.5
 49
0.25
 49
-1.5
 49
0.25
 49
-1.5
 49
0.25
 49
-1.5
  0
LTYPE
  2
undefined
 70
   64
  3
--------------------------------
 72
   65
 73
    0
 40
0
  0
LTYPE
  2
CENTER2_17
 70
   64
  3
----------    ----    ----------
 72
   65
 73
    4
 40
28.574999999999996
 49
19.050000000000001
 49
-3.1749999999999989
 49
3.1749999999999989
 49
-3.1749999999999989
  0
LTYPE
  2
C5
 70
   64
  3
-------------  --  -------------
 72
   65
 73
    4
 40
16.640000000000001
 49
12.800000000000001
 49
-1.28
 49
1.28
 49
-1.28
  0
LTYPE
  2
C0
 70
   64
  3
----------    ----    ----------
 72
   65
 73
    4
 40
3.52
 49
2.2000000000000002
 49
-0.4400000000000001
 49
0.4400000000000001
 49
-0.4400000000000001
  0
LTYPE
  2
H5
 70
   64
  3
-----       ---------       ----
 72
   65
 73
    2
 40
3.8000000000000003
 49
2.2000000000000002
 49
-1.6000000000000001
  0
LTYPE
  2
P1
 70
   64
  3
-----------  --  --  -----------
 72
   65
 73
    6
 40
4.2000000000000002
 49
2.7999999999999989
 49
-0.28
 49
0.28
 49
-0.28
 49
0.28
 49
-0.28
  0
LTYPE
  2
H2
 70
   64
  3
-----       ---------       ----
 72
   65
 73
    2
 40
1.3600000000000001
 49
0.8
 49
-0.56
  0
LTYPE
  2
H3
 70
   64
  3
-----       ---------       ----
 72
   65
 73
    2
 40
1.9000000000000001
 49
1.1000000000000001
 49
-0.8
  0
LTYPE
  2
CENTER
 70
   64
  3
-------------  --  -------------
 72
   65
 73
    4
 40
5.0499999999999989
 49
4
 49
-0.3499999999999999
 49
0.3499999999999999
 49
-0.3499999999999999
  0
LTYPE
  2
H4
 70
   64
  3
-----       ---------       ----
 72
   65
 73
    2
 40
2.7000000000000002
 49
1.6000000000000001
 49
-1.1000000000000001
  0
LTYPE
  2
P2
 70
   64
  3
-----------  --  --  -----------
 72
   65
 73
    6
 40
6.0000000000000018
 49
4
 49
-0.4
 49
0.4
 49
-0.4
 49
0.4
 49
-0.4
  0
LTYPE
  2
H7
 70
   64
  3
-----       ---------       ----
 72
   65
 73
    2
 40
7.6000000000000005
 49
4.4000000000000004
 49
-3.2000000000000002
  0
LTYPE
  2
DIVIDE
 70
   64
  3
------      -      -      ------
 72
   65
 73
    6
 40
31.769999999999996
 49
12.699999999999999
 49
-6.3499999999999988
 49
0.01
 49
-6.3499999999999988
 49
0.01
 49
-6.3499999999999988
  0
LTYPE
  2
PHANTOM
 70
   64
  3
---------   ---   ---   --------
 72
   65
 73
    6
 40
63.500000000000007
 49
31.75
 49
-6.3499999999999988
 49
6.3499999999999988
 49
-6.3499999999999988
 49
6.3499999999999988
 49
-6.3499999999999988
  0
ENDTAB
  0
TABLE
  2
STYLE
  5
3
100
AcDbSymbolTable
 70
     1
  0
STYLE
  5
10
100
AcDbSymbolTableRecord
100
AcDbTextStyleTableRecord
  2
STANDARD
 70
     0
 40
0.0
 41
1.0
 50
0.0
 71
     0
 42
0.2
  3
txt
  4
bigfont.shx
  0
STYLE
  5
26
100
AcDbSymbolTableRecord
100
AcDbTextStyleTableRecord
  2
TATEGAKI
 70
    68
 40
0.0
 41
1.0
 50
0.0
 71
     0
 42
1.0
  3
txt
  4
bigfont.shx
  0
ENDTAB
  0
TABLE
  2
LAYER
 70
   10
  0
LAYER
  2
_0-0_0
 70
   64
 62
    7
  6
CONTINUOUS
  0
LAYER
  2
_0-1_1
 70
   64
 62
    7
  6
CONTINUOUS
  0
LAYER
  2
_0-2_2
 70
   64
 62
    7
  6
CONTINUOUS
  0
LAYER
  2
_0-4_4
 70
   64
 62
    7
  6
CONTINUOUS
  0
LAYER
  2
_0-6_6
 70
   64
 62
    7
  6
CONTINUOUS
  0
LAYER
  2
_0-7_7
 70
   64
 62
    7
  6
CONTINUOUS
  0
LAYER
  2
_0-8_S
 70
   64
 62
    7
  6
CONTINUOUS
  0
LAYER
  2
_0-9_T
 70
   64
 62
    7
  6
CONTINUOUS
  0
LAYER
  2
_0-a_W
 70
   64
 62
    7
  6
CONTINUOUS
  0
LAYER
  2
ADD_LINE
 70
   64
 62
    7
  6
CONTINUOUS
  0
ENDTAB
  0
ENDSEC
  0
SECTION
  2
BLOCKS
  0
BLOCK
  2
-000-SUG-AR01
 70
   64
 10
0
 20
0
 30
0
  0
LINE
  8
_0-0_0
  6
CONTINUOUS
 62
    7
 10
0
 20
0
 11
5
 21
1.3397459621556591
  0
LINE
  8
_0-0_0
  6
CONTINUOUS
 62
    7
 10
5
 20
-1.3397459621556591
 11
5
 21
1.3397459621556591
  0
LINE
  8
_0-0_0
  6
CONTINUOUS
 62
    7
 10
0
 20
0
 11
5
 21
-1.3397459621556591
  0
ENDBLK
  0
BLOCK
  2
-001-SUG-AR06
 70
   64
 10
0
 20
0
 30
0
  0
ENDBLK
  0
BLOCK
  2
-002-製品図-OPNUSマ__ク
 70
   64
 10
0
 20
0
 30
0
  0
ENDBLK
  0
BLOCK
  2
-003-SUG-AR04
 70
   64
 10
0
 20
0
 30
0
  0
CIRCLE
  8
_0-0_0
  6
CONTINUOUS
 62
    7
 10
0
 20
0
 40
0.75
  0
ENDBLK
  0
BLOCK
  2
-004-AI9-BLK1
 70
   64
 10
0
 20
0
 30
0
  0
ENDBLK
  0
ENDSEC
  0
SECTION
  2
ENTITIES
  0
CIRCLE
  8
_0-2_2
  6
CONTINUOUS
 62
    2
 10
471.09552714529468
 20
350.10938485253712
 40
3.25
  0
ARC
  8
_0-8_S
  6
CONTINUOUS
 62
    6
 10
441.09552714529468
 20
369.10938485253712
 40
102.8676373465776
 50
0
 51
50.000000000007383
  0
LINE
  8
_0-2_2
  6
C5
 62
    7
 10
203.79961366155098
 20
522.38878854745531
 11
203.79961366155098
 21
429.60938485253689
  0
LINE
  8
_0-4_4
  6
CONTINUOUS
 62
    4
 10
472.40190274847589
 20
270.24192844841428
 11
483.401902748476
 21
270.24192844841428
  0
LINE
  8
_0-4_4
  6
CONTINUOUS
 62
    4
 10
411.0955271452948
 20
353.60938485253712
 11
407.0955271452948
 21
353.60938485253712
  0
CIRCLE
  8
_0-2_2
  6
CONTINUOUS
 62
    2
 10
411.0955271452948
 20
350.10938485253712
 40
3.25
  0
TEXT
  8
_0-8_S
 62
    7
 10
165.8954548570199
 20
539.39406331339217
 40
6
 41
1
 50
0
  1
4-R6
  0
INSERT
  2
-001-SUG-AR06
  8
_0-4_4
 10
332.01239192413141
 20
598.28742490859554
 41
1
 42
1
 50
0
  0
INSERT
  2
-001-SUG-AR06
  8
_0-4_4
 10
332.01239192413141
 20
598.28742490859554
 41
0.5
 42
0.5
 50
0
  0
INSERT
  2
-001-SUG-AR06
  8
_0-4_4
 10
428.240076803703
 20
555.79022944607289
 41
0.5
 42
0.5
 50
0
  0
INSERT
  2
-001-SUG-AR06
  8
_0-4_4
 10
524.11239192413132
 20
731.88742490859545
 41
0.5
 42
0.5
 50
0
  0
INSERT
  2
-001-SUG-AR06
  8
_0-4_4
 10
1916.1240119462475
 20
593.54545372379289
 41
1
 42
1
 50
0
  0
INSERT
  2
-001-SUG-AR06
  8
_0-4_4
 10
1916.1240119462475
 20
593.54545372379289
 41
0.5
 42
0.5
 50
0
  0
INSERT
  2
-001-SUG-AR06
  8
_0-4_4
 10
2012.3516968258184
 20
551.04825826127023
 41
0.5
 42
0.5
 50
0
  0
INSERT
  2
-001-SUG-AR06
  8
_0-4_4
 10
2108.2240119462476
 20
727.14545372379291
 41
0.5
 42
0.5
 50
0
  0
INSERT
  2
-001-SUG-AR06
  8
_0-4_4
 10
4543.9740379026807
 20
2034.04119336856
 41
1
 42
1
 50
0
  0
INSERT
  2
-001-SUG-AR06
  8
_0-4_4
 10
4543.9740379026807
 20
2034.04119336856
 41
0.5
 42
0.5
 50
0
  0
INSERT
  2
-001-SUG-AR06
  8
_0-4_4
 10
4640.2017227822525
 20
1991.543997906037
 41
0.5
 42
0.5
 50
0
  0
INSERT
  2
-001-SUG-AR06
  8
_0-4_4
 10
4736.0740379026811
 20
2167.6411933685599
 41
0.5
 42
0.5
 50
0
  0
INSERT
  2
-001-SUG-AR06
  8
_0-4_4
 10
332.01239192413129
 20
1270.625930565106
 41
1
 42
1
 50
0
  0
INSERT
  2
-001-SUG-AR06
  8
_0-4_4
 10
332.01239192413129
 20
1270.625930565106
 41
0.5
 42
0.5
 50
0
  0
INSERT
  2
-001-SUG-AR06
  8
_0-4_4
 10
428.24007680370289
 20
1228.128735102584
 41
0.5
 42
0.5
 50
0
  0
INSERT
  2
-001-SUG-AR06
  8
_0-4_4
 10
524.11239192413132
 20
1404.2259305651069
 41
0.5
 42
0.5
 50
0
  0
INSERT
  2
-001-SUG-AR06
  8
_0-4_4
 10
1916.1240119462475
 20
1265.8839593803041
 41
1
 42
1
 50
0
  0
INSERT
  2
-001-SUG-AR06
  8
_0-4_4
 10
1916.1240119462475
 20
1265.8839593803041
 41
0.5
 42
0.5
 50
0
  0
INSERT
  2
-001-SUG-AR06
  8
_0-4_4
 10
2012.3516968258184
 20
1223.3867639177811
 41
0.5
 42
0.5
 50
0
  0
INSERT
  2
-001-SUG-AR06
  8
_0-4_4
 10
2108.2240119462476
 20
1399.483959380304
 41
0.5
 42
0.5
 50
0
  0
INSERT
  2
-001-SUG-AR06
  8
_0-4_4
 10
4995.3669171784313
 20
2136.219474681267
 41
1
 42
1
 50
0
  0
INSERT
  2
-001-SUG-AR06
  8
_0-4_4
 10
4995.3669171784313
 20
2136.219474681267
 41
0.5
 42
0.5
 50
0
  0
INSERT
  2
-001-SUG-AR06
  8
_0-4_4
 10
5091.5946020580041
 20
2093.7222792187449
 41
0.5
 42
0.5
 50
0
  0
INSERT
  2
-001-SUG-AR06
  8
_0-4_4
 10
5187.4669171784317
 20
2269.8194746812669
 41
0.5
 42
0.5
 50
0
  0
CIRCLE
  8
_0-2_2
  6
CONTINUOUS
 62
    6
 10
229.29961366155058
 20
369.10938485253712
 40
23.5
  0
ARC
  8
_0-2_2
  6
CONTINUOUS
 62
    2
 10
229.29961366155058
 20
343.60938485253712
 40
50
 50
66.138551098921411
 51
113.86144890107862
  0
ARC
  8
_0-2_2
  6
CONTINUOUS
 62
    2
 10
254.79961366155058
 20
369.10938485253712
 40
50
 50
156.13855109892796
 51
203.86144890107187
  0
ARC
  8
_0-2_2
  6
CONTINUOUS
 62
    2
 10
229.29961366155058
 20
394.60938485253712
 40
50
 50
246.13855109892143
 51
293.86144890107857
  0
ARC
  8
_0-2_2
  6
CONTINUOUS
 62
    2
 10
203.7996136615505
 20
369.10938485253712
 40
50
 50
336.13855109892808
 51
23.86144890107192
  0
LINE
  8
_0-4_4
  6
CONTINUOUS
 62
    4
 10
264.29961366155055
 20
291.11075987685712
 11
264.29961366155055
 21
261.11075987685706
  0
LINE
  8
_0-4_4
  6
CONTINUOUS
 62
    4
 10
260.2996136615505
 20
257.11075987685706
 11
198.2996136615505
 21
257.11075987685706
  0
LINE
  8
_0-9_T
  6
CENTER2_17
 62
    5
 10
229.29961366155058
 20
297.5773113470878
 11
229.29961366155058
 21
249.53339466746129
  0
ARC
  8
_0-4_4
  6
CONTINUOUS
 62
    4
 10
260.2996136615505
 20
261.11075987685706
 40
4
 50
270
 51
0
  0
LINE
  8
_0-4_4
  6
CONTINUOUS
 62
    4
 10
194.2996136615505
 20
291.1107598768578
 11
194.2996136615505
 21
261.11075987685706
  0
ARC
  8
_0-4_4
  6
CONTINUOUS
 62
    4
 10
198.2996136615505
 20
261.11075987685706
 40
4
 50
180
 51
270
  0
LINE
  8
_0-4_4
  6
CONTINUOUS
 62
    4
 10
264.29961366155055
 20
290.51075987685721
 11
265.79961366155055
 21
289.65075987685719
  0
LINE
  8
_0-4_4
  6
CONTINUOUS
 62
    4
 10
265.79961366155055
 20
289.65075987685719
 11
264.29961366155055
 21
281.11075987685706
  0
LINE
  8
_0-4_4
  6
CONTINUOUS
 62
    4
 10
194.2996136615505
 20
290.51075987685761
 11
192.7996136615505
 21
289.65075987685771
  0
LINE
  8
_0-4_4
  6
CONTINUOUS
 62
    4
 10
192.7996136615505
 20
289.65075987685771
 11
194.2996136615505
 21
281.11075987685768
  0
LINE
  8
_0-4_4
  6
CONTINUOUS
 62
    4
 10
237.7996136615505
 20
291.11075987685729
 11
237.7996136615505
 21
281.11075987685729
  0
LINE
  8
_0-4_4
  6
CONTINUOUS
 62
    4
 10
236.7996136615505
 20
290.51075987685738
 11
236.7996136615505
 21
281.11075987685729
  0
LINE
  8
_0-4_4
  6
CONTINUOUS
 62
    4
 10
221.79961366155058
 20
290.51075987685738
 11
221.79961366155058
 21
281.11075987685751
  0
LINE
  8
_0-4_4
  6
CONTINUOUS
 62
    4
 10
220.7996136615505
 20
291.11075987685751
 11
220.7996136615505
 21
281.11075987685751
  0
LINE
  8
_0-4_4
  6
CONTINUOUS
 62
    4
 10
236.7996136615505
 20
290.51075987685738
 11
221.79961366155058
 21
290.51075987685738
  0
LINE
  8
_0-4_4
  6
CONTINUOUS
 62
    4
 10
236.7996136615505
 20
289.65075987685719
 11
221.79961366155058
 21
289.65075987685748
  0
LINE
  8
_0-4_4
  6
CONTINUOUS
 62
    4
 10
237.7996136615505
 20
281.11075987685729
 11
220.7996136615505
 21
281.11075987685751
  0
LINE
  8
_0-6_6
  6
CONTINUOUS
 62
    6
 10
452.5955271452948
 20
514.90938485253696
 11
416.0955271452948
 21
514.90938485253696
  0
LINE
  8
_0-6_6
  6
CONTINUOUS
 62
    6
 10
416.0955271452948
 20
407.30938485253722
 11
452.5955271452948
 21
407.30938485253722
  0
LINE
  8
_0-6_6
  6
CONTINUOUS
 62
    6
 10
452.0955271452948
 20
407.80938485253722
 11
416.5955271452948
 21
407.80938485253722
  0
LINE
  8
_0-6_6
  6
CONTINUOUS
 62
    6
 10
416.5955271452948
 20
407.80938485253722
 11
416.5955271452948
 21
514.40938485253696
  0
LINE
  8
_0-6_6
  6
CONTINUOUS
 62
    6
 10
416.5955271452948
 20
514.40938485253696
 11
452.0955271452948
 21
514.40938485253696
  0
LINE
  8
_0-4_4
  6
CONTINUOUS
 62
    4
 10
225.79961366155058
 20
391.8415206958756
 11
225.79961366155058
 21
346.37724900919841
  0
LINE
  8
_0-4_4
  6
CONTINUOUS
 62
    4
 10
232.7996136615505
 20
391.8415206958756
 11
232.7996136615505
 21
346.37724900919841
  0
CIRCLE
  8
_0-4_4
  6
CONTINUOUS
 62
    4
 10
229.29961366155058
 20
369.10938485253712
 40
23
  0
ARC
  8
_0-4_4
  6
CONTINUOUS
 62
    4
 10
393.835533791589
 20
369.10938485253712
 40
96
 50
168.59153311565689
 51
191.408466884343
  0
ARC
  8
_0-4_4
  6
CONTINUOUS
 62
    4
 10
304.63351587719427
 20
351.10938485253712
 40
5
 50
191.408466884343
 51
254.95388368049521
  0
ARC
  8
_0-4_4
  6
CONTINUOUS
 62
    4
 10
304.63351587719427
 20
387.10938485253712
 40
5
 50
127.4795426468646
 51
168.59153311565689
  0
LINE
  8
_0-2_2
  6
CONTINUOUS
 62
    2
 10
476.5955271452948
 20
349.35938485253712
 11
476.5955271452948
 21
347.14857541895879
  0
LINE
  8
_0-2_2
  6
CONTINUOUS
 62
    2
 10
476.5955271452948
 20
350.85938485253712
 11
476.092401656861
 21
350.85938485253712
  0
LINE
  8
_0-2_2
  6
CONTINUOUS
 62
    2
 10
476.5955271452948
 20
349.35938485253712
 11
475.94121147905241
 21
349.35938485253712
  0
LINE
  8
_0-2_2
  6
CONTINUOUS
 62
    2
 10
405.5955271452948
 20
349.35938485253712
 11
405.5955271452948
 21
347.14857541895879
  0
LINE
  8
_0-2_2
  6
CONTINUOUS
 62
    2
 10
406.24984281153718
 20
349.35938485253712
 11
405.5955271452948
 21
349.35938485253712
  0
LINE
  8
_0-2_2
  6
CONTINUOUS
 62
    2
 10
406.0986526337287
 20
350.85938485253712
 11
405.5955271452948
 21
350.85938485253712
  0
LINE
  8
_0-2_2
  6
CONTINUOUS
 62
    2
 10
476.5955271452948
 20
437.85938485253712
 11
476.59552714529468
 21
420.69900446778297
  0
LINE
  8
_0-2_2
  6
CONTINUOUS
 62
    2
 10
476.0955271452948
 20
437.85938485253712
 11
476.5955271452948
 21
437.85938485253712
  0
LINE
  8
_0-2_2
  6
CONTINUOUS
 62
    2
 10
476.0955271452948
 20
439.35938485253712
 11
476.5955271452948
 21
439.35938485253712
  0
ARC
  8
_0-2_2
  6
CONTINUOUS
 62
    2
 10
472.5955271452948
 20
518.10938485253712
 40
4
 50
82.819244218542266
 51
90
  0
LINE
  8
_0-2_2
  6
CONTINUOUS
 62
    2
 10
475.67810284025046
 20
518.60938485253712
 11
476.5641541118901
 21
518.60938485253712
  0
ARC
  8
_0-2_2
  6
CONTINUOUS
 62
    2
 10
409.5955271452948
 20
518.10938485253712
 40
4
 50
172.81924421854063
 51
180.00000000000003
  0
LINE
  8
_0-2_2
  6
CONTINUOUS
 62
    2
 10
448.5955271452948
 20
522.109384852537
 11
472.5955271452948
 21
522.109384852537
  0
ARC
  8
_0-2_2
  6
CONTINUOUS
 62
    2
 10
441.09552714529468
 20
414.10938485253712
 40
78
 50
270.55092944649169
 51
293.55646430911139
  0
LINE
  8
_0-2_2
  6
CONTINUOUS
 62
    2
 10
441.8455271452948
 20
339.60938485253712
 11
441.8455271452948
 21
336.11299070511512
  0
LINE
  8
_0-2_2
  6
CONTINUOUS
 62
    2
 10
440.3455271452948
 20
339.60938485253712
 11
440.3455271452948
 21
336.11299070511512
  0
ARC
  8
_0-2_2
  6
CONTINUOUS
 62
    2
 10
472.5955271452948
 20
347.14857541895879
 40
4
 50
310.55363833335588
 51
0
  0
LINE
  8
_0-2_2
  6
CONTINUOUS
 62
    2
 10
474.59552714529468
 20
344.10938485253712
 11
475.19616566323191
 21
344.10938485253712
  0
LINE
  8
_0-2_2
  6
CONTINUOUS
 62
    2
 10
406.9948886273595
 20
344.10938485253712
 11
407.5955271452948
 21
344.10938485253712
  0
LINE
  8
_0-2_2
  6
CONTINUOUS
 62
    2
 10
409.0955271452948
 20
522.07801181913328
 11
409.0955271452948
 21
521.19196054749295
  0
LINE
  8
_0-2_2
  6
CONTINUOUS
 62
    2
 10
473.0955271452948
 20
522.07801181913283
 11
473.0955271452948
 21
521.19196054749295
  0
LINE
  8
_0-2_2
  6
CONTINUOUS
 62
    2
 10
405.62690017869846
 20
518.60938485253712
 11
406.51295145033856
 21
518.60938485253712
  0
ARC
  8
_0-2_2
  6
CONTINUOUS
 62
    2
 10
409.5955271452948
 20
518.10938485253712
 40
4
 50
90
 51
97.180755781457734
  0
ARC
  8
_0-2_2
  6
CONTINUOUS
 62
    2
 10
472.5955271452948
 20
518.10938485253712
 40
4
 50
0
 51
7.1807557814593741
  0
ARC
  8
_0-2_2
  6
CONTINUOUS
 62
    2
 10
409.5955271452948
 20
347.14857541895879
 40
4
 50
180
 51
229.44636166664401
  0
ARC
  8
_0-2_2
  6
CONTINUOUS
 62
    2
 10
409.5955271452948
 20
518.10938485253712
 40
6
 50
90
 51
180
  0
ARC
  8
_0-2_2
  6
CONTINUOUS
 62
    2
 10
472.5955271452948
 20
518.10938485253712
 40
6
 50
0
 51
90
  0
ARC
  8
_0-2_2
  6
CONTINUOUS
 62
    2
 10
472.5955271452948
 20
347.14857541895879
 40
6
 50
295.19343897466774
 51
359.99999999999994
  0
ARC
  8
_0-2_2
  6
CONTINUOUS
 62
    2
 10
409.5955271452948
 20
347.14857541895879
 40
6
 50
180
 51
244.80656102533229
  0
ARC
  8
_0-2_2
  6
CONTINUOUS
 62
    2
 10
441.09552714529468
 20
414.10938485253712
 40
78
 50
246.44353569088858
 51
269.44907055350836
  0
ARC
  8
_0-2_2
  6
CONTINUOUS
 62
    2
 10
441.09552714529468
 20
414.10938485253712
 40
80
 50
244.80656102533229
 51
295.1934389746678
  0
LINE
  8
_0-2_2
  6
CONTINUOUS
 62
    2
 10
476.5955271452948
 20
518.10938485253712
 11
476.5955271452948
 21
491.60938485253712
  0
LINE
  8
_0-2_2
  6
CONTINUOUS
 62
    2
 10
409.5955271452948
 20
522.109384852537
 11
433.5955271452948
 21
522.109384852537
  0
LINE
  8
_0-2_2
  6
CONTINUOUS
 62
    2
 10
405.5955271452948
 20
518.10938485253712
 11
405.5955271452948
 21
491.60938485253712
  0
LINE
  8
_0-2_2
  6
CONTINUOUS
 62
    2
 10
409.5955271452948
 20
524.10938485253712
 11
472.5955271452948
 21
524.10938485253712
  0
LINE
  8
_0-2_2
  6
CONTINUOUS
 62
    2
 10
478.59552714529468
 20
518.10938485253712
 11
478.5955271452948
 21
419.51914220384651
  0
LINE
  8
_0-2_2
  6
CONTINUOUS
 62
    2
 10
403.5955271452948
 20
518.10938485253712
 11
403.5955271452948
 21
347.14857541895879
  0
ARC
  8
_0-4_4
  6
CONTINUOUS
 62
    4
 10
475.09552714529468
 20
354.60938485253712
 40
1
 50
270
 51
0
  0
ARC
  8
_0-4_4
  6
CONTINUOUS
 62
    4
 10
466.59552714529468
 20
342.10938485253712
 40
1
 50
270
 51
0
  0
ARC
  8
_0-4_4
  6
CONTINUOUS
 62
    4
 10
415.5955271452948
 20
342.10938485253712
 40
1
 50
180
 51
270
  0
ARC
  8
_0-4_4
  6
CONTINUOUS
 62
    4
 10
407.0955271452948
 20
354.60938485253712
 40
1
 50
180
 51
270
  0
ARC
  8
_0-4_4
  6
CONTINUOUS
 62
    4
 10
475.09552714529468
 20
434.10938485253712
 40
1
 50
0
 51
90
  0
ARC
  8
_0-4_4
  6
CONTINUOUS
 62
    4
 10
475.09552714529468
 20
443.109384852537
 40
1
 50
270
 51
0
  0
ARC
  8
_0-4_4
  6
CONTINUOUS
 62
    4
 10
407.0955271452948
 20
434.10938485253712
 40
1
 50
90
 51
180
  0
ARC
  8
_0-4_4
  6
CONTINUOUS
 62
    4
 10
407.0955271452948
 20
443.109384852537
 40
1
 50
180
 51
270
  0
ARC
  8
_0-4_4
  6
CONTINUOUS
 62
    4
 10
475.09552714529468
 20
512.10938485253712
 40
1
 50
0
 51
90
  0
ARC
  8
_0-4_4
  6
CONTINUOUS
 62
    4
 10
466.59552714529468
 20
520.60938485253712
 40
1
 50
0
 51
90
  0
ARC
  8
_0-4_4
  6
CONTINUOUS
 62
    4
 10
407.0955271452948
 20
512.10938485253712
 40
1
 50
90
 51
180
  0
ARC
  8
_0-4_4
  6
CONTINUOUS
 62
    4
 10
415.5955271452948
 20
520.60938485253712
 40
1
 50
90
 51
180
  0
LINE
  8
_0-4_4
  6
CONTINUOUS
 62
    4
 10
450.39552714529447
 20
467.10938485253712
 11
452.0955271452948
 21
467.10938485253712
  0
LINE
  8
_0-4_4
  6
CONTINUOUS
 62
    4
 10
450.39552714529447
 20
455.109384852537
 11
452.0955271452948
 21
455.109384852537
  0
LINE
  8
_0-4_4
  6
CONTINUOUS
 62
    4
 10
455.0955271452948
 20
465.60938485253712
 11
455.0955271452948
 21
456.60938485253712
  0
LINE
  8
_0-4_4
  6
CONTINUOUS
 62
    4
 10
416.0955271452948
 20
515.10938485253712
 11
416.0955271452948
 21
407.10938485253712
  0
LINE
  8
_0-4_4
  6
CONTINUOUS
 62
    4
 10
416.0955271452948
 20
407.10938485253712
 11
453.0955271452948
 21
407.10938485253712
  0
LINE
  8
_0-4_4
  6
CONTINUOUS
 62
    4
 10
471.5955271452948
 20
433.10938485253712
 11
471.5955271452948
 21
358.10938485253712
  0
LINE
  8
_0-4_4
  6
CONTINUOUS
 62
    4
 10
467.5955271452948
 20
516.60938485253712
 11
467.5955271452948
 21
520.60938485253712
  0
LINE
  8
_0-4_4
  6
CONTINUOUS
 62
    4
 10
471.09552714529468
 20
513.10938485253712
 11
475.09552714529468
 21
513.10938485253712
  0
ARC
  8
_0-4_4
  6
CONTINUOUS
 62
    4
 10
471.09552714529468
 20
516.60938485253712
 40
3.5
 50
180
 51
270
  0
LINE
  8
_0-4_4
  6
CONTINUOUS
 62
    4
 10
474.59552714529468
 20
433.10938485253712
 11
474.59552714529468
 21
430.85378036006199
  0
LINE
  8
_0-4_4
  6
CONTINUOUS
 62
    4
 10
416.0955271452948
 20
515.10938485253712
 11
453.0955271452948
 21
515.10938485253712
  0
LINE
  8
_0-4_4
  6
CONTINUOUS
 62
    4
 10
411.0955271452948
 20
435.10938485253712
 11
407.0955271452948
 21
435.10938485253712
  0
LINE
  8
_0-4_4
  6
CONTINUOUS
 62
    4
 10
411.0955271452948
 20
442.10938485253712
 11
407.0955271452948
 21
442.10938485253712
  0
ARC
  8
_0-4_4
  6
CONTINUOUS
 62
    4
 10
411.0955271452948
 20
438.609384852537
 40
3.5
 50
270
 51
90
  0
ARC
  8
_0-4_4
  6
CONTINUOUS
 62
    4
 10
471.09552714529468
 20
516.60938485253712
 40
5
 50
0
 51
90
  0
ARC
  8
_0-4_4
  6
CONTINUOUS
 62
    4
 10
411.0955271452948
 20
516.60938485253712
 40
5
 50
90
 51
180
  0
LINE
  8
_0-4_4
  6
CONTINUOUS
 62
    4
 10
411.0955271452948
 20
521.60938485253712
 11
471.09552714529468
 21
521.60938485253712
  0
LINE
  8
_0-4_4
  6
CONTINUOUS
 62
    4
 10
433.5955271452948
 20
523.10938485253712
 11
433.5955271452948
 21
521.60938485253712
  0
LINE
  8
_0-4_4
  6
CONTINUOUS
 62
    4
 10
448.5955271452948
 20
523.10938485253712
 11
433.5955271452948
 21
523.10938485253712
  0
LINE
  8
_0-4_4
  6
CONTINUOUS
 62
    4
 10
448.5955271452948
 20
521.60938485253712
 11
448.5955271452948
 21
523.10938485253712
  0
LINE
  8
_0-4_4
  6
CONTINUOUS
 62
    4
 10
476.0955271452948
 20
516.60938485253712
 11
476.0955271452948
 21
420.99397003376697
  0
LINE
  8
_0-4_4
  6
CONTINUOUS
 62
    4
 10
477.5955271452948
 20
491.60938485253712
 11
476.0955271452948
 21
491.60938485253712
  0
LINE
  8
_0-4_4
  6
CONTINUOUS
 62
    4
 10
477.5955271452948
 20
476.60938485253712
 11
477.5955271452948
 21
491.60938485253712
  0
LINE
  8
_0-4_4
  6
CONTINUOUS
 62
    4
 10
476.0955271452948
 20
476.60938485253712
 11
477.5955271452948
 21
476.60938485253712
  0
LINE
  8
_0-4_4
  6
CONTINUOUS
 62
    4
 10
416.0955271452948
 20
341.10938485253712
 11
466.09552714529468
 21
341.10938485253712
  0
LINE
  8
_0-4_4
  6
CONTINUOUS
 62
    4
 10
433.5955271452948
 20
339.60938485253712
 11
433.5955271452948
 21
341.10938485253712
  0
LINE
  8
_0-4_4
  6
CONTINUOUS
 62
    4
 10
448.5955271452948
 20
339.60938485253712
 11
433.5955271452948
 21
339.60938485253712
  0
LINE
  8
_0-4_4
  6
CONTINUOUS
 62
    4
 10
448.5955271452948
 20
341.10938485253712
 11
448.5955271452948
 21
339.60938485253712
  0
LINE
  8
_0-4_4
  6
CONTINUOUS
 62
    4
 10
406.0955271452948
 20
516.60938485253712
 11
406.0955271452948
 21
351.10938485253712
  0
LINE
  8
_0-4_4
  6
CONTINUOUS
 62
    4
 10
404.5955271452948
 20
371.60938485253712
 11
406.0955271452948
 21
371.60938485253712
  0
LINE
  8
_0-4_4
  6
CONTINUOUS
 62
    4
 10
404.5955271452948
 20
386.60938485253712
 11
404.5955271452948
 21
371.60938485253712
  0
LINE
  8
_0-4_4
  6
CONTINUOUS
 62
    4
 10
406.0955271452948
 20
386.60938485253712
 11
404.5955271452948
 21
386.60938485253712
  0
LINE
  8
_0-4_4
  6
CONTINUOUS
 62
    4
 10
404.5955271452948
 20
476.60938485253712
 11
406.0955271452948
 21
476.60938485253712
  0
LINE
  8
_0-4_4
  6
CONTINUOUS
 62
    4
 10
404.5955271452948
 20
491.60938485253712
 11
404.5955271452948
 21
476.60938485253712
  0
LINE
  8
_0-4_4
  6
CONTINUOUS
 62
    4
 10
406.0955271452948
 20
491.60938485253712
 11
404.5955271452948
 21
491.60938485253712
  0
LINE
  8
_0-4_4
  6
CONTINUOUS
 62
    4
 10
471.5955271452948
 20
358.10938485253712
 11
476.0955271452948
 21
358.10938485253712
  0
LINE
  8
_0-4_4
  6
CONTINUOUS
 62
    4
 10
471.09552714529468
 20
353.60938485253712
 11
475.09552714529468
 21
353.60938485253712
  0
LINE
  8
_0-4_4
  6
CONTINUOUS
 62
    4
 10
467.5955271452948
 20
350.10938485253712
 11
467.5955271452948
 21
342.10938485253712
  0
LINE
  8
_0-4_4
  6
CONTINUOUS
 62
    4
 10
414.5955271452948
 20
350.10938485253712
 11
414.5955271452948
 21
342.10938485253712
  0
ARC
  8
_0-4_4
  6
CONTINUOUS
 62
    4
 10
411.0955271452948
 20
350.10938485253712
 40
3.5
 50
0
 51
90
  0
ARC
  8
_0-4_4
  6
CONTINUOUS
 62
    4
 10
471.09552714529468
 20
350.10938485253712
 40
3.5
 50
90
 51
180
  0
LINE
  8
_0-4_4
  6
CONTINUOUS
 62
    4
 10
471.09552714529468
 20
435.10938485253712
 11
475.09552714529468
 21
435.10938485253712
  0
LINE
  8
_0-4_4
  6
CONTINUOUS
 62
    4
 10
471.09552714529468
 20
442.10938485253712
 11
475.09552714529468
 21
442.10938485253712
  0
ARC
  8
_0-4_4
  6
CONTINUOUS
 62
    4
 10
471.09552714529468
 20
438.609384852537
 40
3.5
 50
90
 51
270
  0
ARC
  8
_0-4_4
  6
CONTINUOUS
 62
    4
 10
466.09552714529468
 20
351.10938485253712
 40
10
 50
270
 51
0
  0
ARC
  8
_0-4_4
  6
CONTINUOUS
 62
    4
 10
416.0955271452948
 20
351.10938485253712
 40
10
 50
180
 51
270
  0
LINE
  8
_0-4_4
  6
CONTINUOUS
 62
    4
 10
414.5955271452948
 20
516.60938485253712
 11
414.5955271452948
 21
520.60938485253712
  0
LINE
  8
_0-4_4
  6
CONTINUOUS
 62
    4
 10
411.0955271452948
 20
513.10938485253712
 11
407.0955271452948
 21
513.10938485253712
  0
ARC
  8
_0-4_4
  6
CONTINUOUS
 62
    4
 10
411.0955271452948
 20
516.60938485253712
 40
3.5
 50
270
 51
0
  0
LINE
  8
_0-4_4
  6
CONTINUOUS
 62
    4
 10
471.5955271452948
 20
433.10938485253712
 11
476.0955271452948
 21
433.10938485253712
  0
ARC
  8
_0-4_4
  6
CONTINUOUS
 62
    4
 10
120.02623593004898
 20
387.10938485253712
 40
5
 50
11.408466884343049
 51
53.837995065698479
  0
ARC
  8
_0-4_4
  6
CONTINUOUS
 62
    4
 10
120.02623593004898
 20
351.10938485253712
 40
5
 50
285.04611631950479
 51
348.591533115657
  0
ARC
  8
_0-4_4
  6
CONTINUOUS
 62
    4
 10
30.82421801565431
 20
369.10938485253712
 40
96
 50
348.591533115657
 51
11.40846688434306
  0
ARC
  8
_0-4_4
  6
CONTINUOUS
 62
    4
 10
319.33553379158991
 20
520.60938485253712
 40
1
 50
0
 51
90
  0
ARC
  8
_0-4_4
  6
CONTINUOUS
 62
    4
 10
342.33553379158991
 20
512.10938485253712
 40
1
 50
0
 51
90
  0
ARC
  8
_0-4_4
  6
CONTINUOUS
 62
    4
 10
342.33553379158991
 20
434.10938485253712
 40
1
 50
0
 51
90
  0
ARC
  8
_0-4_4
  6
CONTINUOUS
 62
    4
 10
342.33553379158991
 20
443.109384852537
 40
1
 50
270
 51
0
  0
ARC
  8
_0-4_4
  6
CONTINUOUS
 62
    4
 10
319.33553379158991
 20
342.10938485253712
 40
1
 50
270
 51
0
  0
ARC
  8
_0-4_4
  6
CONTINUOUS
 62
    4
 10
342.33553379158991
 20
354.60938485253712
 40
1
 50
270
 51
0
  0
LINE
  8
_0-4_4
  6
CONTINUOUS
 62
    4
 10
343.33553379158991
 20
516.60938485253712
 11
343.33553379158991
 21
346.10938485253712
  0
LINE
  8
_0-4_4
  6
CONTINUOUS
 62
    4
 10
310.79553379159
 20
523.10776870317102
 11
319.33553379158991
 21
521.60938485253712
  0
LINE
  8
_0-4_4
  6
CONTINUOUS
 62
    4
 10
309.93553379158976
 20
521.60938485253712
 11
310.79553379159
 21
523.10776870317102
  0
LINE
  8
_0-4_4
  6
CONTINUOUS
 62
    4
 10
319.33553379158991
 20
370.60938485253712
 11
319.33553379158991
 21
387.60938485253712
  0
LINE
  8
_0-4_4
  6
CONTINUOUS
 62
    4
 10
309.33553379158991
 20
492.609384852537
 11
309.33553379158991
 21
521.60938485253712
  0
LINE
  8
_0-4_4
  6
CONTINUOUS
 62
    4
 10
310.79553379159
 20
476.60938485253712
 11
310.79553379159
 21
491.60938485253712
  0
LINE
  8
_0-4_4
  6
CONTINUOUS
 62
    4
 10
309.93553379158976
 20
476.60938485253712
 11
309.93553379158976
 21
491.60938485253712
  0
LINE
  8
_0-4_4
  6
CONTINUOUS
 62
    4
 10
309.33553379158991
 20
492.609384852537
 11
319.33553379158991
 21
492.609384852537
  0
LINE
  8
_0-4_4
  6
CONTINUOUS
 62
    4
 10
309.93553379158976
 20
491.60938485253712
 11
319.33553379158991
 21
491.60938485253712
  0
LINE
  8
_0-4_4
  6
CONTINUOUS
 62
    4
 10
309.33553379158991
 20
475.60938485253712
 11
319.33553379158991
 21
475.60938485253712
  0
LINE
  8
_0-4_4
  6
CONTINUOUS
 62
    4
 10
309.93553379158976
 20
476.60938485253712
 11
319.33553379158991
 21
476.60938485253712
  0
LINE
  8
_0-4_4
  6
CONTINUOUS
 62
    4
 10
310.69553379158958
 20
371.60938485253712
 11
310.69553379158958
 21
386.60938485253712
  0
LINE
  8
_0-4_4
  6
CONTINUOUS
 62
    4
 10
310.70155919537399
 20
339.60938485253712
 11
319.33553379158991
 21
341.10938485253712
  0
LINE
  8
_0-4_4
  6
CONTINUOUS
 62
    4
 10
309.83553379158991
 20
341.10938485253712
 11
310.70155919537399
 21
339.60938485253712
  0
LINE
  8
_0-4_4
  6
CONTINUOUS
 62
    4
 10
309.33553379158991
 20
387.60938485253712
 11
309.33553379158991
 21
475.60938485253712
  0
LINE
  8
_0-4_4
  6
CONTINUOUS
 62
    4
 10
309.83553379158991
 20
371.60938485253712
 11
309.83553379158991
 21
386.60938485253712
  0
LINE
  8
_0-4_4
  6
CONTINUOUS
 62
    4
 10
309.33553379158991
 20
387.60938485253712
 11
319.33553379158991
 21
387.60938485253712
  0
LINE
  8
_0-4_4
  6
CONTINUOUS
 62
    4
 10
309.33553379158991
 20
370.60938485253712
 11
319.33553379158991
 21
370.60938485253712
  0
LINE
  8
_0-4_4
  6
CONTINUOUS
 62
    4
 10
309.83553379158991
 20
371.60938485253712
 11
319.33553379158991
 21
371.60938485253712
  0
LINE
  8
_0-4_4
  6
CONTINUOUS
 62
    4
 10
309.83553379158991
 20
386.60938485253712
 11
319.33553379158991
 21
386.60938485253712
  0
LINE
  8
_0-4_4
  6
CONTINUOUS
 62
    4
 10
319.33553379158991
 20
475.60938485253712
 11
319.33553379158991
 21
492.609384852537
  0
LINE
  8
_0-4_4
  6
CONTINUOUS
 62
    4
 10
320.33553379158991
 20
513.10938485253712
 11
320.33553379158991
 21
520.60938485253712
  0
LINE
  8
_0-4_4
  6
CONTINUOUS
 62
    4
 10
320.33553379158991
 20
435.10938485253712
 11
320.33553379158991
 21
442.10938485253712
  0
LINE
  8
_0-4_4
  6
CONTINUOUS
 62
    4
 10
342.33553379158991
 20
353.60938485253712
 11
320.33553379158991
 21
353.60938485253712
  0
LINE
  8
_0-4_4
  6
CONTINUOUS
 62
    4
 10
342.33553379158991
 20
435.10938485253712
 11
320.33553379158991
 21
435.10938485253712
  0
LINE
  8
_0-4_4
  6
CONTINUOUS
 62
    4
 10
342.33553379158991
 20
442.10938485253712
 11
320.33553379158991
 21
442.10938485253712
  0
LINE
  8
_0-4_4
  6
CONTINUOUS
 62
    4
 10
342.33553379158991
 20
513.10938485253712
 11
320.33553379158991
 21
513.10938485253712
  0
LINE
  8
_0-4_4
  6
CONTINUOUS
 62
    4
 10
320.33553379158991
 20
342.10938485253712
 11
320.33553379158991
 21
353.60938485253712
  0
LINE
  8
_0-4_4
  6
CONTINUOUS
 62
    4
 10
309.33553379158991
 20
341.10938485253712
 11
309.33553379158991
 21
370.60938485253712
  0
ARC
  8
_0-4_4
  6
CONTINUOUS
 62
    4
 10
338.33553379158991
 20
346.10938485253712
 40
5
 50
270
 51
0
  0
LINE
  8
_0-4_4
  6
CONTINUOUS
 62
    4
 10
338.33553379158991
 20
341.10938485253712
 11
309.33553379158991
 21
341.10938485253712
  0
ARC
  8
_0-4_4
  6
CONTINUOUS
 62
    4
 10
338.33553379158991
 20
516.60938485253712
 40
5
 50
0
 51
90
  0
LINE
  8
_0-4_4
  6
CONTINUOUS
 62
    4
 10
309.33553379158991
 20
521.60938485253712
 11
338.33553379158991
 21
521.60938485253712
  0
ARC
  8
_0-4_4
  6
CONTINUOUS
 62
    4
 10
88.824218015654765
 20
386.10938485253712
 40
3
 50
0
 51
90
  0
LINE
  8
_0-4_4
  6
CONTINUOUS
 62
    4
 10
85.324218015654765
 20
430.609384852537
 11
85.324218015654765
 21
389.10938485253712
  0
LINE
  8
_0-4_4
  6
CONTINUOUS
 62
    4
 10
85.324218015654765
 20
389.10938485253712
 11
88.824218015654765
 21
389.10938485253712
  0
LINE
  8
_0-4_4
  6
CONTINUOUS
 62
    4
 10
91.824218015654765
 20
357.60938485253712
 11
91.824218015654765
 21
386.10938485253712
  0
LINE
  8
_0-4_4
  6
CONTINUOUS
 62
    4
 10
94.524218015655038
 20
357.60938485253712
 11
94.524218015655038
 21
430.609384852537
  0
LINE
  8
_0-4_4
  6
CONTINUOUS
 62
    4
 10
81.324218015654765
 20
430.609384852537
 11
94.524218015655038
 21
430.609384852537
  0
LINE
  8
_0-4_4
  6
CONTINUOUS
 62
    4
 10
81.324218015654765
 20
357.60938485253712
 11
94.524218015655038
 21
357.60938485253712
  0
LINE
  8
_0-4_4
  6
CONTINUOUS
 62
    4
 10
115.32421801565476
 20
521.60938485253712
 11
86.324218015654765
 21
521.60938485253712
  0
ARC
  8
_0-4_4
  6
CONTINUOUS
 62
    4
 10
86.324218015654765
 20
516.60938485253712
 40
5
 50
90
 51
180
  0
LINE
  8
_0-4_4
  6
CONTINUOUS
 62
    4
 10
86.324218015654765
 20
341.10938485253712
 11
115.32421801565476
 21
341.10938485253712
  0
ARC
  8
_0-4_4
  6
CONTINUOUS
 62
    4
 10
86.324218015654765
 20
346.10938485253712
 40
5
 50
180
 51
270
  0
LINE
  8
_0-4_4
  6
CONTINUOUS
 62
    4
 10
115.32421801565476
 20
341.10938485253712
 11
115.32421801565476
 21
370.60938485253712
  0
LINE
  8
_0-4_4
  6
CONTINUOUS
 62
    4
 10
104.32421801565476
 20
341.10938485253712
 11
104.32421801565476
 21
353.60938485253712
  0
LINE
  8
_0-4_4
  6
CONTINUOUS
 62
    4
 10
81.324218015654765
 20
513.10938485253712
 11
104.32421801565476
 21
513.10938485253712
  0
LINE
  8
_0-4_4
  6
CONTINUOUS
 62
    4
 10
81.324218015654765
 20
442.10938485253712
 11
104.32421801565476
 21
442.10938485253712
  0
LINE
  8
_0-4_4
  6
CONTINUOUS
 62
    4
 10
81.324218015654765
 20
435.10938485253712
 11
104.32421801565476
 21
435.10938485253712
  0
LINE
  8
_0-4_4
  6
CONTINUOUS
 62
    4
 10
81.324218015654765
 20
353.60938485253712
 11
104.32421801565476
 21
353.60938485253712
  0
LINE
  8
_0-4_4
  6
CONTINUOUS
 62
    4
 10
104.32421801565476
 20
435.10938485253712
 11
104.32421801565476
 21
442.10938485253712
  0
LINE
  8
_0-4_4
  6
CONTINUOUS
 62
    4
 10
104.32421801565476
 20
513.10938485253712
 11
104.32421801565476
 21
521.60938485253712
  0
LINE
  8
_0-4_4
  6
CONTINUOUS
 62
    4
 10
105.32421801565476
 20
475.60938485253712
 11
105.32421801565476
 21
492.609384852537
  0
LINE
  8
_0-4_4
  6
CONTINUOUS
 62
    4
 10
114.82421801565476
 20
386.60938485253712
 11
105.32421801565476
 21
386.60938485253712
  0
LINE
  8
_0-4_4
  6
CONTINUOUS
 62
    4
 10
114.82421801565476
 20
371.60938485253712
 11
105.32421801565476
 21
371.60938485253712
  0
LINE
  8
_0-4_4
  6
CONTINUOUS
 62
    4
 10
115.32421801565476
 20
370.60938485253712
 11
105.32421801565476
 21
370.60938485253712
  0
LINE
  8
_0-4_4
  6
CONTINUOUS
 62
    4
 10
115.32421801565476
 20
387.60938485253712
 11
105.32421801565476
 21
387.60938485253712
  0
LINE
  8
_0-4_4
  6
CONTINUOUS
 62
    4
 10
114.82421801565476
 20
371.60938485253712
 11
114.82421801565476
 21
386.60938485253712
  0
LINE
  8
_0-4_4
  6
CONTINUOUS
 62
    4
 10
115.32421801565476
 20
387.60938485253712
 11
115.32421801565476
 21
475.60938485253712
  0
LINE
  8
_0-4_4
  6
CONTINUOUS
 62
    4
 10
114.82421801565476
 20
341.10938485253712
 11
113.95819261187069
 21
339.60938485253712
  0
LINE
  8
_0-4_4
  6
CONTINUOUS
 62
    4
 10
113.95819261187069
 20
339.60938485253712
 11
105.32421801565476
 21
341.10938485253712
  0
LINE
  8
_0-4_4
  6
CONTINUOUS
 62
    4
 10
113.96421801565509
 20
371.60938485253712
 11
113.96421801565509
 21
386.60938485253712
  0
LINE
  8
_0-4_4
  6
CONTINUOUS
 62
    4
 10
114.72421801565531
 20
476.60938485253712
 11
105.32421801565476
 21
476.60938485253712
  0
LINE
  8
_0-4_4
  6
CONTINUOUS
 62
    4
 10
115.32421801565476
 20
475.60938485253712
 11
105.32421801565476
 21
475.60938485253712
  0
LINE
  8
_0-4_4
  6
CONTINUOUS
 62
    4
 10
114.72421801565531
 20
491.60938485253712
 11
105.32421801565476
 21
491.60938485253712
  0
LINE
  8
_0-4_4
  6
CONTINUOUS
 62
    4
 10
115.32421801565476
 20
492.609384852537
 11
105.32421801565476
 21
492.609384852537
  0
LINE
  8
_0-4_4
  6
CONTINUOUS
 62
    4
 10
114.72421801565531
 20
476.60938485253712
 11
114.72421801565531
 21
491.60938485253712
  0
LINE
  8
_0-4_4
  6
CONTINUOUS
 62
    4
 10
113.86421801565473
 20
476.60938485253712
 11
113.86421801565473
 21
491.60938485253712
  0
LINE
  8
_0-4_4
  6
CONTINUOUS
 62
    4
 10
115.32421801565476
 20
492.609384852537
 11
115.32421801565476
 21
521.60938485253712
  0
LINE
  8
_0-4_4
  6
CONTINUOUS
 62
    4
 10
105.32421801565476
 20
370.60938485253712
 11
105.32421801565476
 21
387.60938485253712
  0
LINE
  8
_0-4_4
  6
CONTINUOUS
 62
    4
 10
114.72421801565531
 20
521.60938485253712
 11
113.86421801565473
 21
523.10776870317102
  0
LINE
  8
_0-4_4
  6
CONTINUOUS
 62
    4
 10
113.86421801565473
 20
523.10776870317102
 11
105.32421801565476
 21
521.60938485253712
  0
LINE
  8
_0-4_4
  6
CONTINUOUS
 62
    4
 10
81.324218015654765
 20
516.60938485253712
 11
81.324218015654765
 21
346.10938485253712
  0
LINE
  8
_0-2_2
  6
CONTINUOUS
 62
    2
 10
211.7996136615505
 20
408.02546463563669
 11
211.7996136615505
 21
396.19330506943749
  0
LINE
  8
_0-2_2
  6
CONTINUOUS
 62
    2
 10
209.7996136615505
 20
408.02546463563669
 11
209.7996136615505
 21
396.19330506943749
  0
ARC
  8
_0-2_2
  6
CONTINUOUS
 62
    2
 10
210.7996136615505
 20
402.10938485253712
 40
5
 50
258.46304096719462
 51
281.53695903280538
  0
LINE
  8
_0-2_2
  6
CONTINUOUS
 62
    2
 10
209.7996136615505
 20
400.7104053669708
 11
210.19961366155059
 21
400.7104053669708
  0
LINE
  8
_0-2_2
  6
CONTINUOUS
 62
    2
 10
210.19961366155059
 20
404.7104053669708
 11
211.39961366155049
 21
404.7104053669708
  0
LINE
  8
_0-2_2
  6
CONTINUOUS
 62
    2
 10
210.19961366155059
 20
404.7104053669708
 11
210.19961366155059
 21
400.7104053669708
  0
LINE
  8
_0-2_2
  6
CONTINUOUS
 62
    2
 10
211.39961366155049
 20
404.7104053669708
 11
211.39961366155049
 21
400.7104053669708
  0
LINE
  8
_0-2_2
  6
CONTINUOUS
 62
    2
 10
211.39961366155049
 20
400.7104053669708
 11
211.7996136615505
 21
400.7104053669708
  0
LINE
  8
_0-4_4
  6
CONTINUOUS
 62
    4
 10
92.024218015654583
 20
381.10938485253712
 11
92.024218015654583
 21
358.10938485253712
  0
LINE
  8
_0-4_4
  6
CONTINUOUS
 62
    4
 10
92.024218015654583
 20
358.10938485253712
 11
94.32421801565431
 21
358.10938485253712
  0
LINE
  8
_0-4_4
  6
CONTINUOUS
 62
    4
 10
94.32421801565431
 20
358.10938485253712
 11
94.32421801565431
 21
381.10938485253712
  0
LINE
  8
_0-4_4
  6
CONTINUOUS
 62
    4
 10
94.32421801565431
 20
381.10938485253712
 11
92.024218015654583
 21
381.10938485253712
  0
LINE
  8
_0-4_4
  6
CONTINUOUS
 62
    4
 10
476.0955271452948
 20
358.10938485253712
 11
476.0955271452948
 21
351.10938485253712
  0
LINE
  8
_0-2_2
  6
CONTINUOUS
 62
    2
 10
476.5955271452948
 20
358.52893466812571
 11
476.5955271452948
 21
350.85938485253712
  0
LINE
  8
_0-2_2
  6
CONTINUOUS
 62
    2
 10
478.59552714529468
 20
360.20713393048027
 11
478.59552714529468
 21
347.14857541895879
  0
LINE
  8
_0-2_2
  6
CONTINUOUS
 62
    2
 10
409.92262224376179
 20
342.60938485253712
 11
409.92262224376179
 21
343.24203173496119
  0
LINE
  8
_0-2_2
  6
CONTINUOUS
 62
    2
 10
407.5955271452948
 20
344.10938485253712
 11
407.5955271452948
 21
345.84155797611101
  0
LINE
  8
_0-2_2
  6
CONTINUOUS
 62
    2
 10
472.26843204682729
 20
342.60938485253712
 11
472.26843204682729
 21
343.24203173496102
  0
LINE
  8
_0-2_2
  6
CONTINUOUS
 62
    2
 10
474.59552714529468
 20
344.10938485253712
 11
474.59552714529468
 21
345.84155797611072
  0
LINE
  8
_0-2_2
  6
CONTINUOUS
 62
    2
 10
405.5955271452948
 20
371.60938485253712
 11
405.5955271452948
 21
350.85938485253712
  0
LINE
  8
_0-2_2
  6
CONTINUOUS
 62
    2
 10
405.5955271452948
 20
476.60938485253712
 11
405.5955271452948
 21
386.60938485253712
  0
LINE
  8
_0-2_2
  6
CONTINUOUS
 62
    2
 10
476.5955271452948
 20
476.60938485253712
 11
476.5955271452948
 21
439.35938485253712
  0
LINE
  8
_0-2_2
  6
CONTINUOUS
 62
    2
 10
191.7996136615505
 20
291.1107598768578
 11
266.79961366155055
 21
291.1107598768578
  0
LINE
  8
_0-4_4
  6
CONTINUOUS
 62
    4
 10
226.79961366155058
 20
302.61075987685768
 11
231.7996136615505
 21
302.61075987685768
  0
LINE
  8
_0-4_4
  6
CONTINUOUS
 62
    4
 10
225.79961366155058
 20
301.61075987685768
 11
225.79961366155058
 21
297.1107598768578
  0
LINE
  8
_0-4_4
  6
CONTINUOUS
 62
    4
 10
232.7996136615505
 20
301.61075987685768
 11
232.7996136615505
 21
297.1107598768578
  0
LINE
  8
_0-4_4
  6
CONTINUOUS
 62
    6
 10
226.79961366155058
 20
299.1107598768578
 11
231.7996136615505
 21
299.1107598768578
  0
ARC
  8
_0-4_4
  6
CONTINUOUS
 62
    4
 10
226.79961366155058
 20
301.61075987685768
 40
1
 50
90
 51
180
  0
ARC
  8
_0-4_4
  6
CONTINUOUS
 62
    4
 10
231.7996136615505
 20
301.61075987685768
 40
1
 50
0
 51
90
  0
ARC
  8
_0-4_4
  6
CONTINUOUS
 62
    6
 10
226.79961366155058
 20
298.11075987685768
 40
1
 50
90
 51
180
  0
ARC
  8
_0-4_4
  6
CONTINUOUS
 62
    6
 10
231.7996136615505
 20
298.11075987685768
 40
1
 50
0
 51
90
  0
CIRCLE
  8
_0-2_2
  6
CONTINUOUS
 62
    2
 10
411.0955271452948
 20
438.609384852537
 40
3.25
  0
CIRCLE
  8
_0-2_2
  6
CONTINUOUS
 62
    2
 10
471.09552714529468
 20
438.609384852537
 40
3.25
  0
CIRCLE
  8
_0-2_2
  6
CONTINUOUS
 62
    2
 10
471.09552714529468
 20
516.60938485253712
 40
3.25
  0
CIRCLE
  8
_0-2_2
  6
CONTINUOUS
 62
    2
 10
411.0955271452948
 20
516.60938485253712
 40
3.25
  0
TEXT
  8
_0-a_W
 62
    7
 10
611.47525923871024
 20
49.627613170851987
 40
8
 41
1
 50
0
  1
テンキー・ロック
  0
TEXT
  8
_0-a_W
 62
    7
 10
611.47525923871024
 20
31.627613170851987
 40
8
 41
1
 50
0
  1
EL126*C-**
  0
LINE
  8
_0-a_W
  6
CONTINUOUS
 62
    7
 10
808.0752592387106
 20
26.62761317085176
 11
807.47525923871024
 21
26.62761317085176
  0
LINE
  8
_0-a_W
  6
CONTINUOUS
 62
    7
 10
808.0752592387106
 20
56.62761317085176
 11
807.47525923871024
 21
56.62761317085176
  0
ARC
  8
_0-a_W
  6
CONTINUOUS
 62
    7
 10
650.82833311309798
 20
68.827613170851578
 40
0.2000000000000453
 50
180
 51
0
  0
LINE
  8
_0-a_W
  6
CONTINUOUS
 62
    7
 10
651.02833311309803
 20
68.827613170851578
 11
650.62833311309794
 21
68.827613170851578
  0
LINE
  8
_0-a_W
  6
CONTINUOUS
 62
    2
 10
807.47525923871058
 20
561.02761317085196
 11
807.47525923871058
 21
26.627613170851987
  0
LINE
  8
_0-a_W
  6
CONTINUOUS
 62
    2
 10
807.47525923871058
 20
26.627613170851987
 11
45.475259238710692
 21
26.627613170851987
  0
LINE
  8
_0-a_W
  6
CONTINUOUS
 62
    2
 10
45.475259238710692
 20
26.227613170851896
 11
45.475259238710692
 21
561.02761317085196
  0
LINE
  8
_0-a_W
  6
CONTINUOUS
 62
    2
 10
45.075259238710601
 20
560.62761317085199
 11
807.87525923871078
 21
560.62761317085199
  0
LINE
  8
_0-a_W
  6
CONTINUOUS
 62
    6
 10
125.47525923871069
 20
560.62761317085153
 11
125.47525923871069
 21
566.62761317085187
  0
LINE
  8
_0-a_W
  6
CONTINUOUS
 62
    6
 10
205.47525923871069
 20
560.62761317085153
 11
205.47525923871069
 21
566.62761317085187
  0
LINE
  8
_0-a_W
  6
CONTINUOUS
 62
    6
 10
285.47525923871069
 20
560.62761317085153
 11
285.47525923871069
 21
566.62761317085187
  0
LINE
  8
_0-a_W
  6
CONTINUOUS
 62
    6
 10
365.47525923871069
 20
560.62761317085153
 11
365.47525923871069
 21
566.62761317085187
  0
LINE
  8
_0-a_W
  6
CONTINUOUS
 62
    6
 10
445.47525923871058
 20
560.62761317085153
 11
445.47525923871058
 21
566.62761317085187
  0
LINE
  8
_0-a_W
  6
CONTINUOUS
 62
    6
 10
525.47525923871069
 20
560.62761317085153
 11
525.47525923871069
 21
566.62761317085187
  0
LINE
  8
_0-a_W
  6
CONTINUOUS
 62
    6
 10
605.47525923871069
 20
560.62761317085153
 11
605.47525923871069
 21
566.62761317085187
  0
LINE
  8
_0-a_W
  6
CONTINUOUS
 62
    6
 10
685.47525923871069
 20
560.62761317085153
 11
685.47525923871069
 21
566.62761317085187
  0
LINE
  8
_0-a_W
  6
CONTINUOUS
 62
    6
 10
765.47525923871069
 20
560.62761317085153
 11
765.47525923871069
 21
566.62761317085187
  0
LINE
  8
_0-a_W
  6
CONTINUOUS
 62
    6
 10
39.475259238710692
 20
480.62761317085199
 11
45.475259238710692
 21
480.6276131708517
  0
LINE
  8
_0-a_W
  6
CONTINUOUS
 62
    6
 10
39.475259238710692
 20
400.62761317085199
 11
45.475259238710692
 21
400.62761317085182
  0
LINE
  8
_0-a_W
  6
CONTINUOUS
 62
    6
 10
39.475259238710692
 20
320.62761317085199
 11
45.475259238710692
 21
320.62761317085199
  0
LINE
  8
_0-a_W
  6
CONTINUOUS
 62
    6
 10
39.475259238710692
 20
240.62761317085199
 11
45.475259238710692
 21
240.62761317085199
  0
LINE
  8
_0-a_W
  6
CONTINUOUS
 62
    6
 10
39.475259238710692
 20
160.62761317085199
 11
45.475259238710692
 21
160.62761317085199
  0
LINE
  8
_0-a_W
  6
CONTINUOUS
 62
    6
 10
39.475259238710692
 20
80.627613170851987
 11
45.475259238710692
 21
80.627613170851987
  0
TEXT
  8
_0-a_W
 62
    7
 10
85.25408212220043
 20
561.87199642107873
 40
4
 41
1
 50
0
  1
1
  0
TEXT
  8
_0-a_W
 62
    7
 10
165.25408212220037
 20
561.87199642107873
 40
4
 41
1
 50
0
  1
2
  0
TEXT
  8
_0-a_W
 62
    7
 10
245.25408212220037
 20
561.87199642107873
 40
4
 41
1
 50
0
  1
3
  0
TEXT
  8
_0-a_W
 62
    7
 10
325.25408212220049
 20
561.87199642107873
 40
4
 41
1
 50
0
  1
4
  0
TEXT
  8
_0-a_W
 62
    7
 10
406.25408212220037
 20
561.87199642107873
 40
4
 41
1
 50
0
  1
5
  0
TEXT
  8
_0-a_W
 62
    7
 10
485.25408212220037
 20
561.87199642107873
 40
4
 41
1
 50
0
  1
6
  0
TEXT
  8
_0-a_W
 62
    7
 10
565.25408212220043
 20
561.87199642107873
 40
4
 41
1
 50
0
  1
7
  0
TEXT
  8
_0-a_W
 62
    7
 10
645.25408212220043
 20
561.87199642107873
 40
4
 41
1
 50
0
  1
8
  0
TEXT
  8
_0-a_W
 62
    7
 10
725.25408212220043
 20
561.87199642107873
 40
4
 41
1
 50
0
  1
9
  0
LINE
  8
_0-a_W
  6
CONTINUOUS
 62
    2
 10
807.87525923871078
 20
561.02761317085196
 11
807.87525923871078
 21
26.227613170851896
  0
LINE
  8
_0-a_W
  6
CONTINUOUS
 62
    2
 10
807.87525923871078
 20
26.227613170851896
 11
45.075259238710601
 21
26.227613170851896
  0
LINE
  8
_0-a_W
  6
CONTINUOUS
 62
    7
 10
39.075259238710601
 20
26.227613170851896
 11
6.7497418996712213
 21
26.227613170851896
  0
LINE
  8
_0-a_W
  6
CONTINUOUS
 62
    7
 10
39.075259238710601
 20
26.227613170851896
 11
39.075259238710601
 21
-1.5191042697182411
  0
LINE
  8
_0-a_W
  6
CONTINUOUS
 62
    7
 10
807.87525923871078
 20
567.02761317085208
 11
834.25024653957496
 21
567.02761317085208
  0
LINE
  8
_0-a_W
  6
CONTINUOUS
 62
    7
 10
807.87525923871078
 20
567.02761317085208
 11
807.87525923871078
 21
595.51909592868196
  0
TEXT
  8
_0-a_W
 62
    7
 10
41.25408212220043
 20
520.87199642107862
 40
4
 41
1
 50
0
  1
A
  0
TEXT
  8
_0-a_W
 62
    7
 10
41.25408212220043
 20
440.87199642107868
 40
4
 41
1
 50
0
  1
B
  0
TEXT
  8
_0-a_W
 62
    7
 10
41.25408212220043
 20
360.87199642107868
 40
4
 41
1
 50
0
  1
C
  0
TEXT
  8
_0-a_W
 62
    7
 10
41.25408212220043
 20
280.87199642107873
 40
4
 41
1
 50
0
  1
D
  0
TEXT
  8
_0-a_W
 62
    7
 10
41.25408212220043
 20
200.87199642107871
 40
4
 41
1
 50
0
  1
E
  0
TEXT
  8
_0-a_W
 62
    7
 10
41.25408212220043
 20
120.87199642107873
 40
4
 41
1
 50
0
  1
F
  0
LINE
  8
_0-a_W
  6
CONTINUOUS
 62
    2
 10
45.075259238710601
 20
26.227613170851896
 11
45.075259238710601
 21
561.02761317085196
  0
LINE
  8
_0-a_W
  6
CONTINUOUS
 62
    2
 10
45.075259238710601
 20
561.02761317085196
 11
807.87525923871078
 21
561.02761317085196
  0
TEXT
  8
_0-a_W
 62
    7
 10
81.11457104024646
 20
559.74959328236275
 40
3
 41
1
 50
180
  1
WAKU1-A3.DWG
  0
INSERT
  2
-000-SUG-AR01
  8
_0-8_S
 10
117.82808437500796
 20
509.39430943159209
 41
1
 42
1
 50
21.685646983570312
  0
LINE
  8
_0-9_T
  6
CENTER2_17
 62
    5
 10
441.09552714529468
 20
331.49488404274382
 11
441.09552714529468
 21
529.33882440373827
  0
LINE
  8
_0-9_T
  6
CENTER2_17
 62
    5
 10
391.02627072515969
 20
369.10938485253712
 11
515.81884083751618
 21
369.10938485253712
  0
LINE
  8
_0-9_T
  6
CENTER2_17
 62
    5
 10
430.36619757800639
 20
356.32266779459388
 11
489.12674734137528
 21
426.3507640778995
  0
LINE
  8
_0-8_S
  6
CONTINUOUS
 62
    6
 10
519.81884083751606
 20
369.10938485253712
 11
550.41985833843523
 21
369.10938485253712
  0
LINE
  8
_0-8_S
  6
CONTINUOUS
 62
    6
 10
194.2996136615505
 20
258.11075987685706
 11
194.2996136615505
 21
238.86672364782459
  0
LINE
  8
_0-8_S
  6
CONTINUOUS
 62
    6
 10
264.29961366155055
 20
258.11075987685706
 11
264.29961366155055
 21
239.4764958418524
  0
LINE
  8
_0-8_S
  6
CONTINUOUS
 62
    6
 10
194.2996136615505
 20
240.75960390766488
 11
264.29961366155055
 21
240.75960390766488
  0
INSERT
  2
-000-SUG-AR01
  8
_0-8_S
 10
194.2996136615505
 20
240.75960390766488
 41
1
 42
1
 50
0
  0
INSERT
  2
-000-SUG-AR01
  8
_0-8_S
 10
264.29961366155055
 20
240.75960390766488
 41
1
 42
1
 50
180
  0
TEXT
  8
_0-8_S
 62
    7
 10
224.44247080440769
 20
242.55960390766509
 40
6
 41
1
 50
0
  1
70
  0
LINE
  8
_0-8_S
  6
CONTINUOUS
 62
    6
 10
191.7996136615505
 20
344.14857541895879
 11
191.7996136615505
 21
312.2276131708519
  0
LINE
  8
_0-8_S
  6
CONTINUOUS
 62
    6
 10
266.79961366155055
 20
344.14857541895879
 11
266.79961366155055
 21
312.2276131708519
  0
LINE
  8
_0-8_S
  6
CONTINUOUS
 62
    6
 10
191.7996136615505
 20
314.2276131708519
 11
266.79961366155055
 21
314.2276131708519
  0
INSERT
  2
-000-SUG-AR01
  8
_0-8_S
 10
191.7996136615505
 20
314.2276131708519
 41
1
 42
1
 50
0
  0
INSERT
  2
-000-SUG-AR01
  8
_0-8_S
 10
266.79961366155055
 20
314.2276131708519
 41
1
 42
1
 50
180
  0
TEXT
  8
_0-8_S
 62
    7
 10
224.44247080440769
 20
316.02761317085208
 40
6
 41
1
 50
0
  1
75
  0
LINE
  8
_0-8_S
  6
CONTINUOUS
 62
    6
 10
263.79961366155055
 20
524.10938485253712
 11
287.0752592387106
 21
524.10938485253712
  0
LINE
  8
_0-8_S
  6
CONTINUOUS
 62
    6
 10
285.0752592387106
 20
524.10938485253712
 11
285.0752592387106
 21
369.10938485253712
  0
LINE
  8
_0-8_S
  6
CONTINUOUS
 62
    6
 10
256.79961366155055
 20
369.10938485253712
 11
287.0752592387106
 21
369.10938485253712
  0
INSERT
  2
-000-SUG-AR01
  8
_0-8_S
 10
285.0752592387106
 20
524.10938485253712
 41
1
 42
1
 50
270
  0
INSERT
  2
-000-SUG-AR01
  8
_0-8_S
 10
285.0752592387106
 20
369.10938485253712
 41
1
 42
1
 50
90
  0
TEXT
  8
_0-8_S
 62
    7
 10
283.27525923871042
 20
439.46652770967989
 40
6
 41
1
 50
90
  1
155
  0
LINE
  8
_0-8_S
  6
CONTINUOUS
 62
    6
 10
285.0752592387106
 20
369.10938485253712
 11
285.0752592387106
 21
334.10938485253712
  0
LINE
  8
_0-8_S
  6
CONTINUOUS
 62
    6
 10
232.2996136615505
 20
334.10938485253712
 11
287.0752592387106
 21
334.10938485253712
  0
INSERT
  2
-000-SUG-AR01
  8
_0-8_S
 10
285.0752592387106
 20
369.10938485253712
 41
1
 42
1
 50
270
  0
INSERT
  2
-000-SUG-AR01
  8
_0-8_S
 10
285.0752592387106
 20
334.10938485253712
 41
1
 42
1
 50
90
  0
TEXT
  8
_0-8_S
 62
    7
 10
283.27525923871042
 20
346.75224199539429
 40
6
 41
1
 50
90
  1
35
  0
LINE
  8
_0-8_S
  6
CONTINUOUS
 62
    6
 10
303.335533791589
 20
335.10938485253712
 11
303.335533791589
 21
306.2276131708519
  0
LINE
  8
_0-8_S
  6
CONTINUOUS
 62
    6
 10
309.335533791589
 20
331.10938485253712
 11
309.335533791589
 21
306.2276131708519
  0
LINE
  8
_0-8_S
  6
CONTINUOUS
 62
    6
 10
293.47525923871069
 20
308.2276131708519
 11
323.335533791589
 21
308.2276131708519
  0
INSERT
  2
-000-SUG-AR01
  8
_0-8_S
 10
303.335533791589
 20
308.2276131708519
 41
1
 42
1
 50
180
  0
INSERT
  2
-000-SUG-AR01
  8
_0-8_S
 10
309.335533791589
 20
308.2276131708519
 41
1
 42
1
 50
0
  0
TEXT
  8
_0-8_S
 62
    7
 10
294.01811638156789
 20
310.02761317085208
 40
6
 41
1
 50
0
  1
6
  0
LINE
  8
_0-8_S
  6
CONTINUOUS
 62
    6
 10
297.835533791589
 20
366.10938485253712
 11
297.835533791589
 21
294.2276131708519
  0
LINE
  8
_0-8_S
  6
CONTINUOUS
 62
    6
 10
309.335533791589
 20
331.10938485253712
 11
309.335533791589
 21
294.2276131708519
  0
LINE
  8
_0-8_S
  6
CONTINUOUS
 62
    6
 10
276.0752592387106
 20
296.2276131708519
 11
323.335533791589
 21
296.2276131708519
  0
INSERT
  2
-000-SUG-AR01
  8
_0-8_S
 10
297.835533791589
 20
296.2276131708519
 41
1
 42
1
 50
180
  0
INSERT
  2
-000-SUG-AR01
  8
_0-8_S
 10
309.335533791589
 20
296.2276131708519
 41
1
 42
1
 50
0
  0
TEXT
  8
_0-8_S
 62
    7
 10
277.67525923871051
 20
298.02761317085208
 40
6
 41
1
 50
0
  1
11.5
  0
LINE
  8
_0-8_S
  6
CONTINUOUS
 62
    6
 10
309.335533791589
 20
331.10938485253712
 11
309.335533791589
 21
294.2276131708519
  0
LINE
  8
_0-8_S
  6
CONTINUOUS
 62
    6
 10
343.33553379158991
 20
343.10938485253712
 11
343.33553379158991
 21
294.2276131708519
  0
LINE
  8
_0-8_S
  6
CONTINUOUS
 62
    6
 10
309.335533791589
 20
296.2276131708519
 11
343.33553379158991
 21
296.2276131708519
  0
INSERT
  2
-000-SUG-AR01
  8
_0-8_S
 10
309.335533791589
 20
296.2276131708519
 41
1
 42
1
 50
0
  0
INSERT
  2
-000-SUG-AR01
  8
_0-8_S
 10
343.33553379158991
 20
296.2276131708519
 41
1
 42
1
 50
180
  0
TEXT
  8
_0-8_S
 62
    7
 10
321.33553379158951
 20
298.02761317085208
 40
6
 41
1
 50
0
  1
34
  0
LINE
  8
_0-2_2
  6
CONTINUOUS
 62
    2
 10
320.33553379158991
 20
346.85938485253712
 11
321.33553379158991
 21
346.85938485253712
  0
LINE
  8
_0-2_2
  6
CONTINUOUS
 62
    2
 10
320.33553379158991
 20
353.35938485253712
 11
321.33553379158991
 21
353.35938485253712
  0
LINE
  8
_0-2_2
  6
CONTINUOUS
 62
    2
 10
321.33553379158991
 20
346.85938485253712
 11
321.33553379158991
 21
353.35938485253712
  0
ARC
  8
_0-2_2
  6
CONTINUOUS
 62
    2
 10
316.55428379158991
 20
350.10938485253712
 40
5.7812499999999201
 50
325.79454206188831
 51
34.205457938111792
  0
ARC
  8
_0-2_2
  6
CONTINUOUS
 62
    2
 10
316.55428379158991
 20
438.609384852537
 40
5.7812499999999201
 50
325.79454206188831
 51
34.205457938111792
  0
LINE
  8
_0-2_2
  6
CONTINUOUS
 62
    2
 10
321.33553379158991
 20
435.35938485253712
 11
321.33553379158991
 21
441.85938485253712
  0
LINE
  8
_0-2_2
  6
CONTINUOUS
 62
    2
 10
320.33553379158991
 20
441.85938485253712
 11
321.33553379158991
 21
441.85938485253712
  0
LINE
  8
_0-2_2
  6
CONTINUOUS
 62
    2
 10
320.33553379158991
 20
435.35938485253712
 11
321.33553379158991
 21
435.35938485253712
  0
ARC
  8
_0-2_2
  6
CONTINUOUS
 62
    2
 10
316.55428379158991
 20
516.60938485253712
 40
5.7812499999999201
 50
325.79454206188831
 51
34.205457938111792
  0
LINE
  8
_0-2_2
  6
CONTINUOUS
 62
    2
 10
321.33553379158951
 20
513.35938485253712
 11
321.33553379158991
 21
519.859384852537
  0
LINE
  8
_0-2_2
  6
CONTINUOUS
 62
    2
 10
320.33553379158991
 20
519.859384852537
 11
321.33553379158991
 21
519.859384852537
  0
LINE
  8
_0-2_2
  6
CONTINUOUS
 62
    2
 10
320.33553379158951
 20
513.35938485253712
 11
321.33553379158951
 21
513.35938485253712
  0
ARC
  8
_0-2_2
  6
CONTINUOUS
 62
    2
 10
108.10546801565476
 20
350.10938485253712
 40
5.7812499999999201
 50
145.79454206188819
 51
214.20545793811175
  0
LINE
  8
_0-2_2
  6
CONTINUOUS
 62
    2
 10
103.32421801565476
 20
346.85938485253712
 11
103.32421801565476
 21
353.35938485253712
  0
LINE
  8
_0-2_2
  6
CONTINUOUS
 62
    2
 10
104.32421801565476
 20
353.35938485253712
 11
103.32421801565476
 21
353.35938485253712
  0
LINE
  8
_0-2_2
  6
CONTINUOUS
 62
    2
 10
104.32421801565476
 20
346.85938485253712
 11
103.32421801565476
 21
346.85938485253712
  0
LINE
  8
_0-2_2
  6
CONTINUOUS
 62
    2
 10
104.32421801565476
 20
435.35938485253712
 11
103.32421801565476
 21
435.35938485253712
  0
LINE
  8
_0-2_2
  6
CONTINUOUS
 62
    2
 10
104.32421801565476
 20
441.85938485253712
 11
103.32421801565476
 21
441.85938485253712
  0
LINE
  8
_0-2_2
  6
CONTINUOUS
 62
    2
 10
103.32421801565476
 20
435.35938485253712
 11
103.32421801565476
 21
441.85938485253712
  0
ARC
  8
_0-2_2
  6
CONTINUOUS
 62
    2
 10
108.10546801565476
 20
438.609384852537
 40
5.7812499999999201
 50
145.79454206188819
 51
214.20545793811175
  0
LINE
  8
_0-2_2
  6
CONTINUOUS
 62
    2
 10
104.32421801565476
 20
513.35938485253712
 11
103.32421801565476
 21
513.35938485253712
  0
LINE
  8
_0-2_2
  6
CONTINUOUS
 62
    2
 10
104.32421801565476
 20
519.859384852537
 11
103.32421801565476
 21
519.859384852537
  0
LINE
  8
_0-2_2
  6
CONTINUOUS
 62
    2
 10
103.32421801565476
 20
513.35938485253712
 11
103.32421801565476
 21
519.859384852537
  0
ARC
  8
_0-2_2
  6
CONTINUOUS
 62
    2
 10
108.10546801565476
 20
516.60938485253712
 40
5.7812499999999201
 50
145.79454206188819
 51
214.20545793811175
  0
LINE
  8
_0-8_S
  6
CONTINUOUS
 62
    6
 10
406.0955271452948
 20
519.60938485253712
 11
406.0955271452948
 21
544.2276131708519
  0
LINE
  8
_0-8_S
  6
CONTINUOUS
 62
    6
 10
476.0955271452948
 20
519.60938485253712
 11
476.0955271452948
 21
544.2276131708519
  0
LINE
  8
_0-8_S
  6
CONTINUOUS
 62
    6
 10
406.0955271452948
 20
542.2276131708519
 11
476.0955271452948
 21
542.2276131708519
  0
INSERT
  2
-000-SUG-AR01
  8
_0-8_S
 10
406.0955271452948
 20
542.2276131708519
 41
1
 42
1
 50
0
  0
INSERT
  2
-000-SUG-AR01
  8
_0-8_S
 10
476.0955271452948
 20
542.2276131708519
 41
1
 42
1
 50
180
  0
TEXT
  8
_0-8_S
 62
    7
 10
436.23838428815196
 20
544.02761317085196
 40
6
 41
1
 50
0
  1
70
  0
LINE
  8
_0-8_S
  6
CONTINUOUS
 62
    6
 10
474.0955271452948
 20
521.60938485253712
 11
569.0752592387106
 21
521.60938485253712
  0
LINE
  8
_0-8_S
  6
CONTINUOUS
 62
    6
 10
567.0752592387106
 20
521.60938485253712
 11
567.0752592387106
 21
369.10938485253712
  0
LINE
  8
_0-8_S
  6
CONTINUOUS
 62
    6
 10
521.81884083751618
 20
369.10938485253712
 11
569.0752592387106
 21
369.10938485253712
  0
INSERT
  2
-000-SUG-AR01
  8
_0-8_S
 10
567.0752592387106
 20
521.60938485253712
 41
1
 42
1
 50
270
  0
INSERT
  2
-000-SUG-AR01
  8
_0-8_S
 10
567.0752592387106
 20
369.10938485253712
 41
1
 42
1
 50
90
  0
TEXT
  8
_0-8_S
 62
    7
 10
565.27525923871042
 20
433.93081342396562
 40
6
 41
1
 50
90
  1
152.5
  0
LINE
  8
_0-8_S
  6
CONTINUOUS
 62
    6
 10
394.00394369487657
 20
369.10938485253712
 11
394.00394369487657
 21
341.10938485253712
  0
LINE
  8
_0-8_S
  6
CONTINUOUS
 62
    6
 10
416.0955271452948
 20
341.10938485253712
 11
392.93915687503636
 21
341.10938485253712
  0
INSERT
  2
-000-SUG-AR01
  8
_0-8_S
 10
394.00394369487657
 20
369.10938485253712
 41
1
 42
1
 50
270
  0
INSERT
  2
-000-SUG-AR01
  8
_0-8_S
 10
394.00394369487657
 20
341.10938485253712
 41
1
 42
1
 50
90
  0
TEXT
  8
_0-8_S
 62
    7
 10
392.20394369487639
 20
344.76368010898432
 40
6
 41
1
 50
90
  1
28
  0
LINE
  8
_0-8_S
  6
CONTINUOUS
 62
    6
 10
197.7996136615505
 20
518.10938485253712
 11
180.7174878201939
 21
537.59406331339187
  0
LINE
  8
_0-8_S
  6
CONTINUOUS
 62
    6
 10
180.7174878201939
 20
537.59406331339187
 11
165.8954548570199
 21
537.59406331339187
  0
LINE
  8
_0-8_S
  6
CONTINUOUS
 62
    6
 10
307.335533791589
 20
520.10938485253712
 11
290.37709330835366
 21
540.5751208106617
  0
LINE
  8
_0-8_S
  6
CONTINUOUS
 62
    6
 10
290.37709330835366
 20
540.5751208106617
 11
273.37613518299156
 21
540.5751208106617
  0
INSERT
  2
-000-SUG-AR01
  8
_0-8_S
 10
304.78336271292426
 20
523.18938855143551
 41
1
 42
1
 50
129.646028107451
  0
TEXT
  8
_0-8_S
 62
    7
 10
273.37613518299156
 20
542.37512081066154
 40
6
 41
1
 50
0
  1
全周R4
  0
LINE
  8
_0-4_4
  6
CONTINUOUS
 62
    4
 10
453.0955271452948
 20
515.10938485253712
 11
453.0955271452948
 21
407.10938485253712
  0
LINE
  8
_0-4_4
  6
CONTINUOUS
 62
    4
 10
452.0955271452948
 20
465.60938485253712
 11
455.0955271452948
 21
465.60938485253712
  0
LINE
  8
_0-4_4
  6
CONTINUOUS
 62
    4
 10
452.0955271452948
 20
456.60938485253712
 11
455.0955271452948
 21
456.60938485253712
  0
LINE
  8
_0-4_4
  6
CONTINUOUS
 62
    4
 10
452.0955271452948
 20
467.10938485253712
 11
452.0955271452948
 21
465.60938485253712
  0
LINE
  8
_0-4_4
  6
CONTINUOUS
 62
    4
 10
452.0955271452948
 20
456.60938485253712
 11
452.0955271452948
 21
455.109384852537
  0
LINE
  8
_0-6_6
  6
CONTINUOUS
 62
    6
 10
452.5955271452948
 20
514.90938485253696
 11
452.5955271452948
 21
468.10938485253712
  0
LINE
  8
_0-6_6
  6
CONTINUOUS
 62
    6
 10
452.0955271452948
 20
514.40938485253696
 11
452.0955271452948
 21
468.10938485253712
  0
LINE
  8
_0-6_6
  6
CONTINUOUS
 62
    6
 10
450.39552714529447
 20
468.10938485253712
 11
452.5955271452948
 21
468.10938485253712
  0
LINE
  8
_0-6_6
  6
CONTINUOUS
 62
    6
 10
450.39552714529447
 20
454.10938485253712
 11
452.5955271452948
 21
454.10938485253712
  0
LINE
  8
_0-6_6
  6
CONTINUOUS
 62
    6
 10
450.39552714529447
 20
466.85938485253712
 11
453.0955271452948
 21
466.85938485253712
  0
LINE
  8
_0-6_6
  6
CONTINUOUS
 62
    6
 10
450.39552714529447
 20
455.35938485253712
 11
453.0955271452948
 21
455.35938485253712
  0
LINE
  8
_0-6_6
  6
CONTINUOUS
 62
    6
 10
452.5955271452948
 20
454.10938485253712
 11
452.5955271452948
 21
407.30938485253722
  0
LINE
  8
_0-6_6
  6
CONTINUOUS
 62
    6
 10
452.0955271452948
 20
454.10938485253712
 11
452.0955271452948
 21
407.80938485253722
  0
LINE
  8
_0-4_4
  6
CONTINUOUS
 62
    4
 10
453.0955271452948
 20
465.60938485253712
 11
453.0955271452948
 21
456.60938485253712
  0
LINE
  8
_0-6_6
  6
CONTINUOUS
 62
    6
 10
454.09552714529468
 20
465.10938485253712
 11
454.09552714529468
 21
457.10938485253712
  0
LINE
  8
_0-6_6
  6
CONTINUOUS
 62
    6
 10
450.39552714529447
 20
465.10938485253712
 11
454.09552714529468
 21
465.10938485253712
  0
LINE
  8
_0-6_6
  6
CONTINUOUS
 62
    6
 10
450.39552714529447
 20
457.10938485253712
 11
454.09552714529468
 21
457.10938485253712
  0
LINE
  8
_0-6_6
  6
CONTINUOUS
 62
    6
 10
453.0955271452948
 20
465.10938485253712
 11
453.0955271452948
 21
466.85938485253712
  0
LINE
  8
_0-6_6
  6
CONTINUOUS
 62
    6
 10
453.0955271452948
 20
457.10938485253712
 11
453.0955271452948
 21
455.35938485253712
  0
LINE
  8
_0-6_6
  6
CONTINUOUS
 62
    6
 10
451.5955271452948
 20
466.85938485253712
 11
451.5955271452948
 21
455.35938485253712
  0
CIRCLE
  8
_0-6_6
  6
CONTINUOUS
 62
    6
 10
450.36515376412069
 20
510.10938485253712
 40
1.25
  0
CIRCLE
  8
_0-6_6
  6
CONTINUOUS
 62
    6
 10
449.59552714529468
 20
412.10938485253712
 40
1.25
  0
LINE
  8
_0-6_6
  6
CONTINUOUS
 62
    6
 10
450.39552714529447
 20
468.10938485253712
 11
450.39552714529447
 21
454.10938485253712
  0
TEXT
  8
_0-8_S
 62
    7
 10
373.93767988605566
 20
201.69402361449019
 40
6
 41
1
 50
0
  1
製品型式
  0
TEXT
  8
_0-8_S
 62
    7
 10
391.93767988605566
 20
191.36586739589148
 40
6
 41
1
 50
0
  1
EL126*C-**
  0
LINE
  8
_0-6_6
  6
CONTINUOUS
 62
    6
 10
391.48285710669217
 20
189.5628710413383
 11
411.94241786623786
 21
189.5628710413383
  0
LINE
  8
_0-6_6
  6
CONTINUOUS
 62
    6
 10
413.22731571140588
 20
189.5628710413383
 11
416.88433897707256
 21
189.5628710413383
  0
LINE
  8
_0-6_6
  6
CONTINUOUS
 62
    6
 10
417.89025467831277
 20
189.5628710413383
 11
421.84379585476097
 21
189.5628710413383
  0
LINE
  8
_0-6_6
  6
CONTINUOUS
 62
    6
 10
434.91940336447891
 20
189.5628710413383
 11
442.52996423344376
 21
189.5628710413383
  0
LINE
  8
_0-6_6
  6
CONTINUOUS
 62
    6
 10
438.72468379896139
 20
189.5628710413383
 11
438.72468379896139
 21
179.36586739589148
  0
LINE
  8
_0-6_6
  6
CONTINUOUS
 62
    6
 10
419.86702526653687
 20
189.5628710413383
 11
419.86702526653687
 21
155.36586739589148
  0
LINE
  8
_0-6_6
  6
CONTINUOUS
 62
    6
 10
415.05582734423916
 20
189.5628710413383
 11
415.05582734423916
 21
143.36586739589148
  0
LINE
  8
_0-6_6
  6
CONTINUOUS
 62
    6
 10
401.71263748646498
 20
189.5628710413383
 11
401.71263748646498
 21
131.36586739589148
  0
LINE
  8
_0-6_6
  6
CONTINUOUS
 62
    6
 10
438.72468379896139
 20
179.36586739589148
 11
451.93767988605561
 21
179.36586739589148
  0
LINE
  8
_0-6_6
  6
CONTINUOUS
 62
    6
 10
419.86702526653687
 20
155.36586739589148
 11
451.93767988605561
 21
155.36586739589148
  0
LINE
  8
_0-6_6
  6
CONTINUOUS
 62
    6
 10
415.05582734423916
 20
143.36586739589148
 11
451.93767988605561
 21
143.36586739589148
  0
LINE
  8
_0-6_6
  6
CONTINUOUS
 62
    6
 10
401.71263748646498
 20
131.36586739589148
 11
451.93767988605561
 21
131.36586739589148
  0
TEXT
  8
_0-8_S
 62
    7
 10
451.93767988605561
 20
179.36586739589148
 40
6
 41
1
 50
0
  1
連番
  0
TEXT
  8
_0-8_S
 62
    7
 10
451.93767988605561
 20
155.36586739589148
 40
6
 41
0.6999999999999998
 50
0
  1
B:ビジター　M:メンバー
  0
TEXT
  8
_0-8_S
 62
    7
 10
451.93767988605561
 20
143.36586739589148
 40
6
 41
1
 50
0
  1
タイプ　6:標準
  0
TEXT
  8
_0-8_S
 62
    7
 10
451.93767988605561
 20
131.36586739589148
 40
6
 41
1
 50
0
  1
シリーズ
  0
LINE
  8
_0-8_S
  6
CONTINUOUS
 62
    6
 10
422.94911217287779
 20
189.5628710413383
 11
425.81525783591206
 21
189.5628710413383
  0
LINE
  8
_0-8_S
  6
CONTINUOUS
 62
    6
 10
424.38218500439501
 20
189.5628710413383
 11
424.38218500439501
 21
167.36586739589148
  0
LINE
  8
_0-8_S
  6
CONTINUOUS
 62
    6
 10
424.38218500439501
 20
167.36586739589148
 11
451.93767988605561
 21
167.36586739589148
  0
TEXT
  8
_0-8_S
 62
    7
 10
451.93767988605561
 20
167.36586739589148
 40
6
 41
1
 50
0
  1
カマカム
  0
LINE
  8
_0-1_1
  6
CONTINUOUS
 62
    1
 10
474.59552714529468
 20
433.10938485253712
 11
474.59552714529468
 21
421.34975059734938
  0
LINE
  8
_0-8_S
  6
CONTINUOUS
 62
    6
 10
519.81884083751606
 20
369.10938485253712
 11
547.64600317693828
 21
369.10938485253712
  0
LINE
  8
_0-4_4
  6
CONTINUOUS
 62
    4
 10
594.66548633497803
 20
547.12298511166591
 11
654.96548633497775
 21
547.12298511166591
  0
LINE
  8
_0-4_4
  6
CONTINUOUS
 62
    4
 10
599.66548633497803
 20
366.32298511166567
 11
649.96548633497821
 21
366.32298511166567
  0
LINE
  8
_0-4_4
  6
CONTINUOUS
 62
    4
 10
589.66548633497803
 20
542.12298511166557
 11
589.66548633497803
 21
376.32298511166567
  0
LINE
  8
_0-4_4
  6
CONTINUOUS
 62
    4
 10
659.96548633497764
 20
542.12298511166557
 11
659.96548633497821
 21
376.32298511166567
  0
ARC
  8
_0-4_4
  6
CONTINUOUS
 62
    4
 10
594.66548633497803
 20
542.12298511166557
 40
5
 50
90
 51
180
  0
ARC
  8
_0-4_4
  6
CONTINUOUS
 62
    4
 10
654.96548633497775
 20
542.12298511166557
 40
5
 50
0
 51
90
  0
TEXT
  8
_0-8_S
 62
    7
 10
577.80421974373144
 20
549.2053815218718
 40
10
 41
1
 50
0
  1
取付穴参考図
  0
LINE
  8
_0-8_S
  6
CONTINUOUS
 62
    6
 10
657.96548633497764
 20
366.32298511166567
 11
683.0752592387106
 21
366.32298511166567
  0
LINE
  8
_0-8_S
  6
CONTINUOUS
 62
    6
 10
657.96548633497764
 20
547.12298511166591
 11
683.0752592387106
 21
547.12298511166591
  0
LINE
  8
_0-8_S
  6
CONTINUOUS
 62
    6
 10
681.0752592387106
 20
366.32298511166567
 11
681.0752592387106
 21
547.12298511166591
  0
INSERT
  2
-000-SUG-AR01
  8
_0-8_S
 10
681.0752592387106
 20
366.32298511166567
 41
1
 42
1
 50
90
  0
INSERT
  2
-000-SUG-AR01
  8
_0-8_S
 10
681.0752592387106
 20
533.330365841309
 41
1
 42
1
 50
270
  0
TEXT
  8
_0-8_S
 62
    7
 10
679.27525923871042
 20
445.29441368309432
 40
6
 41
1
 50
90
  1
180.8
  0
TEXT
  8
_0-8_S
 62
    7
 10
674.47525923871058
 20
471.1515565402371
 40
3.2999999999999989
 41
1
 50
90
  1
+0.2
  0
TEXT
  8
_0-8_S
 62
    7
 10
679.87525923871078
 20
471.1515565402371
 40
3.2999999999999989
 41
1
 50
90
  1
-0
  0
LINE
  8
_0-8_S
  6
CONTINUOUS
 62
    6
 10
591.3438116915753
 20
545.86016018963255
 11
612.77534066649275
 21
518.08279792846633
  0
LINE
  8
_0-8_S
  6
CONTINUOUS
 62
    6
 10
612.77534066649275
 20
518.08279792846633
 11
639.63896810853737
 21
518.08279792846633
  0
INSERT
  2
-000-SUG-AR01
  8
_0-8_S
 10
591.3438116915753
 20
545.86016018963255
 41
1
 42
1
 50
307.6518594012478
  0
TEXT
  8
_0-8_S
 62
    7
 10
616.49611096568015
 20
519.88279792846629
 40
6
 41
1
 50
0
  1
2-R5
  0
ARC
  8
_0-4_4
  6
CONTINUOUS
 62
    4
 10
599.66548633497803
 20
376.32298511166567
 40
10
 50
180
 51
270
  0
ARC
  8
_0-4_4
  6
CONTINUOUS
 62
    4
 10
649.96548633497821
 20
376.32298511166567
 40
10
 50
270
 51
0
  0
LINE
  8
_0-8_S
  6
CONTINUOUS
 62
    6
 10
592.20744117948084
 20
369.66133648249229
 11
609.19779374712823
 21
387.85851690070882
  0
LINE
  8
_0-8_S
  6
CONTINUOUS
 62
    6
 10
609.19779374712823
 20
387.85851690070882
 11
638.89456819361044
 21
387.85851690070882
  0
INSERT
  2
-000-SUG-AR01
  8
_0-8_S
 10
592.20744117948084
 20
369.66133648249229
 41
1
 42
1
 50
46.964305076408223
  0
TEXT
  8
_0-8_S
 62
    7
 10
611.18028247932489
 20
389.65851690070872
 40
6
 41
1
 50
0
  1
2-R10
  0
LINE
  8
_0-8_S
  6
CONTINUOUS
 62
    6
 10
519.81884083751606
 20
369.10938485253712
 11
545.96316449187202
 21
369.10938485253712
  0
LINE
  8
_0-8_S
  6
CONTINUOUS
 62
    6
 10
491.69789778012131
 20
429.41494185037527
 11
508.50314508877619
 21
449.44265570489898
  0
INSERT
  2
-000-SUG-AR01
  8
_0-8_S
 10
543.96316449187202
 20
369.10938485253712
 41
1
 42
1
 50
91.669065362714377
  0
INSERT
  2
-000-SUG-AR01
  8
_0-8_S
 10
507.21756986940301
 20
447.91056681866098
 41
1
 42
1
 50
318.33093463729921
  0
TEXT
  8
_0-8_S
 62
    7
 10
534.35940065050431
 20
405.41132428226007
 40
6
 41
1
 50
115.00000000000519
  1
50゜
  0
LINE
  8
_0-8_S
  6
CONTINUOUS
 62
    6
 10
487.32485012489298
 20
423.06953593523968
 11
487.32485012489298
 21
454.92392212650827
  0
LINE
  8
_0-8_S
  6
CONTINUOUS
 62
    6
 10
476.0955271452948
 20
453.5290475502573
 11
487.32485012489298
 21
453.5290475502573
  0
INSERT
  2
-000-SUG-AR01
  8
_0-8_S
 10
476.0955271452948
 20
453.5290475502573
 41
1
 42
1
 50
0
  0
INSERT
  2
-000-SUG-AR01
  8
_0-8_S
 10
487.32485012489298
 20
453.5290475502573
 41
1
 42
1
 50
180
  0
TEXT
  8
_0-8_S
 62
    7
 10
482.70821788281381
 20
457.56432135908528
 40
6
 41
1
 50
0
  1
(11.2)
  0
CIRCLE
  8
_0-4_4
  6
H3
 62
    6
 10
421.62124164500648
 20
509.16365649112151
 40
2.5
  0
LINE
  8
_0-8_S
  6
CONTINUOUS
 62
    6
 10
419.34748559129679
 20
510.62437978378341
 11
388.81414940018186
 21
528.31537997571797
  0
LINE
  8
_0-8_S
  6
CONTINUOUS
 62
    6
 10
388.81414940018186
 20
528.31537997571797
 11
360.87940509373976
 21
528.31537997571797
  0
INSERT
  2
-000-SUG-AR01
  8
_0-8_S
 10
419.34748559129679
 20
510.62437978378341
 41
1
 42
1
 50
149.91201827153549
  0
TEXT
  8
_0-8_S
 62
    7
 10
360.87940509373976
 20
530.1153799757177
 40
6
 41
0.5
 50
0
  1
リセットSW
  0
INSERT
  2
-001-SUG-AR06
  8
_0-4_4
 10
4041.9630437946307
 20
2148.8142188039797
 41
1
 42
1
 50
0
  0
INSERT
  2
-001-SUG-AR06
  8
_0-4_4
 10
4041.9630437946307
 20
2148.8142188039797
 41
0.5
 42
0.5
 50
0
  0
INSERT
  2
-001-SUG-AR06
  8
_0-4_4
 10
4138.1907286742016
 20
2106.3170233414576
 41
0.5
 42
0.5
 50
0
  0
INSERT
  2
-001-SUG-AR06
  8
_0-4_4
 10
4234.0630437946311
 20
2282.4142188039796
 41
0.5
 42
0.5
 50
0
  0
INSERT
  2
-001-SUG-AR06
  8
_0-4_4
 10
5626.0746638167466
 20
2144.0722476191777
 41
1
 42
1
 50
0
  0
INSERT
  2
-001-SUG-AR06
  8
_0-4_4
 10
5626.0746638167466
 20
2144.0722476191777
 41
0.5
 42
0.5
 50
0
  0
INSERT
  2
-001-SUG-AR06
  8
_0-4_4
 10
5722.3023486963184
 20
2101.5750521566547
 41
0.5
 42
0.5
 50
0
  0
INSERT
  2
-001-SUG-AR06
  8
_0-4_4
 10
5818.1746638167479
 20
2277.6722476191776
 41
0.5
 42
0.5
 50
0
  0
LINE
  8
_0-8_S
  6
CONTINUOUS
 62
    6
 10
589.66548633497803
 20
412.0202324412088
 11
659.96548633497821
 21
412.0202324412088
  0
INSERT
  2
-000-SUG-AR01
  8
_0-8_S
 10
589.66548633497803
 20
412.0202324412088
 41
1
 42
1
 50
0
  0
INSERT
  2
-000-SUG-AR01
  8
_0-8_S
 10
659.96548633497821
 20
412.0202324412088
 41
1
 42
1
 50
180
  0
TEXT
  8
_0-8_S
 62
    7
 10
615.67262919212101
 20
413.82023244120882
 40
6
 41
1
 50
0
  1
70.3
  0
TEXT
  8
_0-8_S
 62
    7
 10
636.958343477835
 20
418.62023244120871
 40
3.2999999999999989
 41
1
 50
0
  1
+0.2
  0
TEXT
  8
_0-8_S
 62
    7
 10
636.958343477835
 20
413.22023244120879
 40
3.2999999999999989
 41
1
 50
0
  1
-0
  0
LINE
  8
_0-9_T
  6
CENTER2_17
 62
    5
 10
256.89961366155046
 20
369.10938485253712
 11
201.69961366155059
 21
369.10938485253712
  0
LINE
  8
_0-9_T
  6
CENTER2_17
 62
    5
 10
229.29961366155058
 20
396.70938485253697
 11
229.29961366155058
 21
341.50938485253721
  0
ARC
  8
_0-2_2
  6
CONTINUOUS
 62
    2
 10
196.03764708980168
 20
293.11075987685751
 40
4
 50
90
 51
170.00000000000892
  0
ARC
  8
_0-2_2
  6
CONTINUOUS
 62
    2
 10
262.56158023329897
 20
293.11075987685751
 40
4
 50
10.00000000000389
 51
90
  0
LINE
  8
_0-2_2
  6
CONTINUOUS
 62
    2
 10
196.03764708980168
 20
297.11075987685751
 11
262.56158023329897
 21
297.11075987685751
  0
ARC
  8
_0-2_2
  6
CONTINUOUS
 62
    2
 10
254.79961366155058
 20
303.1107598768578
 40
6
 50
330.00000000000267
 51
337.38013505197159
  0
LINE
  8
_0-2_2
  6
CONTINUOUS
 62
    2
 10
198.60346123884378
 20
300.11075987685751
 11
225.79961366155058
 21
300.11075987685751
  0
LINE
  8
_0-2_2
  6
CONTINUOUS
 62
    2
 10
191.79961366155098
 20
292.11075987685751
 11
266.79961366155055
 21
292.11075987685751
  0
ARC
  8
_0-2_2
  6
CONTINUOUS
 62
    2
 10
203.7996136615505
 20
303.1107598768578
 40
6
 50
202.61986494802852
 51
209.99999999999736
  0
LINE
  8
_0-2_2
  6
CONTINUOUS
 62
    2
 10
266.79961366155055
 20
292.11075987685768
 11
265.79550332251381
 21
297.80535258752559
  0
LINE
  8
_0-2_2
  6
CONTINUOUS
 62
    2
 10
191.7996136615505
 20
292.11075987685768
 11
192.80372400058678
 21
297.80535258752542
  0
LINE
  8
_0-2_2
  6
CONTINUOUS
 62
    2
 10
266.79961366155055
 20
292.11075987685768
 11
266.79961366155055
 21
291.1107598768578
  0
LINE
  8
_0-2_2
  6
CONTINUOUS
 62
    2
 10
191.7996136615505
 20
292.11075987685768
 11
191.7996136615505
 21
291.1107598768578
  0
LINE
  8
_0-2_2
  6
CONTINUOUS
 62
    2
 10
260.79961366155192
 20
301.1107598768578
 11
261.85627231046499
 21
301.1107598768578
  0
LINE
  8
_0-2_2
  6
CONTINUOUS
 62
    2
 10
196.74295501263609
 20
301.1107598768578
 11
197.79961366154828
 21
301.1107598768578
  0
ARC
  8
_0-2_2
  6
CONTINUOUS
 62
    2
 10
196.74295501263609
 20
297.1107598768578
 40
4
 50
90
 51
169.99999999999611
  0
ARC
  8
_0-2_2
  6
CONTINUOUS
 62
    2
 10
261.85627231046499
 20
297.1107598768578
 40
4
 50
10.00000000000389
 51
90
  0
LINE
  8
_0-2_2
  6
CONTINUOUS
 62
    2
 10
264.79961366155055
 20
291.1107598768578
 11
266.79961366155055
 21
291.1107598768578
  0
ARC
  8
_0-2_2
  6
CONTINUOUS
 62
    2
 10
197.79961366154828
 20
300.61075987685768
 40
0.5
 50
22.619864948040433
 51
90
  0
ARC
  8
_0-2_2
  6
CONTINUOUS
 62
    2
 10
260.79961366155192
 20
300.61075987685768
 40
0.5
 50
90
 51
157.3801350519596
  0
LINE
  8
_0-2_2
  6
H7
 62
    7
 10
303.33553379158951
 20
429.60938485253712
 11
303.33553379158951
 21
522.87014085556757
  0
ARC
  8
_0-2_2
  6
H7
 62
    7
 10
297.33553379158951
 20
429.60938485253712
 40
6
 50
295.32325567117311
 51
0
  0
ARC
  8
_0-2_2
  6
CONTINUOUS
 62
    2
 10
307.335533791589
 20
338.34741828078847
 40
4
 50
180
 51
259.99999999999608
  0
LINE
  8
_0-2_2
  6
CONTINUOUS
 62
    2
 10
308.335533791589
 20
334.10938485253712
 11
306.64094108092138
 21
334.4081872687396
  0
LINE
  8
_0-2_2
  6
CONTINUOUS
 62
    2
 10
308.33553379158991
 20
524.10938485253712
 11
308.335533791589
 21
334.10938485253712
  0
LINE
  8
_0-2_2
  6
C5
 62
    7
 10
204.84373575746969
 20
371.20944743078627
 11
195.7996136615505
 21
371.20944743078627
  0
LINE
  8
_0-2_2
  6
C5
 62
    7
 10
262.79961366155101
 20
371.20944743078661
 11
253.75549156563139
 21
371.20944743078661
  0
LINE
  8
_0-2_2
  6
CONTINUOUS
 62
    2
 10
308.33553379158951
 20
524.10938485253712
 11
304.89059875652026
 21
523.50194985906649
  0
ARC
  8
_0-2_2
  6
CONTINUOUS
 62
    2
 10
209.9996136615504
 20
514.20938485253714
 40
1
 50
90
 51
180
  0
ARC
  8
_0-2_2
  6
CONTINUOUS
 62
    2
 10
248.59961366155068
 20
514.20938485253714
 40
1
 50
0
 51
90
  0
ARC
  8
_0-2_2
  6
CONTINUOUS
 62
    2
 10
248.59961366155068
 20
504.00938485253721
 40
1
 50
270
 51
0
  0
ARC
  8
_0-2_2
  6
CONTINUOUS
 62
    2
 10
209.9996136615504
 20
504.00938485253721
 40
1
 50
180
 51
270
  0
LINE
  8
_0-2_2
  6
CONTINUOUS
 62
    2
 10
249.59961366155068
 20
504.00938485253721
 11
249.59961366155068
 21
514.20938485253714
  0
LINE
  8
_0-2_2
  6
CONTINUOUS
 62
    2
 10
208.9996136615504
 20
504.00938485253721
 11
208.9996136615504
 21
514.20938485253714
  0
LINE
  8
_0-2_2
  6
CONTINUOUS
 62
    2
 10
248.59961366155068
 20
503.0093848525371
 11
209.9996136615504
 21
503.0093848525371
  0
LINE
  8
_0-2_2
  6
CONTINUOUS
 62
    2
 10
248.59961366155068
 20
515.20938485253714
 11
209.9996136615504
 21
515.20938485253714
  0
LINE
  8
_0-2_2
  6
C5
 62
    7
 10
199.64267637901079
 20
520.10938485253678
 11
197.7996136615505
 21
520.10938485253678
  0
LINE
  8
_0-2_2
  6
CONTINUOUS
 62
    2
 10
266.79961366155055
 20
518.10938485253689
 11
266.79961366155055
 21
347.14857541895861
  0
LINE
  8
_0-2_2
  6
CONTINUOUS
 62
    2
 10
191.7996136615505
 20
518.10938485253712
 11
191.7996136615505
 21
347.14857541895861
  0
LINE
  8
_0-9_T
  6
CENTER2_17
 62
    5
 10
190.60161723625589
 20
369.10938485253712
 11
268.24543449530557
 21
369.10938485253712
  0
LINE
  8
_0-2_2
  6
CONTINUOUS
 62
    2
 10
260.79961366155055
 20
524.10938485253678
 11
197.7996136615505
 21
524.10938485253712
  0
LINE
  8
_0-9_T
  6
CENTER2_17
 62
    5
 10
229.29961366155058
 20
466.6964347886672
 11
229.29961366155058
 21
435.7482973189309
  0
LINE
  8
_0-9_T
  6
CENTER2_17
 62
    5
 10
229.29961366155058
 20
400.02331649468317
 11
229.29961366155058
 21
338.8750933600985
  0
ARC
  8
_0-2_2
  6
CONTINUOUS
 62
    2
 10
229.29961366155058
 20
343.60938485253712
 40
50
 50
68.621561100580124
 51
111.37843889941981
  0
ARC
  8
_0-2_2
  6
CONTINUOUS
 62
    2
 10
254.79961366155058
 20
369.10938485253712
 40
50
 50
158.62156110057529
 51
201.37843889942459
  0
ARC
  8
_0-2_2
  6
CONTINUOUS
 62
    2
 10
229.29961366155058
 20
394.60938485253712
 40
50
 50
248.62156110058012
 51
291.37843889941985
  0
ARC
  8
_0-2_2
  6
CONTINUOUS
 62
    2
 10
203.7996136615505
 20
369.10938485253712
 40
50
 50
338.62156110057538
 51
21.378438899424637
  0
ARC
  8
_0-2_2
  6
CONTINUOUS
 62
    2
 10
229.29961366155058
 20
414.10938485253712
 40
80
 50
244.80656102533229
 51
295.1934389746678
  0
LINE
  8
_0-2_2
  6
CONTINUOUS
 62
    6
 10
209.39961366155038
 20
447.85938485253712
 11
217.19961366155059
 21
447.85938485253712
  0
ARC
  8
_0-2_2
  6
CONTINUOUS
 62
    6
 10
209.39961366155038
 20
446.15938485253702
 40
1.7
 50
90
 51
180
  0
LINE
  8
_0-2_2
  6
CONTINUOUS
 62
    6
 10
207.69961366155059
 20
446.15938485253702
 11
207.69961366155059
 21
442.05938485253688
  0
ARC
  8
_0-2_2
  6
CONTINUOUS
 62
    6
 10
209.39961366155038
 20
442.05938485253688
 40
1.7
 50
180
 51
270
  0
LINE
  8
_0-2_2
  6
CONTINUOUS
 62
    6
 10
209.39961366155038
 20
440.35938485253712
 11
217.19961366155059
 21
440.35938485253712
  0
ARC
  8
_0-2_2
  6
CONTINUOUS
 62
    6
 10
217.19961366155059
 20
442.05938485253688
 40
1.7
 50
270
 51
0
  0
LINE
  8
_0-2_2
  6
CONTINUOUS
 62
    6
 10
218.89961366155038
 20
446.15938485253702
 11
218.89961366155038
 21
442.05938485253688
  0
ARC
  8
_0-2_2
  6
CONTINUOUS
 62
    6
 10
217.19961366155059
 20
446.15938485253702
 40
1.7
 50
0
 51
90
  0
LINE
  8
_0-2_2
  6
CONTINUOUS
 62
    6
 10
209.39961366155038
 20
461.85938485253689
 11
217.19961366155059
 21
461.85938485253689
  0
ARC
  8
_0-2_2
  6
CONTINUOUS
 62
    6
 10
217.19961366155059
 20
460.15938485253702
 40
1.7
 50
0
 51
90
  0
LINE
  8
_0-2_2
  6
CONTINUOUS
 62
    6
 10
218.89961366155038
 20
460.15938485253702
 11
218.89961366155038
 21
456.05938485253688
  0
LINE
  8
_0-2_2
  6
CONTINUOUS
 62
    6
 10
209.39961366155038
 20
454.35938485253712
 11
217.19961366155059
 21
454.35938485253712
  0
LINE
  8
_0-2_2
  6
CONTINUOUS
 62
    6
 10
207.69961366155059
 20
460.15938485253702
 11
207.69961366155059
 21
456.05938485253688
  0
ARC
  8
_0-2_2
  6
CONTINUOUS
 62
    6
 10
209.39961366155038
 20
456.05938485253688
 40
1.7
 50
180
 51
270
  0
ARC
  8
_0-2_2
  6
CONTINUOUS
 62
    6
 10
209.39961366155038
 20
460.15938485253702
 40
1.7
 50
90
 51
180
  0
ARC
  8
_0-2_2
  6
CONTINUOUS
 62
    6
 10
217.19961366155059
 20
456.05938485253688
 40
1.7
 50
270
 51
0
  0
LINE
  8
_0-2_2
  6
CONTINUOUS
 62
    6
 10
209.39961366155038
 20
475.85938485253678
 11
217.19961366155059
 21
475.85938485253678
  0
ARC
  8
_0-2_2
  6
CONTINUOUS
 62
    6
 10
217.19961366155059
 20
474.15938485253707
 40
1.7
 50
0
 51
90
  0
LINE
  8
_0-2_2
  6
CONTINUOUS
 62
    6
 10
218.89961366155038
 20
474.15938485253707
 11
218.89961366155038
 21
470.05938485253688
  0
LINE
  8
_0-2_2
  6
CONTINUOUS
 62
    6
 10
209.39961366155038
 20
468.35938485253689
 11
217.19961366155059
 21
468.35938485253689
  0
LINE
  8
_0-2_2
  6
CONTINUOUS
 62
    6
 10
207.69961366155059
 20
474.15938485253707
 11
207.69961366155059
 21
470.05938485253688
  0
ARC
  8
_0-2_2
  6
CONTINUOUS
 62
    6
 10
209.39961366155038
 20
470.05938485253688
 40
1.7
 50
180
 51
270
  0
ARC
  8
_0-2_2
  6
CONTINUOUS
 62
    6
 10
209.39961366155038
 20
474.15938485253707
 40
1.7
 50
90
 51
180
  0
ARC
  8
_0-2_2
  6
CONTINUOUS
 62
    6
 10
217.19961366155059
 20
470.05938485253688
 40
1.7
 50
270
 51
0
  0
LINE
  8
_0-2_2
  6
CONTINUOUS
 62
    6
 10
209.39961366155038
 20
489.85938485253689
 11
217.19961366155059
 21
489.85938485253689
  0
ARC
  8
_0-2_2
  6
CONTINUOUS
 62
    6
 10
217.19961366155059
 20
488.15938485253702
 40
1.7
 50
0
 51
90
  0
LINE
  8
_0-2_2
  6
CONTINUOUS
 62
    6
 10
218.89961366155038
 20
488.15938485253702
 11
218.89961366155038
 21
484.05938485253688
  0
LINE
  8
_0-2_2
  6
CONTINUOUS
 62
    6
 10
209.39961366155038
 20
482.35938485253689
 11
217.19961366155059
 21
482.35938485253689
  0
LINE
  8
_0-2_2
  6
CONTINUOUS
 62
    6
 10
207.69961366155059
 20
488.15938485253702
 11
207.69961366155059
 21
484.05938485253688
  0
ARC
  8
_0-2_2
  6
CONTINUOUS
 62
    6
 10
209.39961366155038
 20
484.05938485253688
 40
1.7
 50
180
 51
270
  0
ARC
  8
_0-2_2
  6
CONTINUOUS
 62
    6
 10
209.39961366155038
 20
488.15938485253702
 40
1.7
 50
90
 51
180
  0
ARC
  8
_0-2_2
  6
CONTINUOUS
 62
    6
 10
217.19961366155059
 20
484.05938485253688
 40
1.7
 50
270
 51
0
  0
LINE
  8
_0-2_2
  6
CONTINUOUS
 62
    6
 10
225.39961366155049
 20
447.85938485253712
 11
233.19961366155059
 21
447.85938485253712
  0
ARC
  8
_0-2_2
  6
CONTINUOUS
 62
    6
 10
233.19961366155059
 20
446.15938485253702
 40
1.7
 50
0
 51
90
  0
LINE
  8
_0-2_2
  6
CONTINUOUS
 62
    6
 10
234.89961366155049
 20
446.15938485253702
 11
234.89961366155049
 21
442.05938485253688
  0
LINE
  8
_0-2_2
  6
CONTINUOUS
 62
    6
 10
225.39961366155049
 20
440.35938485253712
 11
233.19961366155059
 21
440.35938485253712
  0
LINE
  8
_0-2_2
  6
CONTINUOUS
 62
    6
 10
223.69961366155059
 20
446.15938485253702
 11
223.69961366155059
 21
442.05938485253688
  0
ARC
  8
_0-2_2
  6
CONTINUOUS
 62
    6
 10
225.39961366155049
 20
442.05938485253688
 40
1.7
 50
180
 51
270
  0
ARC
  8
_0-2_2
  6
CONTINUOUS
 62
    6
 10
225.39961366155049
 20
446.15938485253702
 40
1.7
 50
90
 51
180
  0
ARC
  8
_0-2_2
  6
CONTINUOUS
 62
    6
 10
233.19961366155059
 20
442.05938485253688
 40
1.7
 50
270
 51
0
  0
LINE
  8
_0-2_2
  6
CONTINUOUS
 62
    6
 10
225.39961366155049
 20
461.85938485253689
 11
233.19961366155059
 21
461.85938485253689
  0
ARC
  8
_0-2_2
  6
CONTINUOUS
 62
    6
 10
233.19961366155059
 20
460.15938485253702
 40
1.7
 50
0
 51
90
  0
LINE
  8
_0-2_2
  6
CONTINUOUS
 62
    6
 10
234.89961366155049
 20
460.15938485253702
 11
234.89961366155049
 21
456.05938485253688
  0
LINE
  8
_0-2_2
  6
CONTINUOUS
 62
    6
 10
225.39961366155049
 20
454.35938485253712
 11
233.19961366155059
 21
454.35938485253712
  0
LINE
  8
_0-2_2
  6
CONTINUOUS
 62
    6
 10
223.69961366155059
 20
460.15938485253702
 11
223.69961366155059
 21
456.05938485253688
  0
ARC
  8
_0-2_2
  6
CONTINUOUS
 62
    6
 10
225.39961366155049
 20
456.05938485253688
 40
1.7
 50
180
 51
270
  0
ARC
  8
_0-2_2
  6
CONTINUOUS
 62
    6
 10
225.39961366155049
 20
460.15938485253702
 40
1.7
 50
90
 51
180
  0
ARC
  8
_0-2_2
  6
CONTINUOUS
 62
    6
 10
233.19961366155059
 20
456.05938485253688
 40
1.7
 50
270
 51
0
  0
LINE
  8
_0-2_2
  6
CONTINUOUS
 62
    6
 10
225.39961366155049
 20
475.85938485253678
 11
233.19961366155059
 21
475.85938485253678
  0
ARC
  8
_0-2_2
  6
CONTINUOUS
 62
    6
 10
233.19961366155059
 20
474.15938485253707
 40
1.7
 50
0
 51
90
  0
LINE
  8
_0-2_2
  6
CONTINUOUS
 62
    6
 10
234.89961366155049
 20
474.15938485253707
 11
234.89961366155049
 21
470.05938485253688
  0
LINE
  8
_0-2_2
  6
CONTINUOUS
 62
    6
 10
225.39961366155049
 20
468.35938485253689
 11
233.19961366155059
 21
468.35938485253689
  0
LINE
  8
_0-2_2
  6
CONTINUOUS
 62
    6
 10
223.69961366155059
 20
474.15938485253707
 11
223.69961366155059
 21
470.05938485253688
  0
ARC
  8
_0-2_2
  6
CONTINUOUS
 62
    6
 10
225.39961366155049
 20
470.05938485253688
 40
1.7
 50
180
 51
270
  0
ARC
  8
_0-2_2
  6
CONTINUOUS
 62
    6
 10
225.39961366155049
 20
474.15938485253707
 40
1.7
 50
90
 51
180
  0
ARC
  8
_0-2_2
  6
CONTINUOUS
 62
    6
 10
233.19961366155059
 20
470.05938485253688
 40
1.7
 50
270
 51
0
  0
LINE
  8
_0-2_2
  6
CONTINUOUS
 62
    6
 10
225.39961366155049
 20
489.85938485253689
 11
233.19961366155059
 21
489.85938485253689
  0
ARC
  8
_0-2_2
  6
CONTINUOUS
 62
    6
 10
233.19961366155059
 20
488.15938485253702
 40
1.7
 50
0
 51
90
  0
LINE
  8
_0-2_2
  6
CONTINUOUS
 62
    6
 10
234.89961366155049
 20
488.15938485253702
 11
234.89961366155049
 21
484.05938485253688
  0
LINE
  8
_0-2_2
  6
CONTINUOUS
 62
    6
 10
225.39961366155049
 20
482.35938485253689
 11
233.19961366155059
 21
482.35938485253689
  0
LINE
  8
_0-2_2
  6
CONTINUOUS
 62
    6
 10
223.69961366155059
 20
488.15938485253702
 11
223.69961366155059
 21
484.05938485253688
  0
ARC
  8
_0-2_2
  6
CONTINUOUS
 62
    6
 10
225.39961366155049
 20
484.05938485253688
 40
1.7
 50
180
 51
270
  0
ARC
  8
_0-2_2
  6
CONTINUOUS
 62
    6
 10
225.39961366155049
 20
488.15938485253702
 40
1.7
 50
90
 51
180
  0
ARC
  8
_0-2_2
  6
CONTINUOUS
 62
    6
 10
233.19961366155059
 20
484.05938485253688
 40
1.7
 50
270
 51
0
  0
LINE
  8
_0-2_2
  6
CONTINUOUS
 62
    6
 10
241.39961366155049
 20
447.85938485253712
 11
249.1996136615507
 21
447.85938485253712
  0
ARC
  8
_0-2_2
  6
CONTINUOUS
 62
    6
 10
249.1996136615507
 20
446.15938485253702
 40
1.7
 50
0
 51
90
  0
LINE
  8
_0-2_2
  6
CONTINUOUS
 62
    6
 10
250.89961366155049
 20
446.15938485253702
 11
250.89961366155049
 21
442.05938485253688
  0
LINE
  8
_0-2_2
  6
CONTINUOUS
 62
    6
 10
241.39961366155049
 20
440.35938485253712
 11
249.1996136615507
 21
440.35938485253712
  0
LINE
  8
_0-2_2
  6
CONTINUOUS
 62
    6
 10
239.69961366155059
 20
446.15938485253702
 11
239.69961366155059
 21
442.05938485253688
  0
ARC
  8
_0-2_2
  6
CONTINUOUS
 62
    6
 10
241.39961366155049
 20
442.05938485253688
 40
1.7
 50
180
 51
270
  0
ARC
  8
_0-2_2
  6
CONTINUOUS
 62
    6
 10
241.39961366155049
 20
446.15938485253702
 40
1.7
 50
90
 51
180
  0
ARC
  8
_0-2_2
  6
CONTINUOUS
 62
    6
 10
249.1996136615507
 20
442.05938485253688
 40
1.7
 50
270
 51
0
  0
LINE
  8
_0-2_2
  6
CONTINUOUS
 62
    6
 10
241.39961366155049
 20
461.85938485253689
 11
249.1996136615507
 21
461.85938485253689
  0
ARC
  8
_0-2_2
  6
CONTINUOUS
 62
    6
 10
249.1996136615507
 20
460.15938485253702
 40
1.7
 50
0
 51
90
  0
LINE
  8
_0-2_2
  6
CONTINUOUS
 62
    6
 10
250.89961366155049
 20
460.15938485253702
 11
250.89961366155049
 21
456.05938485253688
  0
LINE
  8
_0-2_2
  6
CONTINUOUS
 62
    6
 10
241.39961366155049
 20
454.35938485253712
 11
249.1996136615507
 21
454.35938485253712
  0
LINE
  8
_0-2_2
  6
CONTINUOUS
 62
    6
 10
239.69961366155059
 20
460.15938485253702
 11
239.69961366155059
 21
456.05938485253688
  0
ARC
  8
_0-2_2
  6
CONTINUOUS
 62
    6
 10
241.39961366155049
 20
456.05938485253688
 40
1.7
 50
180
 51
270
  0
ARC
  8
_0-2_2
  6
CONTINUOUS
 62
    6
 10
241.39961366155049
 20
460.15938485253702
 40
1.7
 50
90
 51
180
  0
ARC
  8
_0-2_2
  6
CONTINUOUS
 62
    6
 10
249.1996136615507
 20
456.05938485253688
 40
1.7
 50
270
 51
0
  0
LINE
  8
_0-2_2
  6
CONTINUOUS
 62
    6
 10
241.39961366155049
 20
475.85938485253678
 11
249.1996136615507
 21
475.85938485253678
  0
ARC
  8
_0-2_2
  6
CONTINUOUS
 62
    6
 10
249.1996136615507
 20
474.15938485253707
 40
1.7
 50
0
 51
90
  0
LINE
  8
_0-2_2
  6
CONTINUOUS
 62
    6
 10
250.89961366155049
 20
474.15938485253707
 11
250.89961366155049
 21
470.05938485253688
  0
LINE
  8
_0-2_2
  6
CONTINUOUS
 62
    6
 10
241.39961366155049
 20
468.35938485253689
 11
249.1996136615507
 21
468.35938485253689
  0
LINE
  8
_0-2_2
  6
CONTINUOUS
 62
    6
 10
239.69961366155059
 20
474.15938485253707
 11
239.69961366155059
 21
470.05938485253688
  0
ARC
  8
_0-2_2
  6
CONTINUOUS
 62
    6
 10
241.39961366155049
 20
470.05938485253688
 40
1.7
 50
180
 51
270
  0
ARC
  8
_0-2_2
  6
CONTINUOUS
 62
    6
 10
241.39961366155049
 20
474.15938485253707
 40
1.7
 50
90
 51
180
  0
ARC
  8
_0-2_2
  6
CONTINUOUS
 62
    6
 10
249.1996136615507
 20
470.05938485253688
 40
1.7
 50
270
 51
0
  0
LINE
  8
_0-2_2
  6
CONTINUOUS
 62
    6
 10
241.39961366155049
 20
489.85938485253689
 11
249.1996136615507
 21
489.85938485253689
  0
ARC
  8
_0-2_2
  6
CONTINUOUS
 62
    6
 10
249.1996136615507
 20
488.15938485253702
 40
1.7
 50
0
 51
90
  0
LINE
  8
_0-2_2
  6
CONTINUOUS
 62
    6
 10
250.89961366155049
 20
488.15938485253702
 11
250.89961366155049
 21
484.05938485253688
  0
LINE
  8
_0-2_2
  6
CONTINUOUS
 62
    6
 10
241.39961366155049
 20
482.35938485253689
 11
249.1996136615507
 21
482.35938485253689
  0
LINE
  8
_0-2_2
  6
CONTINUOUS
 62
    6
 10
239.69961366155059
 20
488.15938485253702
 11
239.69961366155059
 21
484.05938485253688
  0
ARC
  8
_0-2_2
  6
CONTINUOUS
 62
    6
 10
241.39961366155049
 20
484.05938485253688
 40
1.7
 50
180
 51
270
  0
ARC
  8
_0-2_2
  6
CONTINUOUS
 62
    6
 10
241.39961366155049
 20
488.15938485253702
 40
1.7
 50
90
 51
180
  0
ARC
  8
_0-2_2
  6
CONTINUOUS
 62
    6
 10
249.1996136615507
 20
484.05938485253688
 40
1.7
 50
270
 51
0
  0
CIRCLE
  8
_0-2_2
  6
CONTINUOUS
 62
    2
 10
210.7996136615505
 20
402.10938485253712
 40
6
  0
ARC
  8
_0-2_2
  6
CONTINUOUS
 62
    2
 10
197.7996136615505
 20
518.10938485253712
 40
6
 50
90
 51
180
  0
ARC
  8
_0-2_2
  6
CONTINUOUS
 62
    2
 10
260.79961366155055
 20
518.10938485253689
 40
6
 50
0
 51
90
  0
ARC
  8
_0-2_2
  6
CONTINUOUS
 62
    2
 10
260.79961366155055
 20
347.14857541895861
 40
6
 50
295.19343897466774
 51
359.99999999999994
  0
ARC
  8
_0-2_2
  6
CONTINUOUS
 62
    2
 10
197.7996136615505
 20
347.14857541895861
 40
6
 50
180
 51
244.80656102533229
  0
LINE
  8
_0-2_2
  6
CONTINUOUS
 62
    2
 10
241.39961366155049
 20
447.35938485253712
 11
249.1996136615507
 21
447.35938485253712
  0
ARC
  8
_0-2_2
  6
CONTINUOUS
 62
    2
 10
241.39961366155049
 20
446.15938485253702
 40
1.1999999999999991
 50
90
 51
180
  0
LINE
  8
_0-2_2
  6
CONTINUOUS
 62
    2
 10
240.1996136615507
 20
446.15938485253702
 11
240.1996136615507
 21
442.05938485253688
  0
ARC
  8
_0-2_2
  6
CONTINUOUS
 62
    2
 10
241.39961366155049
 20
442.05938485253688
 40
1.1999999999999991
 50
180
 51
270
  0
LINE
  8
_0-2_2
  6
CONTINUOUS
 62
    2
 10
241.39961366155049
 20
440.859384852537
 11
249.1996136615507
 21
440.859384852537
  0
ARC
  8
_0-2_2
  6
CONTINUOUS
 62
    2
 10
249.1996136615507
 20
442.05938485253688
 40
1.1999999999999991
 50
270
 51
0
  0
LINE
  8
_0-2_2
  6
CONTINUOUS
 62
    2
 10
250.39961366155049
 20
446.15938485253702
 11
250.39961366155049
 21
442.05938485253688
  0
ARC
  8
_0-2_2
  6
CONTINUOUS
 62
    2
 10
249.1996136615507
 20
446.15938485253702
 40
1.1999999999999991
 50
0
 51
90
  0
LINE
  8
_0-2_2
  6
CONTINUOUS
 62
    2
 10
240.1996136615507
 20
460.15938485253702
 11
240.1996136615507
 21
456.05938485253688
  0
ARC
  8
_0-2_2
  6
CONTINUOUS
 62
    2
 10
241.39961366155049
 20
460.15938485253702
 40
1.1999999999999991
 50
90
 51
180
  0
LINE
  8
_0-2_2
  6
CONTINUOUS
 62
    2
 10
241.39961366155049
 20
461.359384852537
 11
249.1996136615507
 21
461.359384852537
  0
ARC
  8
_0-2_2
  6
CONTINUOUS
 62
    2
 10
249.1996136615507
 20
460.15938485253702
 40
1.1999999999999991
 50
0
 51
90
  0
LINE
  8
_0-2_2
  6
CONTINUOUS
 62
    2
 10
250.39961366155049
 20
460.15938485253702
 11
250.39961366155049
 21
456.05938485253688
  0
ARC
  8
_0-2_2
  6
CONTINUOUS
 62
    2
 10
249.1996136615507
 20
456.05938485253688
 40
1.1999999999999991
 50
270
 51
0
  0
LINE
  8
_0-2_2
  6
CONTINUOUS
 62
    2
 10
241.39961366155049
 20
454.85938485253712
 11
249.1996136615507
 21
454.85938485253712
  0
ARC
  8
_0-2_2
  6
CONTINUOUS
 62
    2
 10
241.39961366155049
 20
456.05938485253688
 40
1.1999999999999991
 50
180
 51
270
  0
LINE
  8
_0-2_2
  6
CONTINUOUS
 62
    2
 10
240.1996136615507
 20
474.15938485253707
 11
240.1996136615507
 21
470.05938485253688
  0
ARC
  8
_0-2_2
  6
CONTINUOUS
 62
    2
 10
241.39961366155049
 20
474.15938485253707
 40
1.1999999999999991
 50
90
 51
180
  0
LINE
  8
_0-2_2
  6
CONTINUOUS
 62
    2
 10
241.39961366155049
 20
475.35938485253712
 11
249.1996136615507
 21
475.35938485253712
  0
ARC
  8
_0-2_2
  6
CONTINUOUS
 62
    2
 10
249.1996136615507
 20
474.15938485253707
 40
1.1999999999999991
 50
0
 51
90
  0
LINE
  8
_0-2_2
  6
CONTINUOUS
 62
    2
 10
250.39961366155049
 20
474.15938485253707
 11
250.39961366155049
 21
470.05938485253688
  0
ARC
  8
_0-2_2
  6
CONTINUOUS
 62
    2
 10
249.1996136615507
 20
470.05938485253688
 40
1.1999999999999991
 50
270
 51
0
  0
LINE
  8
_0-2_2
  6
CONTINUOUS
 62
    2
 10
241.39961366155049
 20
468.85938485253712
 11
249.1996136615507
 21
468.85938485253712
  0
ARC
  8
_0-2_2
  6
CONTINUOUS
 62
    2
 10
241.39961366155049
 20
470.05938485253688
 40
1.1999999999999991
 50
180
 51
270
  0
LINE
  8
_0-2_2
  6
CONTINUOUS
 62
    2
 10
240.1996136615507
 20
488.15938485253702
 11
240.1996136615507
 21
484.05938485253688
  0
ARC
  8
_0-2_2
  6
CONTINUOUS
 62
    2
 10
241.39961366155049
 20
488.15938485253702
 40
1.1999999999999991
 50
90
 51
180
  0
LINE
  8
_0-2_2
  6
CONTINUOUS
 62
    2
 10
241.39961366155049
 20
489.35938485253712
 11
249.1996136615507
 21
489.35938485253712
  0
ARC
  8
_0-2_2
  6
CONTINUOUS
 62
    2
 10
249.1996136615507
 20
488.15938485253702
 40
1.1999999999999991
 50
0
 51
90
  0
LINE
  8
_0-2_2
  6
CONTINUOUS
 62
    2
 10
250.39961366155049
 20
488.15938485253702
 11
250.39961366155049
 21
484.05938485253688
  0
ARC
  8
_0-2_2
  6
CONTINUOUS
 62
    2
 10
249.1996136615507
 20
484.05938485253688
 40
1.1999999999999991
 50
270
 51
0
  0
LINE
  8
_0-2_2
  6
CONTINUOUS
 62
    2
 10
241.39961366155049
 20
482.85938485253712
 11
249.1996136615507
 21
482.85938485253712
  0
ARC
  8
_0-2_2
  6
CONTINUOUS
 62
    2
 10
241.39961366155049
 20
484.05938485253688
 40
1.1999999999999991
 50
180
 51
270
  0
LINE
  8
_0-2_2
  6
CONTINUOUS
 62
    2
 10
224.19961366155059
 20
446.15938485253702
 11
224.19961366155059
 21
442.05938485253688
  0
ARC
  8
_0-2_2
  6
CONTINUOUS
 62
    2
 10
225.39961366155049
 20
446.15938485253702
 40
1.1999999999999991
 50
90
 51
180
  0
LINE
  8
_0-2_2
  6
CONTINUOUS
 62
    2
 10
225.39961366155049
 20
447.35938485253712
 11
233.19961366155059
 21
447.35938485253712
  0
ARC
  8
_0-2_2
  6
CONTINUOUS
 62
    2
 10
233.19961366155059
 20
446.15938485253702
 40
1.1999999999999991
 50
0
 51
90
  0
LINE
  8
_0-2_2
  6
CONTINUOUS
 62
    2
 10
234.39961366155038
 20
446.15938485253702
 11
234.39961366155038
 21
442.05938485253688
  0
ARC
  8
_0-2_2
  6
CONTINUOUS
 62
    2
 10
233.19961366155059
 20
442.05938485253688
 40
1.1999999999999991
 50
270
 51
0
  0
LINE
  8
_0-2_2
  6
CONTINUOUS
 62
    2
 10
225.39961366155049
 20
440.859384852537
 11
233.19961366155059
 21
440.859384852537
  0
ARC
  8
_0-2_2
  6
CONTINUOUS
 62
    2
 10
225.39961366155049
 20
442.05938485253688
 40
1.1999999999999991
 50
180
 51
270
  0
LINE
  8
_0-2_2
  6
CONTINUOUS
 62
    2
 10
224.19961366155059
 20
460.15938485253702
 11
224.19961366155059
 21
456.05938485253688
  0
ARC
  8
_0-2_2
  6
CONTINUOUS
 62
    2
 10
225.39961366155049
 20
460.15938485253702
 40
1.1999999999999991
 50
90
 51
180
  0
LINE
  8
_0-2_2
  6
CONTINUOUS
 62
    2
 10
225.39961366155049
 20
461.359384852537
 11
233.19961366155059
 21
461.359384852537
  0
ARC
  8
_0-2_2
  6
CONTINUOUS
 62
    2
 10
233.19961366155059
 20
460.15938485253702
 40
1.1999999999999991
 50
0
 51
90
  0
LINE
  8
_0-2_2
  6
CONTINUOUS
 62
    2
 10
234.39961366155038
 20
460.15938485253702
 11
234.39961366155038
 21
456.05938485253688
  0
ARC
  8
_0-2_2
  6
CONTINUOUS
 62
    2
 10
233.19961366155059
 20
456.05938485253688
 40
1.1999999999999991
 50
270
 51
0
  0
LINE
  8
_0-2_2
  6
CONTINUOUS
 62
    2
 10
225.39961366155049
 20
454.85938485253712
 11
233.19961366155059
 21
454.85938485253712
  0
ARC
  8
_0-2_2
  6
CONTINUOUS
 62
    2
 10
225.39961366155049
 20
456.05938485253688
 40
1.1999999999999991
 50
180
 51
270
  0
LINE
  8
_0-2_2
  6
CONTINUOUS
 62
    2
 10
224.19961366155059
 20
474.15938485253707
 11
224.19961366155059
 21
470.05938485253688
  0
ARC
  8
_0-2_2
  6
CONTINUOUS
 62
    2
 10
225.39961366155049
 20
474.15938485253707
 40
1.1999999999999991
 50
90
 51
180
  0
LINE
  8
_0-2_2
  6
CONTINUOUS
 62
    2
 10
225.39961366155049
 20
475.35938485253712
 11
233.19961366155059
 21
475.35938485253712
  0
ARC
  8
_0-2_2
  6
CONTINUOUS
 62
    2
 10
233.19961366155059
 20
474.15938485253707
 40
1.1999999999999991
 50
0
 51
90
  0
LINE
  8
_0-2_2
  6
CONTINUOUS
 62
    2
 10
234.39961366155038
 20
474.15938485253707
 11
234.39961366155038
 21
470.05938485253688
  0
ARC
  8
_0-2_2
  6
CONTINUOUS
 62
    2
 10
233.19961366155059
 20
470.05938485253688
 40
1.1999999999999991
 50
270
 51
0
  0
LINE
  8
_0-2_2
  6
CONTINUOUS
 62
    2
 10
225.39961366155049
 20
468.85938485253712
 11
233.19961366155059
 21
468.85938485253712
  0
ARC
  8
_0-2_2
  6
CONTINUOUS
 62
    2
 10
225.39961366155049
 20
470.05938485253688
 40
1.1999999999999991
 50
180
 51
270
  0
LINE
  8
_0-2_2
  6
CONTINUOUS
 62
    2
 10
224.19961366155059
 20
488.15938485253702
 11
224.19961366155059
 21
484.05938485253688
  0
ARC
  8
_0-2_2
  6
CONTINUOUS
 62
    2
 10
225.39961366155049
 20
488.15938485253702
 40
1.1999999999999991
 50
90
 51
180
  0
LINE
  8
_0-2_2
  6
CONTINUOUS
 62
    2
 10
225.39961366155049
 20
489.35938485253712
 11
233.19961366155059
 21
489.35938485253712
  0
ARC
  8
_0-2_2
  6
CONTINUOUS
 62
    2
 10
233.19961366155059
 20
488.15938485253702
 40
1.1999999999999991
 50
0
 51
90
  0
LINE
  8
_0-2_2
  6
CONTINUOUS
 62
    2
 10
234.39961366155038
 20
488.15938485253702
 11
234.39961366155038
 21
484.05938485253688
  0
ARC
  8
_0-2_2
  6
CONTINUOUS
 62
    2
 10
233.19961366155059
 20
484.05938485253688
 40
1.1999999999999991
 50
270
 51
0
  0
LINE
  8
_0-2_2
  6
CONTINUOUS
 62
    2
 10
225.39961366155049
 20
482.85938485253712
 11
233.19961366155059
 21
482.85938485253712
  0
ARC
  8
_0-2_2
  6
CONTINUOUS
 62
    2
 10
225.39961366155049
 20
484.05938485253688
 40
1.1999999999999991
 50
180
 51
270
  0
LINE
  8
_0-2_2
  6
CONTINUOUS
 62
    2
 10
208.19961366155059
 20
446.15938485253702
 11
208.19961366155059
 21
442.05938485253688
  0
ARC
  8
_0-2_2
  6
CONTINUOUS
 62
    2
 10
209.39961366155038
 20
446.15938485253702
 40
1.1999999999999991
 50
90
 51
180
  0
LINE
  8
_0-2_2
  6
CONTINUOUS
 62
    2
 10
209.39961366155038
 20
447.35938485253712
 11
217.19961366155059
 21
447.35938485253712
  0
ARC
  8
_0-2_2
  6
CONTINUOUS
 62
    2
 10
217.19961366155059
 20
446.15938485253702
 40
1.1999999999999991
 50
0
 51
90
  0
LINE
  8
_0-2_2
  6
CONTINUOUS
 62
    2
 10
218.39961366155049
 20
446.15938485253702
 11
218.39961366155049
 21
442.05938485253688
  0
ARC
  8
_0-2_2
  6
CONTINUOUS
 62
    2
 10
217.19961366155059
 20
442.05938485253688
 40
1.1999999999999991
 50
270
 51
0
  0
LINE
  8
_0-2_2
  6
CONTINUOUS
 62
    2
 10
209.39961366155038
 20
440.859384852537
 11
217.19961366155059
 21
440.859384852537
  0
ARC
  8
_0-2_2
  6
CONTINUOUS
 62
    2
 10
209.39961366155038
 20
442.05938485253688
 40
1.1999999999999991
 50
180
 51
270
  0
LINE
  8
_0-2_2
  6
CONTINUOUS
 62
    2
 10
208.19961366155059
 20
460.15938485253702
 11
208.19961366155059
 21
456.05938485253688
  0
ARC
  8
_0-2_2
  6
CONTINUOUS
 62
    2
 10
209.39961366155038
 20
460.15938485253702
 40
1.1999999999999991
 50
90
 51
180
  0
LINE
  8
_0-2_2
  6
CONTINUOUS
 62
    2
 10
209.39961366155038
 20
461.359384852537
 11
217.19961366155059
 21
461.359384852537
  0
ARC
  8
_0-2_2
  6
CONTINUOUS
 62
    2
 10
217.19961366155059
 20
460.15938485253702
 40
1.1999999999999991
 50
0
 51
90
  0
LINE
  8
_0-2_2
  6
CONTINUOUS
 62
    2
 10
218.39961366155049
 20
460.15938485253702
 11
218.39961366155049
 21
456.05938485253688
  0
ARC
  8
_0-2_2
  6
CONTINUOUS
 62
    2
 10
217.19961366155059
 20
456.05938485253688
 40
1.1999999999999991
 50
270
 51
0
  0
LINE
  8
_0-2_2
  6
CONTINUOUS
 62
    2
 10
209.39961366155038
 20
454.85938485253712
 11
217.19961366155059
 21
454.85938485253712
  0
ARC
  8
_0-2_2
  6
CONTINUOUS
 62
    2
 10
209.39961366155038
 20
456.05938485253688
 40
1.1999999999999991
 50
180
 51
270
  0
LINE
  8
_0-2_2
  6
CONTINUOUS
 62
    2
 10
208.19961366155059
 20
474.15938485253707
 11
208.19961366155059
 21
470.05938485253688
  0
ARC
  8
_0-2_2
  6
CONTINUOUS
 62
    2
 10
209.39961366155038
 20
474.15938485253707
 40
1.1999999999999991
 50
90
 51
180
  0
LINE
  8
_0-2_2
  6
CONTINUOUS
 62
    2
 10
209.39961366155038
 20
475.35938485253712
 11
217.19961366155059
 21
475.35938485253712
  0
ARC
  8
_0-2_2
  6
CONTINUOUS
 62
    2
 10
217.19961366155059
 20
474.15938485253707
 40
1.1999999999999991
 50
0
 51
90
  0
LINE
  8
_0-2_2
  6
CONTINUOUS
 62
    2
 10
218.39961366155049
 20
474.15938485253707
 11
218.39961366155049
 21
470.05938485253688
  0
ARC
  8
_0-2_2
  6
CONTINUOUS
 62
    2
 10
217.19961366155059
 20
470.05938485253688
 40
1.1999999999999991
 50
270
 51
0
  0
LINE
  8
_0-2_2
  6
CONTINUOUS
 62
    2
 10
209.39961366155038
 20
468.85938485253712
 11
217.19961366155059
 21
468.85938485253712
  0
ARC
  8
_0-2_2
  6
CONTINUOUS
 62
    2
 10
209.39961366155038
 20
470.05938485253688
 40
1.1999999999999991
 50
180
 51
270
  0
LINE
  8
_0-2_2
  6
CONTINUOUS
 62
    2
 10
208.19961366155059
 20
488.15938485253702
 11
208.19961366155059
 21
484.05938485253688
  0
ARC
  8
_0-2_2
  6
CONTINUOUS
 62
    2
 10
209.39961366155038
 20
488.15938485253702
 40
1.1999999999999991
 50
90
 51
180
  0
LINE
  8
_0-2_2
  6
CONTINUOUS
 62
    2
 10
209.39961366155038
 20
489.35938485253712
 11
217.19961366155059
 21
489.35938485253712
  0
ARC
  8
_0-2_2
  6
CONTINUOUS
 62
    2
 10
217.19961366155059
 20
488.15938485253702
 40
1.1999999999999991
 50
0
 51
90
  0
LINE
  8
_0-2_2
  6
CONTINUOUS
 62
    2
 10
218.39961366155049
 20
488.15938485253702
 11
218.39961366155049
 21
484.05938485253688
  0
ARC
  8
_0-2_2
  6
CONTINUOUS
 62
    2
 10
217.19961366155059
 20
484.05938485253688
 40
1.1999999999999991
 50
270
 51
0
  0
LINE
  8
_0-2_2
  6
CONTINUOUS
 62
    2
 10
209.39961366155038
 20
482.85938485253712
 11
217.19961366155059
 21
482.85938485253712
  0
ARC
  8
_0-2_2
  6
CONTINUOUS
 62
    2
 10
209.39961366155038
 20
484.05938485253688
 40
1.1999999999999991
 50
180
 51
270
  0
LINE
  8
_0-2_2
  6
CONTINUOUS
 62
    2
 10
308.335533791589
 20
334.10938485253712
 11
309.335533791589
 21
334.10938485253712
  0
LINE
  8
_0-2_2
  6
CONTINUOUS
 62
    2
 10
308.33553379158951
 20
524.10938485253712
 11
309.335533791589
 21
524.10938485253712
  0
LINE
  8
_0-2_2
  6
CONTINUOUS
 62
    2
 10
303.335533791589
 20
344.60938485253712
 11
303.335533791589
 21
338.34741828078847
  0
LINE
  8
_0-2_2
  6
CONTINUOUS
 62
    2
 10
303.335533791589
 20
371.35090445087292
 11
303.335533791589
 21
344.60938485253712
  0
LINE
  8
_0-2_2
  6
CONTINUOUS
 62
    2
 10
308.335533791589
 20
334.10938485253712
 11
309.335533791589
 21
334.10938485253712
  0
LINE
  8
_0-2_2
  6
CONTINUOUS
 62
    2
 10
309.33553379158991
 20
524.10938485253712
 11
309.335533791589
 21
334.10938485253712
  0
ARC
  8
_0-2_2
  6
CONTINUOUS
 62
    2
 10
245.7033012499158
 20
352.70569726417182
 40
5
 50
291.37843889941979
 51
338.62156110057538
  0
ARC
  8
_0-2_2
  6
CONTINUOUS
 62
    2
 10
245.7033012499158
 20
385.51307244090219
 40
5
 50
21.378438899424623
 51
68.621561100580124
  0
ARC
  8
_0-2_2
  6
CONTINUOUS
 62
    2
 10
212.89592607318519
 20
385.51307244090219
 40
5
 50
111.37843889941981
 51
158.62156110057529
  0
ARC
  8
_0-2_2
  6
CONTINUOUS
 62
    2
 10
212.89592607318519
 20
352.70569726417182
 40
5
 50
201.37843889942459
 51
248.6215611005801
  0
LINE
  8
_0-2_2
  6
C5
 62
    7
 10
260.79961366155055
 20
520.10938485253678
 11
258.9561314453689
 21
520.10938485253678
  0
ARC
  8
_0-2_2
  6
C5
 62
    7
 10
197.7996136615505
 20
347.14857541895861
 40
2
 50
180
 51
244.80656102533229
  0
LINE
  8
_0-2_2
  6
C5
 62
    7
 10
262.79961366155055
 20
518.10938485253689
 11
262.79961366155055
 21
347.14857541895861
  0
ARC
  8
_0-2_2
  6
C5
 62
    7
 10
229.29961366155058
 20
414.10938485253689
 40
76
 50
244.80656102533229
 51
295.1934389746678
  0
ARC
  8
_0-2_2
  6
C5
 62
    7
 10
260.79961366155055
 20
347.14857541895861
 40
2
 50
295.19343897466774
 51
359.99999999999994
  0
ARC
  8
_0-7_7
  6
C5
 62
    7
 10
197.7996136615505
 20
518.10938485253689
 40
2
 50
90
 51
180
  0
ARC
  8
_0-7_7
  6
C5
 62
    7
 10
260.79961366155055
 20
518.10938485253689
 40
2
 50
0
 51
90
  0
ARC
  8
_0-2_2
  6
CONTINUOUS
 62
    2
 10
260.79961366155055
 20
518.10938485253689
 40
6
 50
0
 51
90
  0
ARC
  8
_0-2_2
  6
CONTINUOUS
 62
    2
 10
1284.9607362607805
 20
466.09025518815281
 40
1086.661565288488
 50
177.23121989127111
 51
180.05171779320619
  0
ARC
  8
_0-2_2
  6
CONTINUOUS
 62
    2
 10
-895.47290638939785
 20
464.39379659080538
 40
1155.7727415765851
 50
0.0354742661844475
 51
2.687005294231982
  0
LINE
  8
_0-2_2
  6
CONTINUOUS
 62
    2
 10
260.29961366154009
 20
429.35208542799847
 11
260.29961366154009
 21
465.10938485276222
  0
LINE
  8
_0-2_2
  6
C5
 62
    7
 10
254.79961366155058
 20
522.38878854745531
 11
254.79961366155058
 21
429.60938485253689
  0
ARC
  8
_0-2_2
  6
CONTINUOUS
 62
    2
 10
255.29961366154009
 20
429.35208542799847
 40
5
 50
270
 51
0
  0
LINE
  8
_0-2_2
  6
C5
 62
    7
 10
254.79961366155058
 20
429.60938485253689
 11
203.79961366155098
 21
429.60938485253689
  0
LINE
  8
_0-2_2
  6
CONTINUOUS
 62
    2
 10
198.29961366155419
 20
429.35208542799847
 11
198.29961366155419
 21
467.07112552366777
  0
LINE
  8
_0-2_2
  6
CONTINUOUS
 62
    2
 10
255.29961366154009
 20
424.35208542799847
 11
203.29961366155419
 21
424.35208542799847
  0
ARC
  8
_0-2_2
  6
CONTINUOUS
 62
    2
 10
203.29961366155419
 20
429.35208542799847
 40
5
 50
180
 51
270
  0
LINE
  8
_0-9_T
  6
CENTER2_17
 62
    5
 10
229.29961366155058
 20
528.89470075478584
 11
229.29961366155058
 21
328.52248629440157
  0
LINE
  8
_0-2_2
  6
H4
 62
    7
 10
301.33553379158951
 20
407.85938485253712
 11
301.33553379158951
 21
396.35938485253712
  0
LINE
  8
_0-2_2
  6
CONTINUOUS
 62
    2
 10
301.33553379158951
 20
407.85938485253712
 11
301.38663975137649
 21
407.85938485253712
  0
LINE
  8
_0-2_2
  6
CONTINUOUS
 62
    2
 10
115.32421801565476
 20
524.10938485253712
 11
115.32421801565567
 21
334.10938485253712
  0
LINE
  8
_0-2_2
  6
CONTINUOUS
 62
    2
 10
116.32421801565567
 20
334.10938485253712
 11
115.32421801565567
 21
334.10938485253712
  0
LINE
  8
_0-2_2
  6
CONTINUOUS
 62
    2
 10
121.32421801565567
 20
371.16234252614987
 11
121.32421801565567
 21
344.60938485253712
  0
LINE
  8
_0-2_2
  6
CONTINUOUS
 62
    2
 10
121.32421801565567
 20
344.60938485253712
 11
121.32421801565567
 21
338.34741828078847
  0
LINE
  8
_0-2_2
  6
CONTINUOUS
 62
    2
 10
116.32421801565522
 20
524.10938485253712
 11
115.32421801565567
 21
524.10938485253712
  0
LINE
  8
_0-2_2
  6
CONTINUOUS
 62
    2
 10
116.32421801565567
 20
334.10938485253712
 11
115.32421801565567
 21
334.10938485253712
  0
LINE
  8
_0-2_2
  6
CONTINUOUS
 62
    2
 10
116.32421801565567
 20
524.10938485253712
 11
119.76915305072441
 21
523.50194985906649
  0
LINE
  8
_0-2_2
  6
CONTINUOUS
 62
    2
 10
116.32421801565476
 20
524.10938485253712
 11
116.32421801565567
 21
334.10938485253712
  0
LINE
  8
_0-2_2
  6
CONTINUOUS
 62
    2
 10
116.32421801565567
 20
334.10938485253712
 11
118.0188107263233
 21
334.4081872687396
  0
ARC
  8
_0-2_2
  6
CONTINUOUS
 62
    2
 10
117.32421801565567
 20
338.34741828078847
 40
4
 50
280.00000000000392
 51
0
  0
ARC
  8
_0-2_2
  6
H7
 62
    7
 10
127.32421801565567
 20
429.60938485253712
 40
6
 50
180
 51
244.676744328827
  0
LINE
  8
_0-2_2
  6
H7
 62
    7
 10
121.32421801565522
 20
429.60938485253712
 11
121.32421801565522
 21
522.71897254235421
  0
LINE
  8
_0-2_2
  6
CONTINUOUS
 62
    2
 10
232.7996136615505
 20
300.11075987685751
 11
259.9957660842573
 21
300.11075987685751
  0
LINE
  8
_0-8_S
  6
CONTINUOUS
 62
    6
 10
145.02995427150051
 20
291.1107598768578
 11
189.49532198585428
 21
291.1107598768578
  0
LINE
  8
_0-8_S
  6
CONTINUOUS
 62
    6
 10
188.7996136615505
 20
291.1107598768578
 11
145.0752592387106
 21
291.1107598768578
  0
LINE
  8
_0-8_S
  6
CONTINUOUS
 62
    6
 10
193.74295501263609
 20
301.1107598768578
 11
145.0752592387106
 21
301.1107598768578
  0
LINE
  8
_0-8_S
  6
CONTINUOUS
 62
    6
 10
147.0752592387106
 20
277.11075987685768
 11
147.0752592387106
 21
316.42419775766058
  0
INSERT
  2
-000-SUG-AR01
  8
_0-8_S
 10
147.0752592387106
 20
301.1107598768578
 41
1
 42
1
 50
90
  0
TEXT
  8
_0-8_S
 62
    7
 10
145.27525923871042
 20
307.3384834719464
 40
6
 41
1
 50
90
  1
10
  0
TEXT
  8
_0-8_S
 62
    7
 10
652.33638824074546
 20
549.08189947346671
 40
6
 41
1
 50
0
  1
（t0.7～1.0）
  0
LINE
  8
_0-2_2
  6
CONTINUOUS
 62
    2
 10
255.03349910448088
 20
522.38878854745531
 11
203.56306270984069
 21
522.38878854745531
  0
ARC
  8
_0-2_2
  6
CONTINUOUS
 62
    2
 10
255.03349910448088
 20
518.38878854745542
 40
4
 50
2.687005294231982
 51
90
  0
ARC
  8
_0-2_2
  6
CONTINUOUS
 62
    2
 10
203.56306270984069
 20
518.38878854745542
 40
4
 50
90
 51
177.23121989127108
  0
LINE
  8
_0-2_2
  6
H4
 62
    7
 10
301.33553379158951
 20
407.85938485253712
 11
300.55859457201439
 21
409.20508305523379
  0
ARC
  8
_0-2_2
  6
CONTINUOUS
 62
    2
 10
210.79961366155041
 20
403.06868052814065
 40
6.3741438461508482
 50
89.999999999999233
 51
112.96363761488186
  0
ARC
  8
_0-2_2
  6
CONTINUOUS
 62
    2
 10
210.85986369270441
 20
402.92648951891147
 40
6.5285729540278101
 50
112.96363761487878
 51
135.65040555140467
  0
ARC
  8
_0-2_2
  6
CONTINUOUS
 62
    2
 10
210.95331598404954
 20
402.83513519037859
 40
6.6592593882868512
 50
135.65040555139714
 51
157.95625375996383
  0
ARC
  8
_0-2_2
  6
CONTINUOUS
 62
    2
 10
211.0991012178942
 20
402.77610461341453
 40
6.8165423925303266
 50
157.95625375996968
 51
180.00000000000196
  0
ARC
  8
_0-2_2
  6
CONTINUOUS
 62
    2
 10
211.0991012178948
 20
402.77610461341413
 40
6.8165423925309163
 50
179.99999999999852
 51
202.04374624002935
  0
ARC
  8
_0-2_2
  6
CONTINUOUS
 62
    2
 10
210.95331598404979
 20
402.71707403645047
 40
6.6592593882872988
 50
202.04374624003961
 51
224.34959444860351
  0
ARC
  8
_0-2_2
  6
CONTINUOUS
 62
    2
 10
210.85986369270583
 20
402.62571970791879
 40
6.5285729540298734
 50
224.34959444859609
 51
247.03636238512001
  0
ARC
  8
_0-2_2
  6
CONTINUOUS
 62
    2
 10
210.7996136615503
 20
402.48352869868762
 40
6.3741438461505009
 50
247.0363623851228
 51
270.00000000000193
  0
ARC
  8
_0-2_2
  6
CONTINUOUS
 62
    2
 10
210.79961366155084
 20
402.48352869868734
 40
6.3741438461502318
 50
269.99999999999693
 51
292.96363761487771
  0
ARC
  8
_0-2_2
  6
CONTINUOUS
 62
    2
 10
210.73936363039525
 20
402.62571970791873
 40
6.5285729540298139
 50
292.96363761488033
 51
315.65040555140433
  0
ARC
  8
_0-2_2
  6
CONTINUOUS
 62
    2
 10
210.64591133905165
 20
402.71707403645019
 40
6.6592593882868165
 50
315.65040555139569
 51
337.95625375996121
  0
ARC
  8
_0-2_2
  6
CONTINUOUS
 62
    2
 10
210.50012610520619
 20
402.77610461341419
 40
6.8165423925310122
 50
337.9562537599702
 51
0.000000000000741
  0
ARC
  8
_0-2_2
  6
CONTINUOUS
 62
    2
 10
210.50012610520722
 20
402.77610461341436
 40
6.8165423925299855
 50
359.99999999999949
 51
22.043746240031513
  0
ARC
  8
_0-2_2
  6
CONTINUOUS
 62
    2
 10
210.64591133905148
 20
402.83513519037876
 40
6.6592593882867392
 50
22.043746240033261
 51
44.349594448601586
  0
ARC
  8
_0-2_2
  6
CONTINUOUS
 62
    2
 10
210.73936363039553
 20
402.92648951890999
 40
6.5285729540296398
 50
44.349594448597813
 51
67.036362385121777
  0
LINE
  8
_0-2_2
  6
CONTINUOUS
 62
    2
 10
213.286465852775
 20
408.93769032114881
 11
210.7996136615505
 21
409.44282437429149
  0
ARC
  8
_0-2_2
  6
CONTINUOUS
 62
    2
 10
1199.3355337915896
 20
456.10938485253678
 40
900
 50
175.93900219987151
 51
185.40390060321945
  0
ARC
  8
_0-2_2
  6
CONTINUOUS
 62
    2
 10
305.58519146718788
 20
519.56271884701755
 40
4
 50
100.00000000000391
 51
175.93900219987151
  0
ARC
  8
_0-2_2
  6
CONTINUOUS
 62
    2
 10
-774.67578198434444
 20
456.10938485253047
 40
900
 50
354.6080770343026
 51
4.0609978001284617
  0
ARC
  8
_0-2_2
  6
CONTINUOUS
 62
    2
 10
119.07456034005679
 20
519.56271884701755
 40
4
 50
4.0609978001284874
 51
79.999999999996106
  0
ARC
  8
_0-2_2
  6
CONTINUOUS
 62
    2
 10
125.32421801565567
 20
371.16234252614987
 40
4
 50
174.6080770343026
 51
180
  0
LINE
  8
_0-8_S
  6
CONTINUOUS
 62
    6
 10
299.47483965016539
 20
471.94387692883231
 11
288.01293156322561
 21
476.60307888554308
  0
LINE
  8
_0-8_S
  6
CONTINUOUS
 62
    6
 10
288.01293156322561
 20
476.60307888554308
 11
271.90468638391968
 21
476.60307888554308
  0
INSERT
  2
-000-SUG-AR01
  8
_0-8_S
 10
299.47483965016539
 20
471.94387692883231
 41
1
 42
1
 50
157.8785310942589
  0
TEXT
  8
_0-8_S
 62
    7
 10
271.90468638391968
 20
478.4030788855431
 40
6
 41
1
 50
0
  1
R900
  0
INSERT
  2
-000-SUG-AR01
  8
_0-8_S
 10
214.87602631802687
 20
512.61056675024543
 41
1
 42
1
 50
81.777922626052543
  0
TEXT
  8
_0-8_S
 62
    7
 10
612.61382311033117
 20
41.034465767448069
 40
6
 41
1
 50
0
  1
（鋼製インドア用）
  0
INSERT
  2
-002-製品図-OPNUSマ__ク
  8
_0-4_4
 10
489.47525923871069
 20
26.627613170851987
 41
2
 42
2
 50
0
  0
INSERT
  2
-001-SUG-AR06
  8
_0-4_4
 10
4274.1831220793238
 20
2923.2713460078317
 41
1
 42
1
 50
0
  0
INSERT
  2
-001-SUG-AR06
  8
_0-4_4
 10
4274.1831220793238
 20
2923.2713460078317
 41
0.5
 42
0.5
 50
0
  0
INSERT
  2
-001-SUG-AR06
  8
_0-4_4
 10
4370.4108069588956
 20
2880.7741505453087
 41
0.5
 42
0.5
 50
0
  0
INSERT
  2
-001-SUG-AR06
  8
_0-4_4
 10
4466.2831220793241
 20
3056.8713460078316
 41
0.5
 42
0.5
 50
0
  0
INSERT
  2
-001-SUG-AR06
  8
_0-4_4
 10
5858.2947421014396
 20
2918.5293748230288
 41
1
 42
1
 50
0
  0
INSERT
  2
-001-SUG-AR06
  8
_0-4_4
 10
5858.2947421014396
 20
2918.5293748230288
 41
0.5
 42
0.5
 50
0
  0
INSERT
  2
-001-SUG-AR06
  8
_0-4_4
 10
5954.5224269810114
 20
2876.0321793605058
 41
0.5
 42
0.5
 50
0
  0
INSERT
  2
-001-SUG-AR06
  8
_0-4_4
 10
6050.39474210144
 20
3052.1293748230287
 41
0.5
 42
0.5
 50
0
  0
INSERT
  2
-001-SUG-AR06
  8
_0-4_4
 10
4240.4446180312407
 20
3505.2950057611329
 41
1
 42
1
 50
0
  0
INSERT
  2
-001-SUG-AR06
  8
_0-4_4
 10
4240.4446180312407
 20
3505.2950057611329
 41
0.5
 42
0.5
 50
0
  0
INSERT
  2
-001-SUG-AR06
  8
_0-4_4
 10
4336.6723029108116
 20
3462.7978102986099
 41
0.5
 42
0.5
 50
0
  0
INSERT
  2
-001-SUG-AR06
  8
_0-4_4
 10
4432.5446180312401
 20
3638.8950057611328
 41
0.5
 42
0.5
 50
0
  0
INSERT
  2
-001-SUG-AR06
  8
_0-4_4
 10
4240.0527219067708
 20
3504.1197254911849
 41
1
 42
1
 50
0
  0
INSERT
  2
-001-SUG-AR06
  8
_0-4_4
 10
4240.0527219067708
 20
3504.1197254911849
 41
0.5
 42
0.5
 50
0
  0
INSERT
  2
-001-SUG-AR06
  8
_0-4_4
 10
4336.2804067863417
 20
3461.622530028661
 41
0.5
 42
0.5
 50
0
  0
INSERT
  2
-001-SUG-AR06
  8
_0-4_4
 10
4432.1527219067711
 20
3637.7197254911848
 41
0.5
 42
0.5
 50
0
  0
INSERT
  2
-001-SUG-AR06
  8
_0-4_4
 10
5037.8008152100119
 20
3501.0722819862276
 41
1
 42
1
 50
0
  0
INSERT
  2
-001-SUG-AR06
  8
_0-4_4
 10
5037.8008152100119
 20
3501.0722819862276
 41
0.5
 42
0.5
 50
0
  0
INSERT
  2
-001-SUG-AR06
  8
_0-4_4
 10
5134.0285000895838
 20
3458.575086523706
 41
0.5
 42
0.5
 50
0
  0
INSERT
  2
-001-SUG-AR06
  8
_0-4_4
 10
5229.9008152100123
 20
3634.672281986228
 41
0.5
 42
0.5
 50
0
  0
INSERT
  2
-001-SUG-AR06
  8
_0-4_4
 10
5683.3783951420737
 20
2974.9710575294439
 41
1
 42
1
 50
0
  0
INSERT
  2
-001-SUG-AR06
  8
_0-4_4
 10
5683.3783951420737
 20
2974.9710575294439
 41
0.5
 42
0.5
 50
0
  0
INSERT
  2
-001-SUG-AR06
  8
_0-4_4
 10
5779.6060800216455
 20
2932.4738620669218
 41
0.5
 42
0.5
 50
0
  0
INSERT
  2
-001-SUG-AR06
  8
_0-4_4
 10
5875.4783951420741
 20
3108.5710575294438
 41
0.5
 42
0.5
 50
0
  0
INSERT
  2
-001-SUG-AR06
  8
_0-4_4
 10
7267.4900151641896
 20
2970.2290863446419
 41
1
 42
1
 50
0
  0
INSERT
  2
-001-SUG-AR06
  8
_0-4_4
 10
7267.4900151641896
 20
2970.2290863446419
 41
0.5
 42
0.5
 50
0
  0
INSERT
  2
-001-SUG-AR06
  8
_0-4_4
 10
7363.7177000437614
 20
2927.7318908821189
 41
0.5
 42
0.5
 50
0
  0
INSERT
  2
-001-SUG-AR06
  8
_0-4_4
 10
7459.5900151641908
 20
3103.8290863446409
 41
0.5
 42
0.5
 50
0
  0
INSERT
  2
-001-SUG-AR06
  8
_0-4_4
 10
5653.327400477945
 20
3556.8222055969459
 41
1
 42
1
 50
0
  0
INSERT
  2
-001-SUG-AR06
  8
_0-4_4
 10
5653.327400477945
 20
3556.8222055969459
 41
0.5
 42
0.5
 50
0
  0
INSERT
  2
-001-SUG-AR06
  8
_0-4_4
 10
5749.5550853575169
 20
3514.3250101344238
 41
0.5
 42
0.5
 50
0
  0
INSERT
  2
-001-SUG-AR06
  8
_0-4_4
 10
5845.4274004779445
 20
3690.4222055969458
 41
0.5
 42
0.5
 50
0
  0
INSERT
  2
-001-SUG-AR06
  8
_0-4_4
 10
7072.91980180667
 20
3439.2224646615477
 41
1
 42
1
 50
0
  0
INSERT
  2
-001-SUG-AR06
  8
_0-4_4
 10
7072.91980180667
 20
3439.2224646615477
 41
0.5
 42
0.5
 50
0
  0
INSERT
  2
-001-SUG-AR06
  8
_0-4_4
 10
7169.1474866862427
 20
3396.7252691990257
 41
0.5
 42
0.5
 50
0
  0
INSERT
  2
-001-SUG-AR06
  8
_0-4_4
 10
7265.0198018066685
 20
3572.8224646615477
 41
0.5
 42
0.5
 50
0
  0
INSERT
  2
-001-SUG-AR06
  8
_0-4_4
 10
8657.031421828784
 20
3434.4804934767458
 41
1
 42
1
 50
0
  0
INSERT
  2
-001-SUG-AR06
  8
_0-4_4
 10
8657.031421828784
 20
3434.4804934767458
 41
0.5
 42
0.5
 50
0
  0
INSERT
  2
-001-SUG-AR06
  8
_0-4_4
 10
8753.2591067083558
 20
3391.9832980142228
 41
0.5
 42
0.5
 50
0
  0
INSERT
  2
-001-SUG-AR06
  8
_0-4_4
 10
8849.1314218287862
 20
3568.0804934767457
 41
0.5
 42
0.5
 50
0
  0
INSERT
  2
-001-SUG-AR06
  8
_0-4_4
 10
7841.3575272642811
 20
4030.858383208089
 41
1
 42
1
 50
0
  0
INSERT
  2
-001-SUG-AR06
  8
_0-4_4
 10
7841.3575272642811
 20
4030.858383208089
 41
0.5
 42
0.5
 50
0
  0
INSERT
  2
-001-SUG-AR06
  8
_0-4_4
 10
7937.5852121438538
 20
3988.361187745566
 41
0.5
 42
0.5
 50
0
  0
INSERT
  2
-001-SUG-AR06
  8
_0-4_4
 10
8033.4575272642815
 20
4164.458383208088
 41
0.5
 42
0.5
 50
0
  0
INSERT
  2
-001-SUG-AR06
  8
_0-4_4
 10
2031.8883668147514
 20
1943.4914267904601
 41
1
 42
1
 50
0
  0
INSERT
  2
-001-SUG-AR06
  8
_0-4_4
 10
2031.8883668147514
 20
1943.4914267904601
 41
0.5
 42
0.5
 50
0
  0
INSERT
  2
-001-SUG-AR06
  8
_0-4_4
 10
2128.1160516943237
 20
1900.9942313279371
 41
0.5
 42
0.5
 50
0
  0
INSERT
  2
-001-SUG-AR06
  8
_0-4_4
 10
2223.9883668147513
 20
2077.0914267904609
 41
0.5
 42
0.5
 50
0
  0
INSERT
  2
-001-SUG-AR06
  8
_0-4_4
 10
3615.9999868368677
 20
1938.7494556056581
 41
1
 42
1
 50
0
  0
INSERT
  2
-001-SUG-AR06
  8
_0-4_4
 10
3615.9999868368677
 20
1938.7494556056581
 41
0.5
 42
0.5
 50
0
  0
INSERT
  2
-001-SUG-AR06
  8
_0-4_4
 10
3712.2276717164395
 20
1896.2522601431351
 41
0.5
 42
0.5
 50
0
  0
INSERT
  2
-001-SUG-AR06
  8
_0-4_4
 10
3808.0999868368681
 20
2072.349455605658
 41
0.5
 42
0.5
 50
0
  0
INSERT
  2
-001-SUG-AR06
  8
_0-4_4
 10
1998.1498627666674
 20
2525.5150865437618
 41
1
 42
1
 50
0
  0
INSERT
  2
-001-SUG-AR06
  8
_0-4_4
 10
1998.1498627666674
 20
2525.5150865437618
 41
0.5
 42
0.5
 50
0
  0
INSERT
  2
-001-SUG-AR06
  8
_0-4_4
 10
2094.3775476462397
 20
2483.0178910812378
 41
0.5
 42
0.5
 50
0
  0
INSERT
  2
-001-SUG-AR06
  8
_0-4_4
 10
2190.2498627666673
 20
2659.1150865437608
 41
0.5
 42
0.5
 50
0
  0
INSERT
  2
-001-SUG-AR06
  8
_0-4_4
 10
1997.7579666421984
 20
2524.3398062738129
 41
1
 42
1
 50
0
  0
INSERT
  2
-001-SUG-AR06
  8
_0-4_4
 10
1997.7579666421984
 20
2524.3398062738129
 41
0.5
 42
0.5
 50
0
  0
INSERT
  2
-001-SUG-AR06
  8
_0-4_4
 10
2093.9856515217707
 20
2481.8426108112899
 41
0.5
 42
0.5
 50
0
  0
INSERT
  2
-001-SUG-AR06
  8
_0-4_4
 10
2189.8579666421992
 20
2657.9398062738128
 41
0.5
 42
0.5
 50
0
  0
INSERT
  2
-001-SUG-AR06
  8
_0-4_4
 10
2795.5060599454391
 20
2521.2923627688569
 41
1
 42
1
 50
0
  0
INSERT
  2
-001-SUG-AR06
  8
_0-4_4
 10
2795.5060599454391
 20
2521.2923627688569
 41
0.5
 42
0.5
 50
0
  0
INSERT
  2
-001-SUG-AR06
  8
_0-4_4
 10
2891.7337448250119
 20
2478.795167306334
 41
0.5
 42
0.5
 50
0
  0
INSERT
  2
-001-SUG-AR06
  8
_0-4_4
 10
2987.6060599454404
 20
2654.8923627688559
 41
0.5
 42
0.5
 50
0
  0
INSERT
  2
-001-SUG-AR06
  8
_0-4_4
 10
3441.0836398775018
 20
1995.1911383120728
 41
1
 42
1
 50
0
  0
INSERT
  2
-001-SUG-AR06
  8
_0-4_4
 10
3441.0836398775018
 20
1995.1911383120728
 41
0.5
 42
0.5
 50
0
  0
INSERT
  2
-001-SUG-AR06
  8
_0-4_4
 10
3537.3113247570736
 20
1952.6939428495498
 41
0.5
 42
0.5
 50
0
  0
INSERT
  2
-001-SUG-AR06
  8
_0-4_4
 10
3633.1836398775013
 20
2128.7911383120727
 41
0.5
 42
0.5
 50
0
  0
INSERT
  2
-001-SUG-AR06
  8
_0-4_4
 10
5025.1952598996177
 20
1990.4491671272699
 41
1
 42
1
 50
0
  0
INSERT
  2
-001-SUG-AR06
  8
_0-4_4
 10
5025.1952598996177
 20
1990.4491671272699
 41
0.5
 42
0.5
 50
0
  0
INSERT
  2
-001-SUG-AR06
  8
_0-4_4
 10
5121.4229447791895
 20
1947.9519716647469
 41
0.5
 42
0.5
 50
0
  0
INSERT
  2
-001-SUG-AR06
  8
_0-4_4
 10
5217.295259899618
 20
2124.0491671272698
 41
0.5
 42
0.5
 50
0
  0
INSERT
  2
-001-SUG-AR06
  8
_0-4_4
 10
3411.0326452133722
 20
2577.0422863795748
 41
1
 42
1
 50
0
  0
INSERT
  2
-001-SUG-AR06
  8
_0-4_4
 10
3411.0326452133722
 20
2577.0422863795748
 41
0.5
 42
0.5
 50
0
  0
INSERT
  2
-001-SUG-AR06
  8
_0-4_4
 10
3507.2603300929441
 20
2534.5450909170518
 41
0.5
 42
0.5
 50
0
  0
INSERT
  2
-001-SUG-AR06
  8
_0-4_4
 10
3603.1326452133735
 20
2710.6422863795747
 41
0.5
 42
0.5
 50
0
  0
INSERT
  2
-001-SUG-AR06
  8
_0-4_4
 10
4830.6250465420981
 20
2459.4425454441766
 41
1
 42
1
 50
0
  0
INSERT
  2
-001-SUG-AR06
  8
_0-4_4
 10
4830.6250465420981
 20
2459.4425454441766
 41
0.5
 42
0.5
 50
0
  0
INSERT
  2
-001-SUG-AR06
  8
_0-4_4
 10
4926.8527314216708
 20
2416.945349981655
 41
0.5
 42
0.5
 50
0
  0
INSERT
  2
-001-SUG-AR06
  8
_0-4_4
 10
5022.7250465420975
 20
2593.0425454441779
 41
0.5
 42
0.5
 50
0
  0
INSERT
  2
-001-SUG-AR06
  8
_0-4_4
 10
6414.7366665642148
 20
2454.7005742593747
 41
1
 42
1
 50
0
  0
INSERT
  2
-001-SUG-AR06
  8
_0-4_4
 10
6414.7366665642148
 20
2454.7005742593747
 41
0.5
 42
0.5
 50
0
  0
INSERT
  2
-001-SUG-AR06
  8
_0-4_4
 10
6510.9643514437848
 20
2412.2033787968517
 41
0.5
 42
0.5
 50
0
  0
INSERT
  2
-001-SUG-AR06
  8
_0-4_4
 10
6606.8366665642143
 20
2588.3005742593746
 41
0.5
 42
0.5
 50
0
  0
INSERT
  2
-001-SUG-AR06
  8
_0-4_4
 10
5599.0627719997083
 20
3051.0784639907179
 41
1
 42
1
 50
0
  0
INSERT
  2
-001-SUG-AR06
  8
_0-4_4
 10
5599.0627719997083
 20
3051.0784639907179
 41
0.5
 42
0.5
 50
0
  0
INSERT
  2
-001-SUG-AR06
  8
_0-4_4
 10
5695.290456879281
 20
3008.5812685281949
 41
0.5
 42
0.5
 50
0
  0
INSERT
  2
-001-SUG-AR06
  8
_0-4_4
 10
5791.1627719997095
 20
3184.6784639907178
 41
0.5
 42
0.5
 50
0
  0
INSERT
  2
-001-SUG-AR06
  8
_0-4_4
 10
1149.0062404001694
 20
1943.4914267904601
 41
1
 42
1
 50
0
  0
INSERT
  2
-001-SUG-AR06
  8
_0-4_4
 10
1149.0062404001694
 20
1943.4914267904601
 41
0.5
 42
0.5
 50
0
  0
INSERT
  2
-001-SUG-AR06
  8
_0-4_4
 10
1245.2339252797415
 20
1900.9942313279371
 41
0.5
 42
0.5
 50
0
  0
INSERT
  2
-001-SUG-AR06
  8
_0-4_4
 10
1341.1062404001696
 20
2077.0914267904609
 41
0.5
 42
0.5
 50
0
  0
INSERT
  2
-001-SUG-AR06
  8
_0-4_4
 10
2733.117860422285
 20
1938.7494556056581
 41
1
 42
1
 50
0
  0
INSERT
  2
-001-SUG-AR06
  8
_0-4_4
 10
2733.117860422285
 20
1938.7494556056581
 41
0.5
 42
0.5
 50
0
  0
INSERT
  2
-001-SUG-AR06
  8
_0-4_4
 10
2829.3455453018578
 20
1896.2522601431351
 41
0.5
 42
0.5
 50
0
  0
INSERT
  2
-001-SUG-AR06
  8
_0-4_4
 10
2925.2178604222863
 20
2072.349455605658
 41
0.5
 42
0.5
 50
0
  0
INSERT
  2
-001-SUG-AR06
  8
_0-4_4
 10
1115.2677363520866
 20
2525.5150865437618
 41
1
 42
1
 50
0
  0
INSERT
  2
-001-SUG-AR06
  8
_0-4_4
 10
1115.2677363520866
 20
2525.5150865437618
 41
0.5
 42
0.5
 50
0
  0
INSERT
  2
-001-SUG-AR06
  8
_0-4_4
 10
1211.4954212316575
 20
2483.0178910812378
 41
0.5
 42
0.5
 50
0
  0
INSERT
  2
-001-SUG-AR06
  8
_0-4_4
 10
1307.3677363520865
 20
2659.1150865437608
 41
0.5
 42
0.5
 50
0
  0
INSERT
  2
-001-SUG-AR06
  8
_0-4_4
 10
1114.8758402276164
 20
2524.3398062738129
 41
1
 42
1
 50
0
  0
INSERT
  2
-001-SUG-AR06
  8
_0-4_4
 10
1114.8758402276164
 20
2524.3398062738129
 41
0.5
 42
0.5
 50
0
  0
INSERT
  2
-001-SUG-AR06
  8
_0-4_4
 10
1211.1035251071885
 20
2481.8426108112899
 41
0.5
 42
0.5
 50
0
  0
INSERT
  2
-001-SUG-AR06
  8
_0-4_4
 10
1306.9758402276175
 20
2657.9398062738128
 41
0.5
 42
0.5
 50
0
  0
INSERT
  2
-001-SUG-AR06
  8
_0-4_4
 10
1912.6239335308585
 20
2521.2923627688569
 41
1
 42
1
 50
0
  0
INSERT
  2
-001-SUG-AR06
  8
_0-4_4
 10
1912.6239335308585
 20
2521.2923627688569
 41
0.5
 42
0.5
 50
0
  0
INSERT
  2
-001-SUG-AR06
  8
_0-4_4
 10
2008.8516184104294
 20
2478.795167306334
 41
0.5
 42
0.5
 50
0
  0
INSERT
  2
-001-SUG-AR06
  8
_0-4_4
 10
2104.7239335308586
 20
2654.8923627688559
 41
0.5
 42
0.5
 50
0
  0
INSERT
  2
-001-SUG-AR06
  8
_0-4_4
 10
2558.20151346292
 20
1995.1911383120728
 41
1
 42
1
 50
0
  0
INSERT
  2
-001-SUG-AR06
  8
_0-4_4
 10
2558.20151346292
 20
1995.1911383120728
 41
0.5
 42
0.5
 50
0
  0
INSERT
  2
-001-SUG-AR06
  8
_0-4_4
 10
2654.4291983424919
 20
1952.6939428495498
 41
0.5
 42
0.5
 50
0
  0
INSERT
  2
-001-SUG-AR06
  8
_0-4_4
 10
2750.3015134629204
 20
2128.7911383120727
 41
0.5
 42
0.5
 50
0
  0
INSERT
  2
-001-SUG-AR06
  8
_0-4_4
 10
4142.3131334850359
 20
1990.4491671272699
 41
1
 42
1
 50
0
  0
INSERT
  2
-001-SUG-AR06
  8
_0-4_4
 10
4142.3131334850359
 20
1990.4491671272699
 41
0.5
 42
0.5
 50
0
  0
INSERT
  2
-001-SUG-AR06
  8
_0-4_4
 10
4238.5408183646068
 20
1947.9519716647469
 41
0.5
 42
0.5
 50
0
  0
INSERT
  2
-001-SUG-AR06
  8
_0-4_4
 10
4334.4131334850354
 20
2124.0491671272698
 41
0.5
 42
0.5
 50
0
  0
INSERT
  2
-001-SUG-AR06
  8
_0-4_4
 10
2528.1505187987914
 20
2577.0422863795748
 41
1
 42
1
 50
0
  0
INSERT
  2
-001-SUG-AR06
  8
_0-4_4
 10
2528.1505187987914
 20
2577.0422863795748
 41
0.5
 42
0.5
 50
0
  0
INSERT
  2
-001-SUG-AR06
  8
_0-4_4
 10
2624.3782036783632
 20
2534.5450909170518
 41
0.5
 42
0.5
 50
0
  0
INSERT
  2
-001-SUG-AR06
  8
_0-4_4
 10
2720.2505187987917
 20
2710.6422863795747
 41
0.5
 42
0.5
 50
0
  0
INSERT
  2
-001-SUG-AR06
  8
_0-4_4
 10
3947.7429201275163
 20
2459.4425454441766
 41
1
 42
1
 50
0
  0
INSERT
  2
-001-SUG-AR06
  8
_0-4_4
 10
3947.7429201275163
 20
2459.4425454441766
 41
0.5
 42
0.5
 50
0
  0
INSERT
  2
-001-SUG-AR06
  8
_0-4_4
 10
4043.9706050070872
 20
2416.945349981655
 41
0.5
 42
0.5
 50
0
  0
INSERT
  2
-001-SUG-AR06
  8
_0-4_4
 10
4139.8429201275158
 20
2593.0425454441779
 41
0.5
 42
0.5
 50
0
  0
INSERT
  2
-001-SUG-AR06
  8
_0-4_4
 10
5531.8545401496322
 20
2454.7005742593747
 41
1
 42
1
 50
0
  0
INSERT
  2
-001-SUG-AR06
  8
_0-4_4
 10
5531.8545401496322
 20
2454.7005742593747
 41
0.5
 42
0.5
 50
0
  0
INSERT
  2
-001-SUG-AR06
  8
_0-4_4
 10
5628.082225029204
 20
2412.2033787968517
 41
0.5
 42
0.5
 50
0
  0
INSERT
  2
-001-SUG-AR06
  8
_0-4_4
 10
5723.9545401496325
 20
2588.3005742593746
 41
0.5
 42
0.5
 50
0
  0
INSERT
  2
-001-SUG-AR06
  8
_0-4_4
 10
4716.1806455851274
 20
3051.0784639907179
 41
1
 42
1
 50
0
  0
INSERT
  2
-001-SUG-AR06
  8
_0-4_4
 10
4716.1806455851274
 20
3051.0784639907179
 41
0.5
 42
0.5
 50
0
  0
INSERT
  2
-001-SUG-AR06
  8
_0-4_4
 10
4812.4083304646983
 20
3008.5812685281949
 41
0.5
 42
0.5
 50
0
  0
INSERT
  2
-001-SUG-AR06
  8
_0-4_4
 10
4908.2806455851278
 20
3184.6784639907178
 41
0.5
 42
0.5
 50
0
  0
INSERT
  2
-001-SUG-AR06
  8
_0-4_4
 10
1149.0062404001694
 20
-73.524090179073369
 41
1
 42
1
 50
0
  0
INSERT
  2
-001-SUG-AR06
  8
_0-4_4
 10
1149.0062404001694
 20
-73.524090179073369
 41
0.5
 42
0.5
 50
0
  0
INSERT
  2
-001-SUG-AR06
  8
_0-4_4
 10
1245.2339252797415
 20
-116.02128564159602
 41
0.5
 42
0.5
 50
0
  0
INSERT
  2
-001-SUG-AR06
  8
_0-4_4
 10
1341.1062404001696
 20
60.075909820926654
 41
0.5
 42
0.5
 50
0
  0
INSERT
  2
-001-SUG-AR06
  8
_0-4_4
 10
2733.117860422285
 20
-78.26606136387602
 41
1
 42
1
 50
0
  0
INSERT
  2
-001-SUG-AR06
  8
_0-4_4
 10
2733.117860422285
 20
-78.26606136387602
 41
0.5
 42
0.5
 50
0
  0
INSERT
  2
-001-SUG-AR06
  8
_0-4_4
 10
2829.3455453018578
 20
-120.76325682639862
 41
0.5
 42
0.5
 50
0
  0
INSERT
  2
-001-SUG-AR06
  8
_0-4_4
 10
2925.2178604222863
 20
55.333938636124003
 41
0.5
 42
0.5
 50
0
  0
INSERT
  2
-001-SUG-AR06
  8
_0-4_4
 10
2835.9525206644203
 20
-72.99710102463257
 41
1
 42
1
 50
0
  0
INSERT
  2
-001-SUG-AR06
  8
_0-4_4
 10
2835.9525206644203
 20
-72.99710102463257
 41
0.5
 42
0.5
 50
0
  0
INSERT
  2
-001-SUG-AR06
  8
_0-4_4
 10
2932.1802055439912
 20
-115.49429648715522
 41
0.5
 42
0.5
 50
0
  0
INSERT
  2
-001-SUG-AR06
  8
_0-4_4
 10
3028.0525206644197
 20
60.602898975367452
 41
0.5
 42
0.5
 50
0
  0
INSERT
  2
-001-SUG-AR06
  8
_0-4_4
 10
4420.064140686537
 20
-77.739072209435221
 41
1
 42
1
 50
0
  0
INSERT
  2
-001-SUG-AR06
  8
_0-4_4
 10
4420.064140686537
 20
-77.739072209435221
 41
0.5
 42
0.5
 50
0
  0
INSERT
  2
-001-SUG-AR06
  8
_0-4_4
 10
4516.2918255661079
 20
-120.23626767195776
 41
0.5
 42
0.5
 50
0
  0
INSERT
  2
-001-SUG-AR06
  8
_0-4_4
 10
4612.1641406865365
 20
55.860927790564801
 41
0.5
 42
0.5
 50
0
  0
INSERT
  2
-001-SUG-AR06
  8
_0-4_4
 10
3721.9810514512355
 20
-76.907612846099198
 41
1
 42
1
 50
0
  0
INSERT
  2
-001-SUG-AR06
  8
_0-4_4
 10
3721.9810514512355
 20
-76.907612846099198
 41
0.5
 42
0.5
 50
0
  0
INSERT
  2
-001-SUG-AR06
  8
_0-4_4
 10
3818.2087363308074
 20
-119.40480830862191
 41
0.5
 42
0.5
 50
0
  0
INSERT
  2
-001-SUG-AR06
  8
_0-4_4
 10
3914.0810514512359
 20
56.692387153900768
 41
0.5
 42
0.5
 50
0
  0
INSERT
  2
-001-SUG-AR06
  8
_0-4_4
 10
5306.0926714733514
 20
-81.649584030901906
 41
1
 42
1
 50
0
  0
INSERT
  2
-001-SUG-AR06
  8
_0-4_4
 10
5306.0926714733514
 20
-81.649584030901906
 41
0.5
 42
0.5
 50
0
  0
INSERT
  2
-001-SUG-AR06
  8
_0-4_4
 10
5402.3203563529223
 20
-124.1467794934245
 41
0.5
 42
0.5
 50
0
  0
INSERT
  2
-001-SUG-AR06
  8
_0-4_4
 10
5498.1926714733518
 20
51.950415969098117
 41
0.5
 42
0.5
 50
0
  0
INSERT
  2
-001-SUG-AR06
  8
_0-4_4
 10
-1895.8602016278865
 20
3294.3929419609899
 41
1
 42
1
 50
0
  0
INSERT
  2
-001-SUG-AR06
  8
_0-4_4
 10
-1895.8602016278865
 20
3294.3929419609899
 41
0.5
 42
0.5
 50
0
  0
INSERT
  2
-001-SUG-AR06
  8
_0-4_4
 10
-1799.6325167483146
 20
3251.8957464984669
 41
0.5
 42
0.5
 50
0
  0
INSERT
  2
-001-SUG-AR06
  8
_0-4_4
 10
-1703.7602016278865
 20
3427.9929419609889
 41
0.5
 42
0.5
 50
0
  0
INSERT
  2
-001-SUG-AR06
  8
_0-4_4
 10
-311.7485816057706
 20
3289.6509707761866
 41
1
 42
1
 50
0
  0
INSERT
  2
-001-SUG-AR06
  8
_0-4_4
 10
-311.7485816057706
 20
3289.6509707761866
 41
0.5
 42
0.5
 50
0
  0
INSERT
  2
-001-SUG-AR06
  8
_0-4_4
 10
-215.520896726199
 20
3247.1537753136649
 41
0.5
 42
0.5
 50
0
  0
INSERT
  2
-001-SUG-AR06
  8
_0-4_4
 10
-119.64858160577046
 20
3423.2509707761869
 41
0.5
 42
0.5
 50
0
  0
INSERT
  2
-001-SUG-AR06
  8
_0-4_4
 10
-1074.6207354612525
 20
3851.9983875415346
 41
1
 42
1
 50
0
  0
INSERT
  2
-001-SUG-AR06
  8
_0-4_4
 10
-1074.6207354612525
 20
3851.9983875415346
 41
0.5
 42
0.5
 50
0
  0
INSERT
  2
-001-SUG-AR06
  8
_0-4_4
 10
-978.39305058168065
 20
3809.5011920790116
 41
0.5
 42
0.5
 50
0
  0
INSERT
  2
-001-SUG-AR06
  8
_0-4_4
 10
-882.52073546125257
 20
3985.598387541535
 41
0.5
 42
0.5
 50
0
  0
INSERT
  2
-001-SUG-AR06
  8
_0-4_4
 10
509.49088456086361
 20
3847.2564163567317
 41
1
 42
1
 50
0
  0
INSERT
  2
-001-SUG-AR06
  8
_0-4_4
 10
509.49088456086361
 20
3847.2564163567317
 41
0.5
 42
0.5
 50
0
  0
INSERT
  2
-001-SUG-AR06
  8
_0-4_4
 10
605.71856944043543
 20
3804.7592208942087
 41
0.5
 42
0.5
 50
0
  0
INSERT
  2
-001-SUG-AR06
  8
_0-4_4
 10
701.59088456086386
 20
3980.8564163567316
 41
0.5
 42
0.5
 50
0
  0
INSERT
  2
-001-SUG-AR06
  8
_0-4_4
 10
-783.66184858871338
 20
3300.3273606860089
 41
1
 42
1
 50
0
  0
INSERT
  2
-001-SUG-AR06
  8
_0-4_4
 10
-783.66184858871338
 20
3300.3273606860089
 41
0.5
 42
0.5
 50
0
  0
INSERT
  2
-001-SUG-AR06
  8
_0-4_4
 10
-687.43416370914156
 20
3257.8301652234868
 41
0.5
 42
0.5
 50
0
  0
INSERT
  2
-001-SUG-AR06
  8
_0-4_4
 10
-591.56184858871325
 20
3433.9273606860088
 41
0.5
 42
0.5
 50
0
  0
INSERT
  2
-001-SUG-AR06
  8
_0-4_4
 10
800.4497714334027
 20
3295.585389501206
 41
1
 42
1
 50
0
  0
INSERT
  2
-001-SUG-AR06
  8
_0-4_4
 10
800.4497714334027
 20
3295.585389501206
 41
0.5
 42
0.5
 50
0
  0
INSERT
  2
-001-SUG-AR06
  8
_0-4_4
 10
896.67745631297396
 20
3253.0881940386839
 41
0.5
 42
0.5
 50
0
  0
INSERT
  2
-001-SUG-AR06
  8
_0-4_4
 10
992.54977143340261
 20
3429.1853895012059
 41
0.5
 42
0.5
 50
0
  0
INSERT
  2
-001-SUG-AR06
  8
_0-4_4
 10
950.35625145782865
 20
2071.9982582693428
 41
1
 42
1
 50
0
  0
INSERT
  2
-001-SUG-AR06
  8
_0-4_4
 10
950.35625145782865
 20
2071.9982582693428
 41
0.5
 42
0.5
 50
0
  0
INSERT
  2
-001-SUG-AR06
  8
_0-4_4
 10
1046.5839363374005
 20
2029.5010628068208
 41
0.5
 42
0.5
 50
0
  0
INSERT
  2
-001-SUG-AR06
  8
_0-4_4
 10
1142.4562514578286
 20
2205.5982582693428
 41
0.5
 42
0.5
 50
0
  0
CIRCLE
  8
_0-4_4
  6
CONTINUOUS
 62
    4
 10
461.09552714529491
 20
347.60938485253712
 40
0.5
  0
LINE
  8
_0-4_4
  6
CONTINUOUS
 62
    4
 10
343.63553379158986
 20
348.10938485253712
 11
343.33553379158991
 21
348.10938485253712
  0
LINE
  8
_0-4_4
  6
CONTINUOUS
 62
    4
 10
343.63553379158986
 20
347.10938485253712
 11
343.33553379158991
 21
347.10938485253712
  0
LINE
  8
_0-4_4
  6
CONTINUOUS
 62
    4
 10
343.63553379158986
 20
348.10938485253712
 11
343.63553379158986
 21
347.10938485253712
  0
LINE
  8
_0-4_4
  6
CONTINUOUS
 62
    4
 10
81.024218015654753
 20
348.10938485253718
 11
81.024218015654753
 21
347.10938485253718
  0
LINE
  8
_0-4_4
  6
CONTINUOUS
 62
    4
 10
81.024218015654753
 20
347.10938485253718
 11
81.324218015654765
 21
347.10938485253718
  0
LINE
  8
_0-4_4
  6
CONTINUOUS
 62
    4
 10
81.024218015654753
 20
348.10938485253718
 11
81.324218015654765
 21
348.10938485253718
  0
ARC
  8
_0-2_2
  6
CONTINUOUS
 62
    2
 10
471.09552714529457
 20
516.60938485253712
 40
2
 50
195.52248781407101
 51
224.47751218593126
  0
LINE
  8
_0-2_2
  6
CONTINUOUS
 62
    2
 10
471.5955271452948
 20
518.54587652564078
 11
471.59552714529457
 21
516.898059987132
  0
LINE
  8
_0-2_2
  6
CONTINUOUS
 62
    2
 10
470.59552714529468
 20
518.54587652564078
 11
470.59552714529468
 21
516.89805998713177
  0
LINE
  8
_0-2_2
  6
CONTINUOUS
 62
    2
 10
470.59552714529468
 20
516.89805998713177
 11
469.16847616216978
 21
516.07415171787738
  0
LINE
  8
_0-2_2
  6
CONTINUOUS
 62
    2
 10
471.09552714529491
 20
516.03203458334747
 11
469.66847616217001
 21
515.20812631409308
  0
LINE
  8
_0-2_2
  6
CONTINUOUS
 62
    2
 10
471.59552714529457
 20
516.89805998713223
 11
473.02257812841947
 21
516.0741517178775
  0
LINE
  8
_0-2_2
  6
CONTINUOUS
 62
    2
 10
471.09552714529491
 20
516.03203458334747
 11
472.52257812841947
 21
515.20812631409308
  0
ARC
  8
_0-2_2
  6
CONTINUOUS
 62
    2
 10
471.09552714529468
 20
516.60938485253712
 40
2
 50
315.52248781406882
 51
344.47751218592902
  0
ARC
  8
_0-2_2
  6
CONTINUOUS
 62
    2
 10
471.09552714529468
 20
516.60938485253712
 40
2
 50
75.522487814071724
 51
104.4775121859298
  0
ARC
  8
_0-2_2
  6
CONTINUOUS
 62
    2
 10
411.0955271452948
 20
516.60938485253712
 40
2
 50
75.522487814071724
 51
104.4775121859298
  0
LINE
  8
_0-2_2
  6
CONTINUOUS
 62
    2
 10
411.09552714529497
 20
516.03203458334747
 11
412.52257812841958
 21
515.20812631409308
  0
LINE
  8
_0-2_2
  6
CONTINUOUS
 62
    2
 10
411.59552714529468
 20
516.89805998713223
 11
413.02257812841958
 21
516.0741517178775
  0
LINE
  8
_0-2_2
  6
CONTINUOUS
 62
    2
 10
411.09552714529497
 20
516.03203458334747
 11
409.66847616217001
 21
515.20812631409308
  0
LINE
  8
_0-2_2
  6
CONTINUOUS
 62
    2
 10
410.5955271452948
 20
516.89805998713177
 11
409.1684761621699
 21
516.07415171787738
  0
LINE
  8
_0-2_2
  6
CONTINUOUS
 62
    2
 10
410.5955271452948
 20
518.54587652564078
 11
410.5955271452948
 21
516.89805998713177
  0
LINE
  8
_0-2_2
  6
CONTINUOUS
 62
    2
 10
411.5955271452948
 20
518.54587652564078
 11
411.59552714529457
 21
516.898059987132
  0
ARC
  8
_0-2_2
  6
CONTINUOUS
 62
    2
 10
411.09552714529468
 20
516.60938485253712
 40
2
 50
195.52248781407101
 51
224.47751218593126
  0
ARC
  8
_0-2_2
  6
CONTINUOUS
 62
    2
 10
411.0955271452948
 20
516.60938485253712
 40
2
 50
315.52248781406882
 51
344.47751218592902
  0
ARC
  8
_0-2_2
  6
CONTINUOUS
 62
    2
 10
471.09552714529468
 20
438.609384852537
 40
2
 50
75.522487814071724
 51
104.4775121859298
  0
ARC
  8
_0-2_2
  6
CONTINUOUS
 62
    2
 10
471.09552714529468
 20
438.609384852537
 40
2
 50
315.52248781406882
 51
344.47751218592902
  0
LINE
  8
_0-2_2
  6
CONTINUOUS
 62
    2
 10
471.09552714529491
 20
438.03203458334752
 11
472.52257812841947
 21
437.20812631409308
  0
LINE
  8
_0-2_2
  6
CONTINUOUS
 62
    2
 10
471.59552714529457
 20
438.89805998713217
 11
473.02257812841947
 21
438.0741517178775
  0
LINE
  8
_0-2_2
  6
CONTINUOUS
 62
    2
 10
471.09552714529491
 20
438.03203458334741
 11
469.66847616217001
 21
437.20812631409302
  0
LINE
  8
_0-2_2
  6
CONTINUOUS
 62
    2
 10
470.59552714529468
 20
438.89805998713177
 11
469.16847616216978
 21
438.07415171787738
  0
LINE
  8
_0-2_2
  6
CONTINUOUS
 62
    2
 10
470.59552714529468
 20
440.54587652564078
 11
470.59552714529468
 21
438.89805998713172
  0
LINE
  8
_0-2_2
  6
CONTINUOUS
 62
    2
 10
471.5955271452948
 20
440.54587652564078
 11
471.59552714529457
 21
438.89805998713211
  0
ARC
  8
_0-2_2
  6
CONTINUOUS
 62
    2
 10
471.09552714529457
 20
438.609384852537
 40
2
 50
195.52248781407101
 51
224.47751218593126
  0
ARC
  8
_0-2_2
  6
CONTINUOUS
 62
    2
 10
471.09552714529468
 20
350.10938485253712
 40
2
 50
75.522487814071724
 51
104.4775121859298
  0
ARC
  8
_0-2_2
  6
CONTINUOUS
 62
    2
 10
471.09552714529468
 20
350.10938485253712
 40
2
 50
315.52248781406882
 51
344.47751218592902
  0
LINE
  8
_0-2_2
  6
CONTINUOUS
 62
    2
 10
471.09552714529491
 20
349.53203458334752
 11
472.52257812841947
 21
348.70812631409308
  0
LINE
  8
_0-2_2
  6
CONTINUOUS
 62
    2
 10
471.59552714529457
 20
350.39805998713217
 11
473.02257812841947
 21
349.5741517178775
  0
LINE
  8
_0-2_2
  6
CONTINUOUS
 62
    2
 10
471.09552714529491
 20
349.53203458334752
 11
469.66847616217001
 21
348.70812631409302
  0
LINE
  8
_0-2_2
  6
CONTINUOUS
 62
    2
 10
470.59552714529468
 20
350.39805998713189
 11
469.16847616216978
 21
349.57415171787738
  0
LINE
  8
_0-2_2
  6
CONTINUOUS
 62
    2
 10
470.59552714529468
 20
352.04587652564078
 11
470.59552714529468
 21
350.39805998713177
  0
LINE
  8
_0-2_2
  6
CONTINUOUS
 62
    2
 10
471.5955271452948
 20
352.04587652564078
 11
471.59552714529457
 21
350.39805998713211
  0
ARC
  8
_0-2_2
  6
CONTINUOUS
 62
    2
 10
471.09552714529457
 20
350.10938485253712
 40
2
 50
195.52248781407101
 51
224.47751218593126
  0
ARC
  8
_0-2_2
  6
CONTINUOUS
 62
    2
 10
411.0955271452948
 20
350.10938485253712
 40
2
 50
75.522487814071724
 51
104.4775121859298
  0
ARC
  8
_0-2_2
  6
CONTINUOUS
 62
    2
 10
411.0955271452948
 20
350.10938485253712
 40
2
 50
315.52248781406882
 51
344.47751218592902
  0
LINE
  8
_0-2_2
  6
CONTINUOUS
 62
    2
 10
411.09552714529497
 20
349.53203458334752
 11
412.52257812841958
 21
348.70812631409308
  0
LINE
  8
_0-2_2
  6
CONTINUOUS
 62
    2
 10
411.59552714529468
 20
350.39805998713217
 11
413.02257812841958
 21
349.5741517178775
  0
LINE
  8
_0-2_2
  6
CONTINUOUS
 62
    2
 10
411.09552714529497
 20
349.53203458334752
 11
409.66847616217001
 21
348.70812631409302
  0
LINE
  8
_0-2_2
  6
CONTINUOUS
 62
    2
 10
410.5955271452948
 20
350.39805998713189
 11
409.1684761621699
 21
349.57415171787738
  0
LINE
  8
_0-2_2
  6
CONTINUOUS
 62
    2
 10
410.5955271452948
 20
352.04587652564078
 11
410.5955271452948
 21
350.39805998713177
  0
LINE
  8
_0-2_2
  6
CONTINUOUS
 62
    2
 10
411.5955271452948
 20
352.04587652564078
 11
411.59552714529457
 21
350.39805998713211
  0
ARC
  8
_0-2_2
  6
CONTINUOUS
 62
    2
 10
411.09552714529468
 20
350.10938485253712
 40
2
 50
195.52248781407101
 51
224.47751218593126
  0
ARC
  8
_0-2_2
  6
CONTINUOUS
 62
    2
 10
411.0955271452948
 20
438.609384852537
 40
2
 50
75.522487814071724
 51
104.4775121859298
  0
ARC
  8
_0-2_2
  6
CONTINUOUS
 62
    2
 10
411.0955271452948
 20
438.609384852537
 40
2
 50
315.52248781406882
 51
344.47751218592902
  0
LINE
  8
_0-2_2
  6
CONTINUOUS
 62
    2
 10
411.09552714529497
 20
438.03203458334752
 11
412.52257812841958
 21
437.20812631409308
  0
LINE
  8
_0-2_2
  6
CONTINUOUS
 62
    2
 10
411.59552714529468
 20
438.89805998713217
 11
413.02257812841958
 21
438.0741517178775
  0
LINE
  8
_0-2_2
  6
CONTINUOUS
 62
    2
 10
411.09552714529497
 20
438.03203458334741
 11
409.66847616217001
 21
437.20812631409302
  0
LINE
  8
_0-2_2
  6
CONTINUOUS
 62
    2
 10
410.5955271452948
 20
438.89805998713177
 11
409.1684761621699
 21
438.07415171787738
  0
LINE
  8
_0-2_2
  6
CONTINUOUS
 62
    2
 10
410.5955271452948
 20
440.54587652564078
 11
410.5955271452948
 21
438.89805998713172
  0
LINE
  8
_0-2_2
  6
CONTINUOUS
 62
    2
 10
411.5955271452948
 20
440.54587652564078
 11
411.59552714529457
 21
438.89805998713211
  0
ARC
  8
_0-2_2
  6
CONTINUOUS
 62
    2
 10
411.09552714529468
 20
438.609384852537
 40
2
 50
195.52248781407101
 51
224.47751218593126
  0
LINE
  8
_0-2_2
  6
CONTINUOUS
 62
    2
 10
321.98943344652128
 20
516.07415171787738
 11
322.16314517969147
 21
515.20812631409308
  0
LINE
  8
_0-2_2
  6
CONTINUOUS
 62
    2
 10
322.0015630723409
 20
518.54587652564089
 11
322.1147868277784
 21
516.89805998713177
  0
LINE
  8
_0-2_2
  6
CONTINUOUS
 62
    2
 10
322.1147868277784
 20
516.89805998713177
 11
321.98943344652128
 21
516.07415171787738
  0
LINE
  8
_0-2_2
  6
CONTINUOUS
 62
    2
 10
322.1147868277784
 20
438.89805998713172
 11
321.98943344652128
 21
438.07415171787738
  0
LINE
  8
_0-2_2
  6
CONTINUOUS
 62
    2
 10
322.0015630723409
 20
440.54587652564089
 11
322.1147868277784
 21
438.89805998713172
  0
LINE
  8
_0-2_2
  6
CONTINUOUS
 62
    2
 10
321.98943344652128
 20
438.07415171787738
 11
322.16314517969147
 21
437.20812631409302
  0
LINE
  8
_0-2_2
  6
CONTINUOUS
 62
    2
 10
322.1147868277784
 20
350.39805998713177
 11
321.98943344652128
 21
349.57415171787738
  0
LINE
  8
_0-2_2
  6
CONTINUOUS
 62
    2
 10
322.0015630723409
 20
352.04587652564089
 11
322.1147868277784
 21
350.39805998713177
  0
LINE
  8
_0-2_2
  6
CONTINUOUS
 62
    2
 10
321.98943344652128
 20
349.57415171787738
 11
322.16314517969147
 21
348.70812631409302
  0
LINE
  8
_0-2_2
  6
CONTINUOUS
 62
    2
 10
102.6703183607234
 20
516.07415171787738
 11
102.49660662755321
 21
515.20812631409308
  0
LINE
  8
_0-2_2
  6
CONTINUOUS
 62
    2
 10
102.65818873490377
 20
518.54587652564089
 11
102.54496497946627
 21
516.89805998713177
  0
LINE
  8
_0-2_2
  6
CONTINUOUS
 62
    2
 10
102.54496497946627
 20
516.89805998713177
 11
102.6703183607234
 21
516.07415171787738
  0
LINE
  8
_0-2_2
  6
CONTINUOUS
 62
    2
 10
102.6703183607234
 20
438.07415171787738
 11
102.49660662755321
 21
437.20812631409302
  0
LINE
  8
_0-2_2
  6
CONTINUOUS
 62
    2
 10
102.65818873490377
 20
440.54587652564089
 11
102.54496497946627
 21
438.89805998713172
  0
LINE
  8
_0-2_2
  6
CONTINUOUS
 62
    2
 10
102.54496497946627
 20
438.89805998713172
 11
102.6703183607234
 21
438.07415171787738
  0
LINE
  8
_0-2_2
  6
CONTINUOUS
 62
    2
 10
102.6703183607234
 20
349.57415171787738
 11
102.49660662755321
 21
348.70812631409302
  0
LINE
  8
_0-2_2
  6
CONTINUOUS
 62
    2
 10
102.65818873490377
 20
352.04587652564089
 11
102.54496497946627
 21
350.39805998713177
  0
LINE
  8
_0-2_2
  6
CONTINUOUS
 62
    2
 10
102.54496497946627
 20
350.39805998713177
 11
102.6703183607234
 21
349.57415171787738
  0
LINE
  8
_0-4_4
  6
CONTINUOUS
 62
    4
 10
486.901902748476
 20
275.24192844841428
 11
468.901902748476
 21
275.24192844841428
  0
LINE
  8
_0-4_4
  6
CONTINUOUS
 62
    4
 10
482.15190274847589
 20
253.2419284484144
 11
480.35190274847599
 21
253.2419284484144
  0
LINE
  8
_0-4_4
  6
CONTINUOUS
 62
    4
 10
480.35190274847599
 20
253.2419284484144
 11
480.35190274847599
 21
233.03482166722779
  0
LINE
  8
_0-4_4
  6
CONTINUOUS
 62
    4
 10
473.151902748476
 20
259.62035691684298
 11
473.151902748476
 21
232.7776780312856
  0
LINE
  8
_0-4_4
  6
CONTINUOUS
 62
    4
 10
465.901902748476
 20
272.2419284484144
 11
465.901902748476
 21
264.50329469470842
  0
LINE
  8
_0-4_4
  6
CONTINUOUS
 62
    4
 10
489.901902748476
 20
272.2419284484144
 11
489.901902748476
 21
264.50329469470842
  0
ARC
  8
_0-4_4
  6
CONTINUOUS
 62
    4
 10
477.901902748476
 20
289.24192844841428
 40
30
 50
252.07978686060699
 51
260.88982984707332
  0
ARC
  8
_0-4_4
  6
CONTINUOUS
 62
    4
 10
468.901902748476
 20
272.2419284484144
 40
3
 50
90
 51
180
  0
ARC
  8
_0-4_4
  6
CONTINUOUS
 62
    4
 10
486.90190274847606
 20
272.2419284484144
 40
3
 50
0
 51
90
  0
LINE
  8
_0-4_4
  6
CONTINUOUS
 62
    4
 10
483.401902748476
 20
273.24192844841428
 11
472.40190274847589
 21
273.24192844841428
  0
LINE
  8
_0-4_4
  6
CONTINUOUS
 62
    4
 10
472.40190274847589
 20
273.24192844841428
 11
472.40190274847589
 21
270.24192844841428
  0
LINE
  8
_0-4_4
  6
CONTINUOUS
 62
    4
 10
483.401902748476
 20
270.24192844841428
 11
483.401902748476
 21
273.24192844841428
  0
LINE
  8
_0-4_4
  6
CONTINUOUS
 62
    4
 10
482.65190274847589
 20
259.62035691684298
 11
482.65190274847589
 21
253.74192844841428
  0
ARC
  8
_0-4_4
  6
CONTINUOUS
 62
    4
 10
477.901902748476
 20
289.24192844841428
 40
30
 50
279.11017015292668
 51
287.92021313939301
  0
ARC
  8
_0-4_4
  6
CONTINUOUS
 62
    4
 10
476.35190274847599
 20
229.74192844841428
 40
0.5
 50
220.00000000000011
 51
315
  0
LINE
  8
_0-4_4
  6
CONTINUOUS
 62
    4
 10
475.96888052691651
 20
229.42053464357099
 11
473.151902748476
 21
232.7776780312856
  0
LINE
  8
_0-4_4
  6
CONTINUOUS
 62
    4
 10
476.70545613906927
 20
229.38837505782109
 11
480.35190274847599
 21
233.03482166722779
  0
ARC
  8
_0-4_4
  6
CONTINUOUS
 62
    4
 10
482.151902748476
 20
253.74192844841428
 40
0.5
 50
270
 51
0
  0
ARC
  8
_0-4_4
  6
CONTINUOUS
 62
    4
 10
478.9108625324784
 20
272.18964320880781
 40
0.9443069597512121
 50
229.9580832879297
 51
282.26075988275272
  0
ARC
  8
_0-4_4
  6
CONTINUOUS
 62
    4
 10
477.81271237881361
 20
277.24283924961929
 40
6.1154503523547543
 50
282.2607598827496
 51
302.20770961422829
  0
ARC
  8
_0-4_4
  6
CONTINUOUS
 62
    4
 10
474.08251410175581
 20
283.16452634651381
 40
13.11407573593492
 50
302.20770961422829
 51
310.83136659473109
  0
ARC
  8
_0-4_4
  6
CONTINUOUS
 62
    4
 10
466.82521016793567
 20
291.11087414242377
 40
23.8757161165369
 50
318.34467750434658
 51
319.9580832879297
  0
ARC
  8
_0-4_4
  6
CONTINUOUS
 62
    4
 10
466.82521016792799
 20
291.1108741424303
 40
23.875716116547011
 50
319.9580832879297
 51
327.51108976629712
  0
ARC
  8
_0-4_4
  6
CONTINUOUS
 62
    4
 10
475.90260460447956
 20
285.33040582881057
 40
13.114075735940601
 50
327.5110897663015
 51
337.70845696162979
  0
ARC
  8
_0-4_4
  6
CONTINUOUS
 62
    4
 10
482.37819273613951
 20
282.67569009847847
 40
6.115450352354971
 50
337.70845696162979
 51
357.65540669311071
  0
ARC
  8
_0-4_4
  6
CONTINUOUS
 62
    4
 10
487.54500714696007
 20
282.46414144921459
 40
0.9443069597512483
 50
357.65540669310747
 51
49.958083287929725
  0
ARC
  8
_0-4_4
  6
CONTINUOUS
 62
    4
 10
487.54500714696007
 20
282.46414144921459
 40
0.9443069597512494
 50
49.958083287929668
 51
102.2607598827495
  0
ARC
  8
_0-4_4
  6
CONTINUOUS
 62
    4
 10
488.64315730062521
 20
277.41094540840288
 40
6.1154503523550252
 50
102.26075988275269
 51
122.20770961422832
  0
ARC
  8
_0-4_4
  6
CONTINUOUS
 62
    4
 10
492.37335557768267
 20
271.4892583115091
 40
13.11407573593446
 50
122.20770961422829
 51
132.40507680956341
  0
ARC
  8
_0-4_4
  6
CONTINUOUS
 62
    4
 10
499.6306595115023
 20
263.5429105155992
 40
23.8757161165361
 50
132.40507680955531
 51
139.95808328792961
  0
ARC
  8
_0-4_4
  6
CONTINUOUS
 62
    4
 10
499.6306595115102
 20
263.5429105155925
 40
23.875716116546421
 50
139.95808328792961
 51
147.511089766297
  0
ARC
  8
_0-4_4
  6
CONTINUOUS
 62
    4
 10
490.55326507495869
 20
269.323378829212
 40
13.114075735940229
 50
147.5110897663015
 51
157.70845696162979
  0
ARC
  8
_0-4_4
  6
CONTINUOUS
 62
    4
 10
484.07767694329891
 20
271.97809455954399
 40
6.1154503523548369
 50
157.70845696162979
 51
177.65540669311059
  0
ARC
  8
_0-4_4
  6
CONTINUOUS
 62
    4
 10
478.9108625324784
 20
272.18964320880781
 40
0.9443069597512333
 50
177.65540669311059
 51
229.9580832879297
  0
ARC
  8
_0-4_4
  6
CONTINUOUS
 62
    4
 10
477.93481711001027
 20
272.45601792223476
 40
0.9443069597512121
 50
229.9580832879297
 51
282.26075988275272
  0
ARC
  8
_0-4_4
  6
CONTINUOUS
 62
    4
 10
476.83666695634548
 20
277.50921396304631
 40
6.1154503523547543
 50
282.2607598827496
 51
302.20770961422829
  0
ARC
  8
_0-4_4
  6
CONTINUOUS
 62
    4
 10
473.10646867928756
 20
283.43090105994082
 40
13.11407573593492
 50
302.20770961422829
 51
309.01789687250198
  0
ARC
  8
_0-4_4
  6
CONTINUOUS
 62
    4
 10
465.84916474546759
 20
291.37724885585078
 40
23.8757161165369
 50
317.48333147896187
 51
319.9580832879297
  0
ARC
  8
_0-4_4
  6
CONTINUOUS
 62
    4
 10
465.8491647454598
 20
291.37724885585732
 40
23.875716116547011
 50
319.9580832879297
 51
327.51108976629712
  0
ARC
  8
_0-4_4
  6
CONTINUOUS
 62
    4
 10
474.92655918201137
 20
285.59678054223758
 40
13.114075735940601
 50
327.5110897663015
 51
337.70845696162979
  0
ARC
  8
_0-4_4
  6
CONTINUOUS
 62
    4
 10
481.40214731367138
 20
282.94206481190548
 40
6.115450352354971
 50
337.70845696162979
 51
357.65540669311071
  0
ARC
  8
_0-4_4
  6
CONTINUOUS
 62
    4
 10
486.568961724492
 20
282.73051616264172
 40
0.9443069597512483
 50
357.65540669310747
 51
49.958083287929725
  0
ARC
  8
_0-4_4
  6
CONTINUOUS
 62
    4
 10
486.568961724492
 20
282.73051616264172
 40
0.9443069597512494
 50
49.958083287929668
 51
102.2607598827495
  0
ARC
  8
_0-4_4
  6
CONTINUOUS
 62
    4
 10
487.66711187815696
 20
277.67732012183001
 40
6.1154503523550252
 50
102.26075988275269
 51
122.20770961422832
  0
ARC
  8
_0-4_4
  6
CONTINUOUS
 62
    4
 10
491.3973101552146
 20
271.75563302493606
 40
13.11407573593446
 50
122.20770961422829
 51
132.40507680956341
  0
ARC
  8
_0-4_4
  6
CONTINUOUS
 62
    4
 10
498.65461408903417
 20
263.80928522902616
 40
23.8757161165361
 50
132.40507680955531
 51
139.95808328792961
  0
ARC
  8
_0-4_4
  6
CONTINUOUS
 62
    4
 10
498.65461408904207
 20
263.80928522901951
 40
23.875716116546421
 50
139.95808328792961
 51
147.511089766297
  0
ARC
  8
_0-4_4
  6
CONTINUOUS
 62
    4
 10
489.57721965249061
 20
269.58975354263896
 40
13.114075735940229
 50
147.5110897663015
 51
157.70845696162979
  0
ARC
  8
_0-4_4
  6
CONTINUOUS
 62
    4
 10
483.10163152083078
 20
272.244469272971
 40
6.1154503523548369
 50
157.70845696162979
 51
177.65540669311059
  0
ARC
  8
_0-4_4
  6
CONTINUOUS
 62
    4
 10
477.93481711001027
 20
272.45601792223476
 40
0.9443069597512333
 50
177.65540669311059
 51
229.9580832879297
  0
ARC
  8
_0-4_4
  6
CONTINUOUS
 62
    4
 10
485.901902748476
 20
264.50329469470842
 40
4
 50
287.92021313939301
 51
0.0000000000000127
  0
ARC
  8
_0-4_4
  6
CONTINUOUS
 62
    4
 10
469.90190274847606
 20
264.50329469470842
 40
4
 50
180
 51
252.07978686060696
  0
LINE
  8
_0-4_4
  6
CONTINUOUS
 62
    4
 10
191.67570145732029
 20
360.20713393048038
 11
184.64167271656638
 21
366.10938485253712
  0
LINE
  8
_0-4_4
  6
CONTINUOUS
 62
    4
 10
471.5955271452948
 20
383.05239687754948
 11
478.81396432478579
 21
389.10938485253712
  0
ARC
  8
_0-4_4
  6
PHANTOM
 62
    6
 10
481.32485012489298
 20
420.1642726916927
 40
6
 50
320
 51
51.763225357572757
  0
ARC
  8
_0-4_4
  6
PHANTOM
 62
    6
 10
472.54139266280407
 20
419.03089866701259
 40
12
 50
57.792924335419286
 51
94.520864746313478
  0
ARC
  8
_0-4_4
  6
PHANTOM
 62
    6
 10
441.09552714522397
 20
369.10938484931842
 40
71
 50
51.763225357572743
 51
57.792924335419286
  0
ARC
  8
_0-4_4
  6
PHANTOM
 62
    6
 10
475.04152504771361
 20
420.45471659182891
 40
1
 50
59.46232220802078
 51
140
  0
LINE
  8
_0-4_4
  6
PHANTOM
 62
    6
 10
471.59552714529468
 20
417.9036600384095
 11
474.27548060459469
 21
421.09750420151551
  0
LINE
  8
_0-4_4
  6
PHANTOM
 62
    6
 10
471.59552714529468
 20
414.95853648373668
 11
477.15166736789581
 21
408.7463262129163
  0
LINE
  8
_0-4_4
  6
PHANTOM
 62
    6
 10
475.54962990954351
 20
421.3160118079922
 11
484.56848542893181
 21
415.99550816238161
  0
LINE
  8
_0-4_4
  6
PHANTOM
 62
    6
 10
485.8426347338804
 20
416.21401576885779
 11
485.92111678360686
 21
416.30754703357348
  0
LINE
  8
_0-4_4
  6
PHANTOM
 62
    6
 10
485.92141666122711
 20
416.30790441380469
 11
485.89637514279207
 21
416.27806109424557
  0
ARC
  8
_0-4_4
  6
PHANTOM
 62
    6
 10
476.40629768900391
 20
408.07967484841708
 40
1
 50
320
 51
41.809138623538161
  0
ARC
  8
_0-4_4
  6
PHANTOM
 62
    6
 10
485.07659029076177
 20
416.85680337854467
 40
1
 50
239.46232220802079
 51
320
  0
LINE
  8
_0-4_4
  6
PHANTOM
 62
    6
 10
477.17234213212276
 20
407.43688723873061
 11
471.5955271452948
 21
400.79069794294492
  0
LINE
  8
_0-4_4
  6
PHANTOM
 62
    6
 10
485.8426347338804
 20
416.21401576885779
 11
485.92141666122711
 21
416.30790441380469
  0
LINE
  8
_0-4_4
  6
CONTINUOUS
 62
    4
 10
476.0955271452948
 20
358.10938485253712
 11
485.62955588604819
 21
366.10938485253712
  0
LINE
  8
_0-4_4
  6
CONTINUOUS
 62
    4
 10
471.5955271452948
 20
358.10938485253712
 11
476.0955271452948
 21
358.10938485253712
  0
TEXT
  8
_0-8_S
 62
    7
 10
535.2752592387103
 20
378.82367056682301
 40
6
 41
1
 50
90
  1
12
  0
INSERT
  2
-000-SUG-AR01
  8
_0-8_S
 10
537.0752592387106
 20
389.10938485253729
 41
1
 42
1
 50
270
  0
INSERT
  2
-000-SUG-AR01
  8
_0-8_S
 10
537.0752592387106
 20
377.10938485253712
 41
1
 42
1
 50
90
  0
LINE
  8
_0-8_S
  6
CONTINUOUS
 62
    6
 10
537.0752592387106
 20
377.10938485253712
 11
537.0752592387106
 21
389.10938485253729
  0
LINE
  8
_0-8_S
  6
CONTINUOUS
 62
    6
 10
502.55063812799636
 20
389.10938485253729
 11
539.07525923871049
 21
389.10938485253729
  0
LINE
  8
_0-8_S
  6
CONTINUOUS
 62
    6
 10
504.09552714529428
 20
377.10938485253712
 11
539.07525923871049
 21
377.10938485253712
  0
TEXT
  8
_0-8_S
 62
    7
 10
535.2752592387103
 20
366.82367056682278
 40
6
 41
1
 50
90
  1
12
  0
INSERT
  2
-000-SUG-AR01
  8
_0-8_S
 10
537.0752592387106
 20
377.10938485253712
 41
1
 42
1
 50
270
  0
INSERT
  2
-000-SUG-AR01
  8
_0-8_S
 10
537.0752592387106
 20
365.10938485253712
 41
1
 42
1
 50
90
  0
LINE
  8
_0-8_S
  6
CONTINUOUS
 62
    6
 10
537.0752592387106
 20
365.10938485253712
 11
537.0752592387106
 21
377.10938485253712
  0
LINE
  8
_0-8_S
  6
CONTINUOUS
 62
    6
 10
504.09552714529428
 20
377.10938485253712
 11
539.07525923871049
 21
377.10938485253712
  0
LINE
  8
_0-8_S
  6
CONTINUOUS
 62
    6
 10
509.02625946828618
 20
365.10938485253712
 11
539.07525923871049
 21
365.10938485253712
  0
TEXT
  8
_0-8_S
 62
    7
 10
523.2752592387103
 20
355.28475602799472
 40
6
 41
1
 50
90
  1
4
  0
INSERT
  2
-000-SUG-AR01
  8
_0-8_S
 10
525.0752592387106
 20
369.10938485253712
 41
1
 42
1
 50
90
  0
INSERT
  2
-000-SUG-AR01
  8
_0-8_S
 10
525.0752592387106
 20
365.10938485253712
 41
1
 42
1
 50
270
  0
LINE
  8
_0-8_S
  6
CONTINUOUS
 62
    6
 10
525.0752592387106
 20
355.02761317085179
 11
525.0752592387106
 21
383.10938485253712
  0
LINE
  8
_0-8_S
  6
CONTINUOUS
 62
    6
 10
518.81884083751606
 20
369.10938485253712
 11
527.0752592387106
 21
369.10938485253712
  0
LINE
  8
_0-8_S
  6
CONTINUOUS
 62
    6
 10
509.0652171551763
 20
365.10938485253712
 11
527.0752592387106
 21
365.10938485253712
  0
INSERT
  2
-003-SUG-AR04
  8
_0-8_S
 10
505.10979723692958
 20
320.22761317085178
 41
1
 42
1
 50
0
  0
INSERT
  2
-003-SUG-AR04
  8
_0-8_S
 10
503.09552714529428
 20
320.22761317085178
 41
1
 42
1
 50
0
  0
INSERT
  2
-003-SUG-AR04
  8
_0-8_S
 10
496.09552714529428
 20
320.22761317085178
 41
1
 42
1
 50
0
  0
TEXT
  8
_0-8_S
 62
    7
 10
496.9062935797009
 20
311.34827559232491
 40
6
 41
1
 50
0
  1
7
  0
LINE
  8
_0-8_S
  6
CONTINUOUS
 62
    6
 10
482.09552714529428
 20
320.22761317085178
 11
517.09552714529423
 21
320.22761317085178
  0
LINE
  8
_0-8_S
  6
CONTINUOUS
 62
    6
 10
503.09552714529428
 20
374.10938485253712
 11
503.09552714529428
 21
318.22761317085178
  0
LINE
  8
_0-8_S
  6
CONTINUOUS
 62
    6
 10
496.09552714529428
 20
374.10938485253712
 11
496.09552714529428
 21
318.22761317085178
  0
INSERT
  2
-000-SUG-AR01
  8
_0-8_S
 10
494.5121938119608
 20
320.22761317085178
 41
1
 42
1
 50
180
  0
LINE
  8
_0-8_S
  6
CONTINUOUS
 62
    6
 10
474.0752592387106
 20
320.22761317085178
 11
510.09552714529428
 21
320.22761317085178
  0
LINE
  8
_0-8_S
  6
CONTINUOUS
 62
    6
 10
496.09552714529428
 20
374.10938485253712
 11
496.09552714529428
 21
318.22761317085178
  0
LINE
  8
_0-8_S
  6
CONTINUOUS
 62
    6
 10
494.5121938119608
 20
363.10938485253712
 11
494.5121938119608
 21
318.22761317085178
  0
LINE
  8
_0-8_S
  6
CONTINUOUS
 62
    6
 10
489.09552714529428
 20
320.22761317085178
 11
528.6752592387104
 21
320.22761317085178
  0
LINE
  8
_0-8_S
  6
CONTINUOUS
 62
    6
 10
505.10979723692958
 20
362.02376430272517
 11
505.10979723692958
 21
318.22761317085178
  0
LINE
  8
_0-8_S
  6
CONTINUOUS
 62
    6
 10
503.09552714529428
 20
374.10938485253712
 11
503.09552714529428
 21
318.22761317085178
  0
TEXT
  8
_0-8_S
 62
    7
 10
473.00728986080247
 20
298.02761317085179
 40
6
 41
1
 50
0
  1
71
  0
INSERT
  2
-000-SUG-AR01
  8
_0-8_S
 10
512.06190971916737
 20
296.22761317085178
 41
1
 42
1
 50
180
  0
INSERT
  2
-000-SUG-AR01
  8
_0-8_S
 10
441.09552714529468
 20
296.22761317085178
 41
1
 42
1
 50
0
  0
LINE
  8
_0-8_S
  6
CONTINUOUS
 62
    6
 10
512.06190971916737
 20
368.29400023715249
 11
512.06190971916737
 21
294.22761317085178
  0
LINE
  8
_0-8_S
  6
CONTINUOUS
 62
    6
 10
441.09552714529468
 20
296.22761317085178
 11
512.06190971916737
 21
296.22761317085178
  0
TEXT
  8
_0-8_S
 62
    7
 10
467.23838428815191
 20
310.02761317085179
 40
6
 41
1
 50
0
  1
62
  0
INSERT
  2
-000-SUG-AR01
  8
_0-8_S
 10
503.09552714529428
 20
308.22761317085178
 41
1
 42
1
 50
180
  0
INSERT
  2
-000-SUG-AR01
  8
_0-8_S
 10
441.09552714529468
 20
308.22761317085178
 41
1
 42
1
 50
0
  0
LINE
  8
_0-8_S
  6
CONTINUOUS
 62
    6
 10
503.09552714529428
 20
374.10938485253712
 11
503.09552714529428
 21
306.22761317085178
  0
LINE
  8
_0-8_S
  6
CONTINUOUS
 62
    6
 10
441.09552714529468
 20
308.22761317085178
 11
503.09552714529428
 21
308.22761317085178
  0
TEXT
  8
_0-8_S
 62
    7
 10
477.96097352442467
 20
322.02761317085179
 40
6
 41
1
 50
0
  1
1.5
  0
TEXT
  8
_0-8_S
 62
    7
 10
517.0752592387106
 20
322.02761317085179
 40
6
 41
1
 50
0
  1
2
  0
LINE
  8
_0-8_S
  6
CONTINUOUS
 62
    6
 10
441.09552714529468
 20
328.49488404274382
 11
441.09552714529468
 21
294.22761317085178
  0
LINE
  8
_0-4_4
  6
CONTINUOUS
 62
    4
 10
158.33323108767752
 20
270.1107598768578
 11
158.33323108767752
 21
267.81075987685779
  0
INSERT
  2
-000-SUG-AR01
  8
_0-8_S
 10
147.0752592387106
 20
291.1107598768578
 41
1
 42
1
 50
270
  0
TEXT
  8
_0-8_S
 62
    7
 10
145.27525923871042
 20
245.82315988172928
 40
6
 41
1
 50
90
  1
2.3
  0
INSERT
  2
-000-SUG-AR01
  8
_0-8_S
 10
147.0752592387106
 20
270.1107598768578
 41
1
 42
1
 50
90
  0
INSERT
  2
-000-SUG-AR01
  8
_0-8_S
 10
147.0752592387106
 20
267.81075987685779
 41
1
 42
1
 50
270
  0
LINE
  8
_0-8_S
  6
CONTINUOUS
 62
    6
 10
147.0752592387106
 20
253.81075987685779
 11
147.0752592387106
 21
284.1107598768578
  0
LINE
  8
_0-8_S
  6
CONTINUOUS
 62
    6
 10
154.29961366155101
 20
270.1107598768578
 11
145.0752592387106
 21
270.1107598768578
  0
LINE
  8
_0-8_S
  6
CONTINUOUS
 62
    6
 10
154.29961366155101
 20
267.81075987685779
 11
145.0752592387106
 21
267.81075987685779
  0
INSERT
  2
-000-SUG-AR01
  8
_0-8_S
 10
147.0752592387106
 20
291.1107598768578
 41
1
 42
1
 50
270
  0
TEXT
  8
_0-8_S
 62
    7
 10
145.27525923871042
 20
277.03933130542907
 40
6
 41
1
 50
90
  1
21
  0
INSERT
  2
-000-SUG-AR01
  8
_0-8_S
 10
147.0752592387106
 20
270.1107598768578
 41
1
 42
1
 50
90
  0
INSERT
  2
-000-SUG-AR01
  8
_0-8_S
 10
147.0752592387106
 20
291.1107598768578
 41
1
 42
1
 50
270
  0
LINE
  8
_0-8_S
  6
CONTINUOUS
 62
    6
 10
147.0752592387106
 20
291.1107598768578
 11
147.0752592387106
 21
270.1107598768578
  0
LINE
  8
_0-8_S
  6
CONTINUOUS
 62
    6
 10
154.29961366155101
 20
270.1107598768578
 11
145.0752592387106
 21
270.1107598768578
  0
LINE
  8
_0-4_4
  6
CONTINUOUS
 62
    4
 10
158.33323108767752
 20
267.81075987685779
 11
194.2996136615505
 21
267.81075987685779
  0
LINE
  8
_0-4_4
  6
CONTINUOUS
 62
    4
 10
158.33323108767752
 20
270.1107598768578
 11
194.2996136615505
 21
270.1107598768578
  0
INSERT
  2
-004-AI9-BLK1
  8
_0-8_S
 10
229.28565728965029
 20
397.60086288312829
 41
1
 42
1
 50
0
  0
ARC
  8
_0-2_2
  6
CONTINUOUS
 62
    2
 10
300.93553379158976
 20
411.10938485253718
 40
0.9
 50
124.55461611034748
 51
241.18036892395824
  0
LINE
  8
_0-8_S
  6
CONTINUOUS
 62
    6
 10
505.09552714870989
 20
377.10938485085177
 11
501.09552714871
 21
377.10938485085177
  0
LINE
  8
_0-4_4
  6
CONTINUOUS
 62
    4
 10
505.94265423709288
 20
365.10938485085177
 11
506.06521715859196
 21
365.10938485085177
  0
LINE
  8
_0-4_4
  6
CONTINUOUS
 62
    4
 10
493.6458270432812
 20
366.10938485085177
 11
485.62955588946386
 21
366.10938485085177
  0
ARC
  8
_0-4_4
  6
CONTINUOUS
 62
    4
 10
505.94265423709328
 20
366.10938485085177
 40
1
 50
189.46232220802079
 51
270
  0
ARC
  8
_0-4_4
  6
CONTINUOUS
 62
    4
 10
493.6458270432812
 20
367.10938485085177
 40
1
 50
270
 51
351.8091386235381
  0
LINE
  8
_0-4_4
  6
CONTINUOUS
 62
    4
 10
506.06521715859196
 20
365.10938485085177
 11
506.02625947170179
 21
365.10938485085177
  0
LINE
  8
_0-4_4
  6
CONTINUOUS
 62
    4
 10
505.94265423709288
 20
365.10938485085177
 11
506.06475063183308
 21
365.10938485085177
  0
LINE
  8
_0-4_4
  6
CONTINUOUS
 62
    4
 10
503.23479398415918
 20
376.27378383815727
 11
504.95626031326077
 21
365.94498586354649
  0
LINE
  8
_0-4_4
  6
CONTINUOUS
 62
    4
 10
495.9720949533052
 20
376.2518559143557
 11
494.63562601078127
 21
366.96691378734801
  0
LINE
  8
_0-4_4
  6
CONTINUOUS
 62
    4
 10
496.96189392080521
 20
377.10938485085177
 11
502.24840006032656
 21
377.10938485085177
  0
ARC
  8
_0-4_4
  6
CONTINUOUS
 62
    4
 10
496.96189392080521
 20
376.10938485085177
 40
1
 50
90
 51
171.8091386235381
  0
ARC
  8
_0-4_4
  6
CONTINUOUS
 62
    4
 10
502.24840006032656
 20
376.10938485085177
 40
1
 50
9.4623222080207992
 51
90.000000000000014
  0
ARC
  8
_0-4_4
  6
CONTINUOUS
 62
    4
 10
441.0955271487104
 20
369.10938485085177
 40
71
 50
1.763225357572747
 51
7.7929243354192987
  0
ARC
  8
_0-4_4
  6
CONTINUOUS
 62
    4
 10
499.55063813141197
 20
377.109384850852
 40
12
 50
7.7929243354192987
 51
89.999999999999986
  0
ARC
  8
_0-4_4
  6
CONTINUOUS
 62
    4
 10
506.06475063183308
 20
371.10938485085177
 40
6
 50
270
 51
1.7632253575727623
  0
LINE
  8
_0-4_4
  6
CONTINUOUS
 62
    4
 10
478.81396432820151
 20
389.10938485085177
 11
499.55063813141197
 21
389.109384850852
  0
ARC
  8
_0-4_4
  6
PHANTOM
 62
    6
 10
188.99064144947297
 20
420.25919494871169
 40
6
 50
128.23677464242729
 51
220
  0
LINE
  8
_0-4_4
  6
PHANTOM
 62
    6
 10
184.47285684048558
 20
416.30893802587678
 11
184.39437479075909
 21
416.40246929059248
  0
LINE
  8
_0-4_4
  6
PHANTOM
 62
    6
 10
184.39407491313889
 20
416.40282667082357
 11
184.419116431574
 21
416.37298335126468
  0
ARC
  8
_0-4_4
  6
PHANTOM
 62
    6
 10
229.21996442914229
 20
369.20430710633707
 40
71
 50
122.2070756645804
 51
128.23677464242729
  0
ARC
  8
_0-4_4
  6
PHANTOM
 62
    6
 10
193.9091938853621
 20
408.17459710543619
 40
1
 50
138.19086137646181
 51
220
  0
ARC
  8
_0-4_4
  6
PHANTOM
 62
    6
 10
185.23890128360449
 20
416.95172563556332
 40
1
 50
220
 51
300.53767779197921
  0
LINE
  8
_0-4_4
  6
PHANTOM
 62
    6
 10
194.52381401142898
 20
410.36182611846368
 11
193.16382420647028
 21
408.84124846993541
  0
LINE
  8
_0-4_4
  6
PHANTOM
 62
    6
 10
194.2996136615505
 20
421.13587985266247
 11
185.74700614543428
 21
416.0904304194006
  0
LINE
  8
_0-4_4
  6
PHANTOM
 62
    6
 10
184.47285684048558
 20
416.30893802587678
 11
184.39407491313889
 21
416.40282667082357
  0
LINE
  8
_0-4_4
  6
PHANTOM
 62
    6
 10
193.14314944224319
 20
407.5318094957496
 11
194.2996136615505
 21
406.15358910768339
  0
LINE
  8
_0-2_2
  6
CONTINUOUS
 62
    2
 10
478.59552714529468
 20
419.51914220384651
 11
478.59552714529468
 21
388.92609429579079
  0
LINE
  8
_0-4_4
  6
CONTINUOUS
 62
    4
 10
476.09552714529468
 20
420.99397003376708
 11
476.09552714529457
 21
406.15358910961862
  0
LINE
  8
_0-2_2
  6
CONTINUOUS
 62
    2
 10
476.5955271452948
 20
420.69900446778308
 11
476.5955271452948
 21
406.74946590591611
  0
LINE
  8
_0-2_2
  6
CONTINUOUS
 62
    2
 10
476.59552714529468
 20
406.74946590591588
 11
476.5955271452948
 21
387.24789503343618
  0
LINE
  8
_0-4_4
  6
CONTINUOUS
 62
    4
 10
476.09552714529457
 20
406.15358910961868
 11
476.0955271452948
 21
386.82834521784741
  0
LINE
  8
_0-1_1
  6
CONTINUOUS
 62
    1
 10
474.59552714529468
 20
421.34975059734938
 11
474.59552714529468
 21
411.60429593799739
  0
LINE
  8
_0-4_4
  6
CONTINUOUS
 62
    4
 10
474.59552714529468
 20
421.34975059734938
 11
474.59552714529468
 21
404.36595872072741
  0
LINE
  8
_0-4_4
  6
CONTINUOUS
 62
    4
 10
474.5955271452948
 20
404.36595872072758
 11
474.5955271452948
 21
385.56969577108151
  0
LINE
  8
_0-1_1
  6
CONTINUOUS
 62
    1
 10
474.5955271452948
 20
404.36595872072758
 11
474.5955271452948
 21
385.56969577108151
  0
LINE
  8
_0-4_4
  6
CONTINUOUS
 62
    4
 10
176.6254015570689
 20
366.1093848491667
 11
184.64167271088618
 21
366.1093848491667
  0
LINE
  8
_0-4_4
  6
CONTINUOUS
 62
    4
 10
164.3285743632573
 20
365.10938484916659
 11
164.20601144175816
 21
365.10938484916659
  0
LINE
  8
_0-4_4
  6
CONTINUOUS
 62
    4
 10
167.0364346161914
 20
376.27378383647209
 11
165.31496828708939
 21
365.94498586186137
  0
LINE
  8
_0-4_4
  6
CONTINUOUS
 62
    4
 10
174.29913364704498
 20
376.25185591267069
 11
175.63560258956889
 21
366.96691378566288
  0
LINE
  8
_0-4_4
  6
CONTINUOUS
 62
    4
 10
173.30933467954489
 20
377.1093848491667
 11
168.02282854002348
 21
377.1093848491667
  0
ARC
  8
_0-4_4
  6
CONTINUOUS
 62
    4
 10
164.3285743632573
 20
366.1093848491667
 40
1
 50
270
 51
350.53767779197921
  0
ARC
  8
_0-4_4
  6
CONTINUOUS
 62
    4
 10
176.6254015570689
 20
367.10938484916659
 40
1
 50
188.1908613764619
 51
270
  0
ARC
  8
_0-4_4
  6
CONTINUOUS
 62
    4
 10
173.30933467954489
 20
376.10938484916659
 40
1
 50
8.1908613764618892
 51
89.999999999999986
  0
ARC
  8
_0-4_4
  6
CONTINUOUS
 62
    4
 10
168.02282854002348
 20
376.10938484916659
 40
1
 50
90
 51
170.53767779197921
  0
ARC
  8
_0-4_4
  6
CONTINUOUS
 62
    4
 10
229.17570145164018
 20
369.10938484916659
 40
71
 50
172.20707566458049
 51
178.23677464242729
  0
LINE
  8
_0-4_4
  6
CONTINUOUS
 62
    4
 10
164.20601144175816
 20
365.10938484916659
 11
164.24496912864828
 21
365.10938484916659
  0
LINE
  8
_0-4_4
  6
CONTINUOUS
 62
    4
 10
164.3285743632573
 20
365.10938484916659
 11
164.20647796851699
 21
365.10938484916659
  0
ARC
  8
_0-4_4
  6
CONTINUOUS
 62
    4
 10
170.7205904689381
 20
377.10938484916687
 40
12
 50
90
 51
172.20707566458049
  0
ARC
  8
_0-4_4
  6
CONTINUOUS
 62
    4
 10
164.20647796851699
 20
371.10938484916659
 40
6
 50
178.23677464242729
 51
270
  0
LINE
  8
_0-4_4
  6
CONTINUOUS
 62
    4
 10
191.45726427214868
 20
389.1093848491667
 11
170.7205904689381
 21
389.10938484916687
  0
ARC
  8
_0-4_4
  6
PHANTOM
 62
    6
 10
197.77409891156188
 20
419.12582092403159
 40
12
 50
106.8304446911078
 51
122.2070756645804
  0
LINE
  8
_0-0_0
  6
CONTINUOUS
 62
    7
 10
195.7996136615505
 20
518.10938485253689
 11
195.7996136615505
 21
347.14857541895861
  0
ENDSEC
  0
EOF
