  0
SECTION
  2
HEADER
  9
$ACADVER
  1
AC1015
  9
$ACADMAINTVER
 70
    20
  9
$DWGCODEPAGE
  3
ANSI_932
  9
$INSBASE
 10
0.0
 20
0.0
 30
0.0
  9
$EXTMIN
 10
-16.16275866951969
 20
-13.87335872028507
 30
0.0
  9
$EXTMAX
 10
404.9022689526963
 20
291.9660509797287
 30
0.0
  9
$LIMMIN
 10
0.0
 20
0.0
  9
$LIMMAX
 10
285.0
 20
198.0
  9
$ORTHOMODE
 70
     0
  9
$REGENMODE
 70
     1
  9
$FILLMODE
 70
     1
  9
$QTEXTMODE
 70
     0
  9
$MIRRTEXT
 70
     0
  9
$LTSCALE
 40
0.7
  9
$ATTMODE
 70
     1
  9
$TEXTSIZE
 40
3.0
  9
$TRACEWID
 40
0.05
  9
$TEXTSTYLE
  7
OPNUS
  9
$CLAYER
  8
4
  9
$CELTYPE
  6
ByLayer
  9
$CECOLOR
 62
   256
  9
$CELTSCALE
 40
0.7
  9
$DISPSILH
 70
     0
  9
$DIMSCALE
 40
1.0
  9
$DIMASZ
 40
3.0
  9
$DIMEXO
 40
1.0
  9
$DIMDLI
 40
6.0
  9
$DIMRND
 40
0.0
  9
$DIMDLE
 40
0.0
  9
$DIMEXE
 40
1.0
  9
$DIMTP
 40
0.0
  9
$DIMTM
 40
0.0
  9
$DIMTXT
 40
3.0
  9
$DIMCEN
 40
0.0
  9
$DIMTSZ
 40
0.0
  9
$DIMTOL
 70
     0
  9
$DIMLIM
 70
     0
  9
$DIMTIH
 70
     0
  9
$DIMTOH
 70
     0
  9
$DIMSE1
 70
     0
  9
$DIMSE2
 70
     0
  9
$DIMTAD
 70
     1
  9
$DIMZIN
 70
     8
  9
$DIMBLK
  1

  9
$DIMASO
 70
     1
  9
$DIMSHO
 70
     1
  9
$DIMPOST
  1

  9
$DIMAPOST
  1

  9
$DIMALT
 70
     0
  9
$DIMALTD
 70
     2
  9
$DIMALTF
 40
25.4
  9
$DIMLFAC
 40
1.0
  9
$DIMTOFL
 70
     1
  9
$DIMTVP
 40
0.0
  9
$DIMTIX
 70
     0
  9
$DIMSOXD
 70
     0
  9
$DIMSAH
 70
     0
  9
$DIMBLK1
  1

  9
$DIMBLK2
  1

  9
$DIMSTYLE
  2
OPNUS
  9
$DIMCLRD
 70
     6
  9
$DIMCLRE
 70
     6
  9
$DIMCLRT
 70
     2
  9
$DIMTFAC
 40
1.0
  9
$DIMGAP
 40
0.5
  9
$DIMJUST
 70
     0
  9
$DIMSD1
 70
     0
  9
$DIMSD2
 70
     0
  9
$DIMTOLJ
 70
     1
  9
$DIMTZIN
 70
     0
  9
$DIMALTZ
 70
     0
  9
$DIMALTTZ
 70
     0
  9
$DIMUPT
 70
     0
  9
$DIMDEC
 70
     2
  9
$DIMTDEC
 70
     2
  9
$DIMALTU
 70
     2
  9
$DIMALTTD
 70
     2
  9
$DIMTXSTY
  7
OPNUS
  9
$DIMAUNIT
 70
     0
  9
$DIMADEC
 70
     2
  9
$DIMALTRND
 40
0.0
  9
$DIMAZIN
 70
     2
  9
$DIMDSEP
 70
    46
  9
$DIMATFIT
 70
     3
  9
$DIMFRAC
 70
     0
  9
$DIMLDRBLK
  1

  9
$DIMLUNIT
 70
     2
  9
$DIMLWD
 70
    15
  9
$DIMLWE
 70
    15
  9
$DIMTMOVE
 70
     0
  9
$LUNITS
 70
     2
  9
$LUPREC
 70
     3
  9
$SKETCHINC
 40
0.1
  9
$FILLETRAD
 40
0.0
  9
$AUNITS
 70
     0
  9
$AUPREC
 70
     2
  9
$MENU
  1
.
  9
$ELEVATION
 40
0.0
  9
$PELEVATION
 40
0.0
  9
$THICKNESS
 40
0.0
  9
$LIMCHECK
 70
     0
  9
$CHAMFERA
 40
0.0
  9
$CHAMFERB
 40
0.0
  9
$CHAMFERC
 40
0.0
  9
$CHAMFERD
 40
0.0
  9
$SKPOLY
 70
     0
  9
$TDCREATE
 40
2453517.385423357
  9
$TDUCREATE
 40
2453517.010423357
  9
$TDUPDATE
 40
2455896.741938113
  9
$TDUUPDATE
 40
2455896.366938113
  9
$TDINDWG
 40
0.0696198727
  9
$TDUSRTIMER
 40
0.0696196875
  9
$USRTIMER
 70
     1
  9
$ANGBASE
 50
0.0
  9
$ANGDIR
 70
     0
  9
$PDMODE
 70
     0
  9
$PDSIZE
 40
0.0
  9
$PLINEWID
 40
0.0
  9
$SPLFRAME
 70
     0
  9
$SPLINETYPE
 70
     6
  9
$SPLINESEGS
 70
     8
  9
$HANDSEED
  5
155C
  9
$SURFTAB1
 70
     6
  9
$SURFTAB2
 70
     6
  9
$SURFTYPE
 70
     6
  9
$SURFU
 70
     6
  9
$SURFV
 70
     6
  9
$UCSBASE
  2

  9
$UCSNAME
  2

  9
$UCSORG
 10
0.0
 20
0.0
 30
0.0
  9
$UCSXDIR
 10
1.0
 20
0.0
 30
0.0
  9
$UCSYDIR
 10
0.0
 20
1.0
 30
0.0
  9
$UCSORTHOREF
  2

  9
$UCSORTHOVIEW
 70
     0
  9
$UCSORGTOP
 10
0.0
 20
0.0
 30
0.0
  9
$UCSORGBOTTOM
 10
0.0
 20
0.0
 30
0.0
  9
$UCSORGLEFT
 10
0.0
 20
0.0
 30
0.0
  9
$UCSORGRIGHT
 10
0.0
 20
0.0
 30
0.0
  9
$UCSORGFRONT
 10
0.0
 20
0.0
 30
0.0
  9
$UCSORGBACK
 10
0.0
 20
0.0
 30
0.0
  9
$PUCSBASE
  2

  9
$PUCSNAME
  2

  9
$PUCSORG
 10
0.0
 20
0.0
 30
0.0
  9
$PUCSXDIR
 10
1.0
 20
0.0
 30
0.0
  9
$PUCSYDIR
 10
0.0
 20
1.0
 30
0.0
  9
$PUCSORTHOREF
  2

  9
$PUCSORTHOVIEW
 70
     0
  9
$PUCSORGTOP
 10
0.0
 20
0.0
 30
0.0
  9
$PUCSORGBOTTOM
 10
0.0
 20
0.0
 30
0.0
  9
$PUCSORGLEFT
 10
0.0
 20
0.0
 30
0.0
  9
$PUCSORGRIGHT
 10
0.0
 20
0.0
 30
0.0
  9
$PUCSORGFRONT
 10
0.0
 20
0.0
 30
0.0
  9
$PUCSORGBACK
 10
0.0
 20
0.0
 30
0.0
  9
$USERI1
 70
     1
  9
$USERI2
 70
     6
  9
$USERI3
 70
     0
  9
$USERI4
 70
     0
  9
$USERI5
 70
     0
  9
$USERR1
 40
2.0
  9
$USERR2
 40
1.5
  9
$USERR3
 40
0.0
  9
$USERR4
 40
5.0
  9
$USERR5
 40
1.0
  9
$WORLDVIEW
 70
     1
  9
$SHADEDGE
 70
     3
  9
$SHADEDIF
 70
    70
  9
$TILEMODE
 70
     1
  9
$MAXACTVP
 70
    64
  9
$PINSBASE
 10
0.0
 20
0.0
 30
0.0
  9
$PLIMCHECK
 70
     0
  9
$PEXTMIN
 10
0.0
 20
0.0
 30
0.0
  9
$PEXTMAX
 10
0.0
 20
0.0
 30
0.0
  9
$PLIMMIN
 10
0.0
 20
0.0
  9
$PLIMMAX
 10
12.0
 20
9.0
  9
$UNITMODE
 70
     0
  9
$VISRETAIN
 70
     1
  9
$PLINEGEN
 70
     0
  9
$PSLTSCALE
 70
     1
  9
$TREEDEPTH
 70
  3020
  9
$CMLSTYLE
  2
Standard
  9
$CMLJUST
 70
     0
  9
$CMLSCALE
 40
1.0
  9
$PROXYGRAPHICS
 70
     1
  9
$MEASUREMENT
 70
     1
  9
$CELWEIGHT
370
    -1
  9
$ENDCAPS
280
     0
  9
$JOINSTYLE
280
     0
  9
$LWDISPLAY
290
     0
  9
$INSUNITS
 70
     1
  9
$HYPERLINKBASE
  1

  9
$STYLESHEET
  1
MONOCHROME.CTB
  9
$XEDIT
290
     1
  9
$CEPSNTYPE
380
     0
  9
$PSTYLEMODE
290
     1
  9
$FINGERPRINTGUID
  2
{FDEAD576-A652-11D2-9A35-0060089B3A3F}
  9
$VERSIONGUID
  2
{107E9CF4-1AC0-4054-8563-01B48C93A78A}
  9
$EXTNAMES
290
     1
  9
$PSVPSCALE
 40
0.0
  9
$OLESTARTUP
290
     0
  0
ENDSEC
  0
SECTION
  2
CLASSES
  0
CLASS
  1
ACDBDICTIONARYWDFLT
  2
AcDbDictionaryWithDefault
  3
ObjectDBX Classes
 90
        0
280
     0
281
     0
  0
CLASS
  1
ACDBPLACEHOLDER
  2
AcDbPlaceHolder
  3
ObjectDBX Classes
 90
        0
280
     0
281
     0
  0
CLASS
  1
LAYOUT
  2
AcDbLayout
  3
ObjectDBX Classes
 90
        0
280
     0
281
     0
  0
CLASS
  1
DICTIONARYVAR
  2
AcDbDictionaryVar
  3
ObjectDBX Classes
 90
        0
280
     0
281
     0
  0
CLASS
  1
DIMASSOC
  2
AcDbDimAssoc
  3
"AcDbDimAssoc|Product Desc:     AcDim ARX App For Dimension|Company:          Autodesk, Inc.|WEB Address:      www.autodesk.com"
 90
    32768
280
     0
281
     0
  0
ENDSEC
  0
SECTION
  2
TABLES
  0
TABLE
  2
VPORT
  5
8
330
0
100
AcDbSymbolTable
 70
     2
  0
VPORT
  5
1554
330
8
100
AcDbSymbolTableRecord
100
AcDbViewportTableRecord
  2
*Active
 70
     0
 10
0.0
 20
0.0
 11
1.0
 21
1.0
 12
265.7418586787976
 22
202.525982247526
 13
0.0
 23
0.0
 14
0.5
 24
0.5
 15
0.5
 25
0.5
 16
0.0
 26
0.0
 36
1.0
 17
0.0
 27
0.0
 37
0.0
 40
702.167791401776
 41
1.538265306122448
 42
50.0
 43
0.0
 44
0.0
 50
0.0
 51
0.0
 71
     0
 72
  1000
 73
     1
 74
     3
 75
     0
 76
     0
 77
     0
 78
     0
281
     0
 65
     1
110
0.0
120
0.0
130
0.0
111
1.0
121
0.0
131
0.0
112
0.0
122
1.0
132
0.0
 79
     0
146
0.0
  0
ENDTAB
  0
TABLE
  2
LTYPE
  5
5
330
0
100
AcDbSymbolTable
 70
     4
  0
LTYPE
  5
14
330
5
100
AcDbSymbolTableRecord
100
AcDbLinetypeTableRecord
  2
ByBlock
 70
     0
  3

 72
    65
 73
     0
 40
0.0
  0
LTYPE
  5
15
330
5
100
AcDbSymbolTableRecord
100
AcDbLinetypeTableRecord
  2
ByLayer
 70
     0
  3

 72
    65
 73
     0
 40
0.0
  0
LTYPE
  5
16
330
5
100
AcDbSymbolTableRecord
100
AcDbLinetypeTableRecord
  2
Continuous
 70
     0
  3
Solid line
 72
    65
 73
     0
 40
0.0
  0
LTYPE
  5
10C
330
5
100
AcDbSymbolTableRecord
100
AcDbLinetypeTableRecord
  2
CENTER2
 70
     0
  3
Center (.5x) ___ _ ___ _ ___ _ ___ _ ___ _ ___
 72
    65
 73
     4
 40
28.575
 49
19.05
 74
     0
 49
-3.174999999999998
 74
     0
 49
3.174999999999998
 74
     0
 49
-3.174999999999998
 74
     0
  0
LTYPE
  5
3A1
330
5
100
AcDbSymbolTableRecord
100
AcDbLinetypeTableRecord
  2
P3
 70
     0
  3
―――  ･ ･  ―――  ･ ･  ―――  ･ ･  ―――  
 72
    65
 73
     6
 40
8.4
 49
5.599999999999998
 74
     0
 49
-0.5600000000000001
 74
     0
 49
0.5600000000000001
 74
     0
 49
-0.5600000000000001
 74
     0
 49
0.5600000000000001
 74
     0
 49
-0.5600000000000001
 74
     0
  0
LTYPE
  5
3A2
330
5
100
AcDbSymbolTableRecord
100
AcDbLinetypeTableRecord
  2
H3
 70
     0
  3
―――　　―――　　―――　　―――　　―――�80D72}
 72
    65
 73
     2
 40
1.9
 49
1.1
 74
     0
 49
-0.8
 74
     0
  0
ENDTAB
  0
TABLE
  2
LAYER
  5
2
102
{ACAD_XDICTIONARY
360
9F
102
}
330
0
100
AcDbSymbolTable
 70
     8
  0
LAYER
  5
10
330
2
100
AcDbSymbolTableRecord
100
AcDbLayerTableRecord
  2
0
 70
     0
 62
     7
  6
Continuous
370
    15
390
F
  0
LAYER
  5
90
330
2
100
AcDbSymbolTableRecord
100
AcDbLayerTableRecord
  2
2
 70
     0
 62
     2
  6
Continuous
370
    30
390
F
  0
LAYER
  5
92
330
2
100
AcDbSymbolTableRecord
100
AcDbLayerTableRecord
  2
4
 70
     0
 62
     4
  6
Continuous
370
    30
390
F
  0
LAYER
  5
93
330
2
100
AcDbSymbolTableRecord
100
AcDbLayerTableRecord
  2
5
 70
     0
 62
     5
  6
Continuous
370
    15
390
F
  0
LAYER
  5
B0
330
2
100
AcDbSymbolTableRecord
100
AcDbLayerTableRecord
  2
S
 70
     0
 62
     6
  6
Continuous
370
    15
390
F
  0
LAYER
  5
B1
330
2
100
AcDbSymbolTableRecord
100
AcDbLayerTableRecord
  2
T
 70
     0
 62
     5
  6
CENTER2
370
    15
390
F
  0
LAYER
  5
B2
330
2
100
AcDbSymbolTableRecord
100
AcDbLayerTableRecord
  2
W
 70
     0
 62
     7
  6
Continuous
370
    15
390
F
  0
LAYER
  5
E0
330
2
100
AcDbSymbolTableRecord
100
AcDbLayerTableRecord
  2
Defpoints
 70
     0
 62
     7
  6
Continuous
290
     0
370
    -3
390
F
  0
ENDTAB
  0
TABLE
  2
STYLE
  5
3
330
0
100
AcDbSymbolTable
 70
     3
  0
STYLE
  5
11
330
3
100
AcDbSymbolTableRecord
100
AcDbTextStyleTableRecord
  2
Standard
 70
     0
 40
0.0
 41
1.0
 50
0.0
 71
     0
 42
0.2
  3
MS Mincho.ttf
  4

1001
ACAD
1000
MS Mincho
1071
    32785
  0
STYLE
  5
BC
330
3
100
AcDbSymbolTableRecord
100
AcDbTextStyleTableRecord
  2
OPNUS
 70
     0
 40
0.0
 41
1.0
 50
0.0
 71
     0
 42
3.0
  3
MS PGothic.ttf
  4

1001
ACAD
1000
MS PGothic
1071
    32818
  0
STYLE
  5
3C0
330
3
100
AcDbSymbolTableRecord
100
AcDbTextStyleTableRecord
  2
SIMPLEX
 70
     0
 40
0.0
 41
1.0
 50
0.0
 71
     0
 42
4.400000000000001
  3
T:SIMPLEX
  4
T:SUG-BIG1
  0
ENDTAB
  0
TABLE
  2
VIEW
  5
6
330
0
100
AcDbSymbolTable
 70
     0
  0
ENDTAB
  0
TABLE
  2
UCS
  5
7
330
0
100
AcDbSymbolTable
 70
     0
  0
ENDTAB
  0
TABLE
  2
APPID
  5
9
330
0
100
AcDbSymbolTable
 70
     1
  0
APPID
  5
12
330
9
100
AcDbSymbolTableRecord
100
AcDbRegAppTableRecord
  2
ACAD
 70
     0
  0
ENDTAB
  0
TABLE
  2
DIMSTYLE
  5
A
330
0
100
AcDbSymbolTable
 70
     2
100
AcDbDimStyleTable
 71
     2
340
BB
340
27
  0
DIMSTYLE
105
27
330
A
100
AcDbSymbolTableRecord
100
AcDbDimStyleTableRecord
  2
Standard
 70
     0
340
11
  0
DIMSTYLE
105
BB
330
A
100
AcDbSymbolTableRecord
100
AcDbDimStyleTableRecord
  2
OPNUS
 70
     0
 41
3.0
 42
1.0
 43
6.0
 44
1.0
 73
     0
 74
     0
 77
     1
 78
     8
 79
     2
140
3.0
141
0.0
147
0.5
172
     1
176
     6
177
     6
178
     2
179
     2
271
     2
272
     2
340
BC
371
    15
372
    15
  0
ENDTAB
  0
TABLE
  2
BLOCK_RECORD
  5
1
330
0
100
AcDbSymbolTable
 70
     3
  0
BLOCK_RECORD
  5
1F
330
1
100
AcDbSymbolTableRecord
100
AcDbBlockTableRecord
  2
*Model_Space
340
22
  0
BLOCK_RECORD
  5
58
330
1
100
AcDbSymbolTableRecord
100
AcDbBlockTableRecord
  2
*Paper_Space
340
59
  0
BLOCK_RECORD
  5
21A
330
1
100
AcDbSymbolTableRecord
100
AcDbBlockTableRecord
  2
SUG-AR01
340
0
102
{BLKREFS
331
3D0
331
9DB
331
9DC
331
9E0
331
9E1
331
9E5
331
9E6
331
9EB
331
9EC
331
9F1
331
9F2
102
}
  0
BLOCK_RECORD
  5
224
330
1
100
AcDbSymbolTableRecord
100
AcDbBlockTableRecord
  2
SUG-AR06
340
0
102
{BLKREFS
331
9FF
331
A00
331
A01
331
A03
331
A04
331
A05
331
A07
331
A08
331
A09
331
A0A
331
A0B
331
A0C
331
A0D
331
A0E
331
A0F
331
A11
331
A12
331
A14
331
A15
331
A16
331
A17
331
A18
331
A1A
331
A1B
331
A1D
331
A1E
331
A1F
331
A20
331
A21
331
A23
331
A24
331
A26
331
A27
331
A29
331
A2A
331
A2C
331
A2D
331
A2E
331
A2F
331
A31
331
A32
331
A34
331
A35
331
A37
331
A38
331
A3A
331
A3B
331
A3D
331
A3E
331
A3F
331
A41
331
A42
331
A43
331
A44
331
A45
331
A46
331
A47
331
A49
331
A4A
331
A4C
331
A4D
331
A4E
331
A4F
331
A50
331
A51
331
A52
331
A54
331
A55
331
A57
331
A58
331
A5A
331
A5B
331
A5D
331
A5E
331
A60
331
A61
331
A63
331
A64
331
A65
331
A67
331
A68
331
A6A
331
A6B
331
A6C
331
A6E
331
A6F
331
A71
331
A72
331
A73
331
A75
331
A76
331
A78
331
A79
331
A7A
331
A7C
331
A7D
331
A7F
331
A80
331
A81
331
A83
331
A84
331
A86
331
A87
331
A88
331
A8A
331
A8B
331
A8D
331
A8E
331
A8F
331
A91
331
A92
331
A94
331
A95
331
A96
331
A98
331
A99
331
A9B
331
A9C
331
A9D
331
A9F
331
AA0
331
AA2
331
AA3
331
AA4
331
AA5
331
AA6
331
AA8
331
AA9
331
AAA
331
AAB
331
AAC
331
AAE
331
AAF
331
AB1
331
AB2
331
AB4
331
AB5
331
AB7
331
AB8
331
ABA
331
ABB
331
ABD
331
ABE
331
AC0
331
AC1
331
AC3
331
AC4
331
AC6
331
AC7
331
AC9
331
ACA
331
ACC
331
ACD
331
ACE
331
AD0
331
AD1
331
AD3
331
AD4
331
AD6
331
AD7
331
AD8
331
AD9
331
ADB
331
ADC
331
ADD
331
ADE
331
ADF
331
AE0
331
AE2
331
AE3
331
AE4
331
AE5
331
AE6
331
AE8
331
AE9
331
AEB
331
AEC
331
AED
331
AEE
331
AEF
331
AF1
331
AF2
331
AF3
331
AF4
331
AF5
331
AF7
331
AF8
331
AFA
331
AFB
331
AFD
331
AFE
331
B00
331
B01
331
B02
331
B03
331
B04
331
B06
331
B07
331
B09
331
B0A
331
B0B
331
B0C
331
B0D
331
B0E
331
B10
331
B11
331
B13
331
B14
331
B16
331
B17
331
B19
331
B1A
331
B1C
331
B1D
331
B1F
331
B20
331
B22
331
B23
331
B25
331
B26
331
B28
331
B29
331
B2B
331
B2C
331
B2E
331
B2F
331
B30
331
B32
331
B33
331
B35
331
B36
331
B38
331
B39
331
B3B
331
B3C
331
B3D
331
B3E
331
B40
331
B41
331
B43
331
B44
331
B45
331
B46
331
B48
331
B49
331
B4B
331
B4C
331
B4D
331
B4F
331
B50
331
B53
331
B54
331
B55
331
B56
331
B57
331
B58
331
B5A
331
B5B
331
B5D
331
B5E
331
B60
331
B61
331
B63
331
B64
331
B66
331
B67
331
B69
331
B6A
331
B6C
331
B6D
331
B6F
331
B70
331
B72
331
B73
331
B75
331
B76
331
B78
331
B79
331
B7A
331
B7C
331
B7D
331
B7F
331
B80
331
B82
331
B83
331
B84
331
B85
331
B87
331
B88
331
B89
331
B8A
331
B8B
331
B8C
331
B8E
331
B8F
331
B90
331
B91
331
B92
331
B94
331
B95
331
B97
331
B98
331
B99
331
B9A
331
B9B
331
B9D
331
B9E
331
B9F
331
BA0
331
BA1
331
BA3
331
BA4
331
BA6
331
BA7
331
BA9
331
BAA
331
BAC
331
BAD
331
BAE
331
BAF
331
BB0
331
BB2
331
BB3
331
BB5
331
BB6
331
BB7
331
BB8
331
BB9
331
BBA
331
BBC
331
BBD
331
BBF
331
BC0
331
BC2
331
BC3
331
BC5
331
BC6
331
BC8
331
BC9
331
BCB
331
BCC
331
BCE
331
BCF
331
BD1
331
BD2
331
BD4
331
BD5
331
BD7
331
BD8
331
BDA
331
BDB
331
BDC
331
BDE
331
BDF
331
BE1
331
BE2
331
BE4
331
BE5
331
BE7
331
BE8
331
BE9
331
BEA
331
BEC
331
BED
331
BEF
331
BF0
331
BF2
331
BF3
331
BF5
331
BF6
331
BF7
331
BF8
331
BF9
331
BFB
331
BFC
331
BFD
331
BFE
331
BFF
331
C00
331
C02
331
C03
331
C04
331
C05
331
C06
331
C07
331
C09
331
C0A
331
C0B
331
C0C
331
C0D
331
C0F
331
C10
331
C14
331
C15
331
C16
331
C17
331
C18
331
C1A
331
C1B
331
C1D
331
C1E
331
C1F
331
C20
331
C21
331
C22
331
C23
331
C25
331
C26
331
C28
331
C29
331
C2B
331
C2C
331
C2E
331
C2F
331
C31
331
C32
331
C34
331
C35
331
C37
331
C38
331
C3A
331
C3B
331
C3D
331
C3E
331
C40
331
C41
331
C43
331
C44
331
C45
331
C47
331
C48
331
C4A
331
C4B
331
C4D
331
C4E
331
C50
331
C51
331
C52
331
C53
331
C55
331
C56
331
C58
331
C59
331
C5B
331
C5C
331
C5E
331
C5F
331
C60
331
C61
331
C62
331
C64
331
C65
331
C66
331
C67
331
C68
331
C69
331
C6B
331
C6C
331
C6E
331
C6F
331
C70
331
C71
331
C72
331
C73
331
C75
331
C76
331
C77
331
C78
331
C7A
331
C7B
331
C7D
331
C7E
331
C7F
331
C80
331
C81
331
C82
331
C84
331
C85
331
C89
331
C8A
331
C8B
331
C8C
331
C8D
331
C8E
331
C90
331
C91
331
C92
331
C94
331
C95
331
C96
331
C98
331
C99
331
C9A
331
C9B
331
C9C
331
C9D
331
C9E
331
CA0
331
CA1
331
CA2
331
CA3
331
CA5
331
CA6
331
CA7
331
134C
331
134D
331
134E
331
134F
331
1350
331
1351
331
1248
331
1249
102
}
  0
BLOCK_RECORD
  5
227
330
1
100
AcDbSymbolTableRecord
100
AcDbBlockTableRecord
  2
TEXT-E13
340
0
  0
ENDTAB
  0
ENDSEC
  0
SECTION
  2
BLOCKS
  0
BLOCK
  5
20
330
1F
100
AcDbEntity
  8
0
100
AcDbBlockBegin
  2
*Model_Space
 70
     0
 10
0.0
 20
0.0
 30
0.0
  3
*Model_Space
  1

  0
ENDBLK
  5
21
330
1F
100
AcDbEntity
  8
0
100
AcDbBlockEnd
  0
BLOCK
  5
5A
330
58
100
AcDbEntity
 67
     1
  8
0
100
AcDbBlockBegin
  2
*Paper_Space
 70
     0
 10
0.0
 20
0.0
 30
0.0
  3
*Paper_Space
  1

  0
ENDBLK
  5
5B
330
58
100
AcDbEntity
 67
     1
  8
0
100
AcDbBlockEnd
  0
BLOCK
  5
21B
330
21A
100
AcDbEntity
  8
0
100
AcDbBlockBegin
  2
SUG-AR01
 70
     0
 10
0.0
 20
0.0
 30
0.0
  3
SUG-AR01
  1

  0
LINE
  5
21C
330
21A
100
AcDbEntity
  8
0
100
AcDbLine
 10
0.0
 20
0.0
 30
0.0
 11
5.0
 21
1.339745962155659
 31
0.0
  0
LINE
  5
21D
330
21A
100
AcDbEntity
  8
0
100
AcDbLine
 10
5.0
 20
-1.339745962155659
 30
0.0
 11
5.0
 21
1.339745962155659
 31
0.0
  0
LINE
  5
21E
330
21A
100
AcDbEntity
  8
0
100
AcDbLine
 10
0.0
 20
0.0
 30
0.0
 11
5.0
 21
-1.339745962155659
 31
0.0
  0
ENDBLK
  5
21F
330
21A
100
AcDbEntity
  8
0
100
AcDbBlockEnd
  0
BLOCK
  5
225
330
224
100
AcDbEntity
  8
0
100
AcDbBlockBegin
  2
SUG-AR06
 70
     0
 10
0.0
 20
0.0
 30
0.0
  3
SUG-AR06
  1

  0
ENDBLK
  5
226
330
224
100
AcDbEntity
  8
0
100
AcDbBlockEnd
  0
BLOCK
  5
228
330
227
100
AcDbEntity
  8
0
100
AcDbBlockBegin
  2
TEXT-E13
 70
     0
 10
0.0
 20
0.0
 30
0.0
  3
TEXT-E13
  1

  0
LINE
  5
229
330
227
100
AcDbEntity
  8
2
100
AcDbLine
 10
19.68105735481166
 20
13.84944373708833
 30
0.0
 11
21.50877195848265
 21
13.84944373708833
 31
0.0
  0
ARC
  5
22A
330
227
100
AcDbEntity
  8
2
100
AcDbCircle
 10
21.00588342584004
 20
14.68599373708832
 30
0.0
 40
1.286999999999999
100
AcDbArc
 50
90.0
 51
141.3178125465106
  0
LINE
  5
22B
330
227
100
AcDbEntity
  8
2
100
AcDbLine
 10
19.60594904703728
 20
14.36424373708848
 30
0.0
 11
22.17994904703695
 21
14.36424373708848
 31
0.0
  0
LINE
  5
22C
330
227
100
AcDbEntity
  8
2
100
AcDbLine
 10
19.605949047037
 20
11.14674373708851
 30
0.0
 11
21.21469904703699
 21
11.14674373708851
 31
0.0
  0
LINE
  5
22D
330
227
100
AcDbEntity
  8
2
100
AcDbLine
 10
19.605949047037
 20
9.537993737088411
 30
0.0
 11
21.39140200369386
 21
9.537993737088411
 31
0.0
  0
LINE
  5
22E
330
227
100
AcDbEntity
  8
2
100
AcDbLine
 10
21.5024386820526
 20
11.94376422766879
 30
0.0
 11
20.25679050697446
 21
12.97796177476709
 31
0.0
  0
TEXT
  5
22F
330
227
100
AcDbEntity
  8
S
 62
     2
100
AcDbText
 10
3.476832448861812
 20
1.9735989062234
 30
0.0
 40
4.0
  1
株式会社
  7
SIMPLEX
100
AcDbText
  0
TEXT
  5
230
330
227
100
AcDbEntity
  8
S
 62
     2
100
AcDbText
 10
3.776832448861823
 20
1.9735989062234
 30
0.0
 40
4.0
  1
株式会社
  7
SIMPLEX
100
AcDbText
  0
LINE
  5
231
330
227
100
AcDbEntity
  8
2
100
AcDbLine
 10
9.368743363377886
 20
13.84944373708833
 30
0.0
 11
10.6841980406767
 21
13.84944373708833
 31
0.0
  0
ARC
  5
232
330
227
100
AcDbEntity
  8
2
100
AcDbCircle
 10
7.508149047036994
 20
13.33464373708841
 30
0.0
 40
3.217499999999999
100
AcDbArc
 50
18.66292488494247
 51
44.4270040008057
  0
LINE
  5
233
330
227
100
AcDbEntity
  8
2
100
AcDbLine
 10
6.478549047036977
 20
14.36424373708848
 30
0.0
 11
10.55646499030794
 21
14.36424373708848
 31
0.0
  0
ARC
  5
234
330
227
100
AcDbEntity
  8
2
100
AcDbCircle
 10
7.508149047036994
 20
13.33464373708841
 30
0.0
 40
3.217499999999999
100
AcDbArc
 50
315.5729959991943
 51
9.206896221345896
  0
ARC
  5
235
330
227
100
AcDbEntity
  8
2
100
AcDbCircle
 10
7.508149047036994
 20
13.33464373708841
 30
0.0
 40
1.9305
100
AcDbArc
 50
342.5423968762779
 51
15.46600995342055
  0
ARC
  5
236
330
227
100
AcDbEntity
  8
2
100
AcDbCircle
 10
8.886801805167152
 20
14.68599373708832
 30
0.0
 40
1.286999999999999
100
AcDbArc
 50
44.42700400080575
 51
90.0
  0
LINE
  5
237
330
227
100
AcDbEntity
  8
2
100
AcDbLine
 10
6.478549047036977
 20
13.84944373708833
 30
0.0
 11
7.765549047036955
 21
13.84944373708833
 31
0.0
  0
LINE
  5
238
330
227
100
AcDbEntity
  8
2
100
AcDbLine
 10
6.478549047036977
 20
14.36424373708848
 30
0.0
 11
6.478549047036977
 21
15.97299373708836
 31
0.0
  0
ARC
  5
239
330
227
100
AcDbEntity
  8
2
100
AcDbCircle
 10
2.231449047036988
 20
12.75549373708839
 30
0.0
 40
3.861000000000009
100
AcDbArc
 50
24.62431835216174
 51
43.00286864809488
  0
LINE
  5
23A
330
227
100
AcDbEntity
  8
2
100
AcDbLine
 10
6.478549047036977
 20
15.97299373708836
 30
0.0
 11
8.886801805167152
 21
15.97299373708836
 31
0.0
  0
ARC
  5
23B
330
227
100
AcDbEntity
  8
2
100
AcDbCircle
 10
3.711499047036993
 20
13.56446516565972
 30
0.0
 40
0.7997785714285862
100
AcDbArc
 50
90.0
 51
140.0337869562028
  0
LINE
  5
23C
330
227
100
AcDbEntity
  8
2
100
AcDbLine
 10
3.711499047036993
 20
14.36424373708848
 30
0.0
 11
5.741327169921048
 21
14.36424373708848
 31
0.0
  0
ARC
  5
23D
330
227
100
AcDbEntity
  8
2
100
AcDbCircle
 10
3.711499047036993
 20
14.13580123708846
 30
0.0
 40
1.837192500000036
100
AcDbArc
 50
43.00286864809488
 51
136.997131351905
  0
LINE
  5
23E
330
227
100
AcDbEntity
  8
2
100
AcDbLine
 10
4.490834395336236
 20
13.84944373708833
 30
0.0
 11
5.934231027858999
 21
13.84944373708833
 31
0.0
  0
ARC
  5
23F
330
227
100
AcDbEntity
  8
2
100
AcDbCircle
 10
8.886801805167152
 20
11.9832937370885
 30
0.0
 40
1.286999999999999
100
AcDbArc
 50
270.0
 51
315.5729959991942
  0
LINE
  5
240
330
227
100
AcDbEntity
  8
2
100
AcDbLine
 10
7.765549047036955
 20
12.30504373708834
 30
0.0
 11
8.735868799260599
 21
12.30504373708834
 31
0.0
  0
LINE
  5
241
330
227
100
AcDbEntity
  8
2
100
AcDbLine
 10
6.478549047036977
 20
9.537993737088411
 30
0.0
 11
7.765549047036955
 21
9.537993737088411
 31
0.0
  0
LINE
  5
242
330
227
100
AcDbEntity
  8
2
100
AcDbLine
 10
7.765549047036955
 20
9.537993737088411
 30
0.0
 11
7.765549047036955
 21
10.69629373708846
 31
0.0
  0
LINE
  5
243
330
227
100
AcDbEntity
  8
2
100
AcDbLine
 10
7.765549047036955
 20
10.69629373708846
 30
0.0
 11
8.886801805167152
 21
10.69629373708846
 31
0.0
  0
ARC
  5
244
330
227
100
AcDbEntity
  8
2
100
AcDbCircle
 10
3.711499047036993
 20
11.94652230851704
 30
0.0
 40
0.7997785714285809
100
AcDbArc
 50
219.9662130438002
 51
320.0337869561998
  0
ARC
  5
245
330
227
100
AcDbEntity
  8
2
100
AcDbCircle
 10
3.711499047036993
 20
11.37518623708854
 30
0.0
 40
1.83719250000003
100
AcDbArc
 50
223.0028686480949
 51
316.9971313519052
  0
LINE
  5
246
330
227
100
AcDbEntity
  8
2
100
AcDbLine
 10
7.765549047036955
 20
12.30504373708834
 30
0.0
 11
7.765549047036955
 21
13.84944373708833
 31
0.0
  0
LINE
  5
247
330
227
100
AcDbEntity
  8
2
100
AcDbLine
 10
6.478549047036977
 20
9.537993737088411
 30
0.0
 11
6.478549047036977
 21
13.84944373708833
 31
0.0
  0
ARC
  5
248
330
227
100
AcDbEntity
  8
2
100
AcDbCircle
 10
2.746249047036968
 20
12.75549373708839
 30
0.0
 40
2.0592
100
AcDbArc
 50
320.0337869562001
 51
32.08995125628041
  0
ARC
  5
249
330
227
100
AcDbEntity
  8
2
100
AcDbCircle
 10
4.676749047036962
 20
12.75549373708839
 30
0.0
 40
2.0592
100
AcDbArc
 50
140.0337869562019
 51
219.9662130437999
  0
ARC
  5
24A
330
227
100
AcDbEntity
  8
2
100
AcDbCircle
 10
5.191549047037
 20
12.75549373708839
 30
0.0
 40
3.861000000000004
100
AcDbArc
 50
136.997131351905
 51
223.002868648095
  0
ARC
  5
24B
330
227
100
AcDbEntity
  8
2
100
AcDbCircle
 10
2.231449047036988
 20
12.75549373708839
 30
0.0
 40
3.861000000000009
100
AcDbArc
 50
315.5798432416822
 51
16.4592496282602
  0
ARC
  5
24C
330
227
100
AcDbEntity
  8
2
100
AcDbCircle
 10
8.735868799260599
 20
12.94854373708847
 30
0.0
 40
0.6435000000000001
100
AcDbArc
 50
270.0
 51
342.5423968762779
  0
ARC
  5
24D
330
227
100
AcDbEntity
  8
2
100
AcDbCircle
 10
21.40774904703696
 20
14.36424373708848
 30
0.0
 40
1.8018
100
AcDbArc
 50
196.6015495990203
 51
230.2988970429413
  0
ARC
  5
24E
330
227
100
AcDbEntity
  8
2
100
AcDbCircle
 10
21.40774904703696
 20
14.36424373708848
 30
0.0
 40
1.8018
100
AcDbArc
 50
141.3178125465106
 51
180.0
  0
LINE
  5
24F
330
227
100
AcDbEntity
  8
2
100
AcDbLine
 10
19.219849047037
 20
15.97299373708836
 30
0.0
 11
17.93284904703696
 21
15.97299373708836
 31
0.0
  0
LINE
  5
250
330
227
100
AcDbEntity
  8
2
100
AcDbLine
 10
16.64584904703699
 20
15.97299373708836
 30
0.0
 11
15.35884904703701
 21
15.97299373708836
 31
0.0
  0
ARC
  5
251
330
227
100
AcDbEntity
  8
2
100
AcDbCircle
 10
13.04224904703696
 20
14.36424373708848
 30
0.0
 40
1.9305
100
AcDbArc
 50
0.0
 51
29.99999999999925
  0
ARC
  5
252
330
227
100
AcDbEntity
  8
2
100
AcDbCircle
 10
13.59953639437228
 20
14.68599373708832
 30
0.0
 40
1.286999999999999
100
AcDbArc
 50
29.99999999999893
 51
90.0
  0
LINE
  5
253
330
227
100
AcDbEntity
  8
2
100
AcDbLine
 10
19.219849047037
 20
10.82499373708845
 30
0.0
 11
19.219849047037
 21
9.537993737088411
 31
0.0
  0
LINE
  5
254
330
227
100
AcDbEntity
  8
2
100
AcDbLine
 10
19.219849047037
 20
11.14674373708851
 30
0.0
 11
19.219849047037
 21
10.82499373708845
 31
0.0
  0
LINE
  5
255
330
227
100
AcDbEntity
  8
2
100
AcDbLine
 10
19.605949047037
 20
9.537993737088411
 30
0.0
 11
19.605949047037
 21
11.14674373708851
 31
0.0
  0
LINE
  5
256
330
227
100
AcDbEntity
  8
2
100
AcDbLine
 10
19.219849047037
 20
11.66154373708844
 30
0.0
 11
17.93284904703696
 21
11.66154373708844
 31
0.0
  0
ARC
  5
257
330
227
100
AcDbEntity
  8
2
100
AcDbCircle
 10
17.28934904703701
 20
11.14674373708851
 30
0.0
 40
1.9305
100
AcDbArc
 50
180.0
 51
209.9999999999992
  0
ARC
  5
258
330
227
100
AcDbEntity
  8
2
100
AcDbCircle
 10
16.73206169970169
 20
10.82499373708845
 30
0.0
 40
1.286999999999999
100
AcDbArc
 50
209.9999999999989
 51
270.0
  0
LINE
  5
259
330
227
100
AcDbEntity
  8
2
100
AcDbLine
 10
13.68574904703698
 20
9.537993737088411
 30
0.0
 11
14.97274904703695
 21
9.537993737088411
 31
0.0
  0
LINE
  5
25A
330
227
100
AcDbEntity
  8
2
100
AcDbLine
 10
19.219849047037
 20
9.537993737088411
 30
0.0
 11
16.73206169970169
 21
9.537993737088411
 31
0.0
  0
LINE
  5
25B
330
227
100
AcDbEntity
  8
2
100
AcDbLine
 10
19.219849047037
 20
11.14674373708851
 30
0.0
 11
16.64584904703699
 21
11.14674373708851
 31
0.0
  0
LINE
  5
25C
330
227
100
AcDbEntity
  8
2
100
AcDbLine
 10
19.219849047037
 20
15.97299373708836
 30
0.0
 11
19.219849047037
 21
11.66154373708844
 31
0.0
  0
LINE
  5
25D
330
227
100
AcDbEntity
  8
2
100
AcDbLine
 10
17.93284904703696
 20
15.97299373708836
 30
0.0
 11
17.93284904703696
 21
11.66154373708844
 31
0.0
  0
LINE
  5
25E
330
227
100
AcDbEntity
  8
2
100
AcDbLine
 10
16.64584904703699
 20
15.97299373708836
 30
0.0
 11
16.64584904703699
 21
11.14674373708851
 31
0.0
  0
LINE
  5
25F
330
227
100
AcDbEntity
  8
2
100
AcDbLine
 10
15.35884904703701
 20
15.97299373708836
 30
0.0
 11
15.35884904703695
 21
11.14674373708851
 31
0.0
  0
LINE
  5
260
330
227
100
AcDbEntity
  8
2
100
AcDbLine
 10
14.97274904703695
 20
9.537993737088411
 30
0.0
 11
14.97274904703695
 21
14.36424373708848
 31
0.0
  0
LINE
  5
261
330
227
100
AcDbEntity
  8
2
100
AcDbLine
 10
13.68574904703698
 20
9.537993737088411
 30
0.0
 11
13.68574904703698
 21
14.36424373708848
 31
0.0
  0
LINE
  5
262
330
227
100
AcDbEntity
  8
2
100
AcDbLine
 10
11.11174904703696
 20
14.36424373708848
 30
0.0
 11
12.398749047037
 21
14.36424373708848
 31
0.0
  0
LINE
  5
263
330
227
100
AcDbEntity
  8
2
100
AcDbLine
 10
11.11174904703696
 20
14.36424373708848
 30
0.0
 11
11.11174904703696
 21
14.68599373708832
 31
0.0
  0
LINE
  5
264
330
227
100
AcDbEntity
  8
2
100
AcDbLine
 10
11.11174904703696
 20
13.84944373708833
 30
0.0
 11
12.398749047037
 21
13.84944373708833
 31
0.0
  0
LINE
  5
265
330
227
100
AcDbEntity
  8
2
100
AcDbLine
 10
11.11174904703696
 20
14.68599373708832
 30
0.0
 11
11.11174904703696
 21
15.97299373708836
 31
0.0
  0
LINE
  5
266
330
227
100
AcDbEntity
  8
2
100
AcDbLine
 10
11.11174904703696
 20
9.537993737088411
 30
0.0
 11
12.398749047037
 21
9.537993737088411
 31
0.0
  0
LINE
  5
267
330
227
100
AcDbEntity
  8
2
100
AcDbLine
 10
12.398749047037
 20
9.537993737088411
 30
0.0
 11
12.398749047037
 21
13.84944373708833
 31
0.0
  0
LINE
  5
268
330
227
100
AcDbEntity
  8
2
100
AcDbLine
 10
11.11174904703696
 20
9.537993737088411
 30
0.0
 11
11.11174904703696
 21
13.84944373708833
 31
0.0
  0
LINE
  5
269
330
227
100
AcDbEntity
  8
2
100
AcDbLine
 10
11.11174904703696
 20
15.97299373708836
 30
0.0
 11
13.59953639437228
 21
15.97299373708836
 31
0.0
  0
LINE
  5
26A
330
227
100
AcDbEntity
  8
2
100
AcDbLine
 10
11.11174904703696
 20
14.36424373708848
 30
0.0
 11
13.68574904703698
 21
14.36424373708848
 31
0.0
  0
LINE
  5
26B
330
227
100
AcDbEntity
  8
2
100
AcDbLine
 10
39.64066169970175
 20
9.537993737088411
 30
0.0
 11
42.25714904703699
 21
9.537993737088411
 31
0.0
  0
LINE
  5
26C
330
227
100
AcDbEntity
  8
2
100
AcDbLine
 10
38.26744904703703
 20
11.14674373708851
 30
0.0
 11
42.25714904703699
 21
11.14674373708851
 31
0.0
  0
TEXT
  5
26D
330
227
100
AcDbEntity
  8
S
 62
     2
100
AcDbText
 10
24.11492098289941
 20
1.191892563892337
 30
0.0
 40
6.0
  1
オプナス
  7
SIMPLEX
100
AcDbText
  0
TEXT
  5
26E
330
227
100
AcDbEntity
  8
S
 62
     2
100
AcDbText
 10
24.41492098289942
 20
1.191892563892337
 30
0.0
 40
6.0
  1
オプナス
  7
SIMPLEX
100
AcDbText
  0
TEXT
  5
26F
330
227
100
AcDbEntity
  8
S
 62
     2
100
AcDbText
 10
24.11492098289941
 20
1.391892563892382
 30
0.0
 40
6.0
  1
オプナス
  7
SIMPLEX
100
AcDbText
  0
TEXT
  5
270
330
227
100
AcDbEntity
  8
S
 62
     2
100
AcDbText
 10
24.41492098289942
 20
1.391892563892382
 30
0.0
 40
6.0
  1
オプナス
  7
SIMPLEX
100
AcDbText
  0
LINE
  5
271
330
227
100
AcDbEntity
  8
2
100
AcDbLine
 10
36.45097317862138
 20
8.986422308517035
 30
0.0
 11
36.72756953884249
 21
9.569538635724368
 31
0.0
  0
LINE
  5
272
330
227
100
AcDbEntity
  8
2
100
AcDbLine
 10
36.916099047037
 20
8.765793737088529
 30
0.0
 11
37.43936564900463
 21
9.868936594231287
 31
0.0
  0
LINE
  5
273
330
227
100
AcDbEntity
  8
2
100
AcDbLine
 10
36.916099047037
 20
8.765793737088529
 30
0.0
 11
36.45097317862138
 21
8.986422308517035
 31
0.0
  0
ARC
  5
274
330
227
100
AcDbEntity
  8
2
100
AcDbCircle
 10
34.14904904703695
 20
12.75549373708839
 30
0.0
 40
3.861000000000004
100
AcDbArc
 50
136.997131351905
 51
223.002868648095
  0
ARC
  5
275
330
227
100
AcDbEntity
  8
2
100
AcDbCircle
 10
27.52099904703701
 20
14.13580123708846
 30
0.0
 40
1.837192500000036
100
AcDbArc
 50
43.00286864809488
 51
136.997131351905
  0
ARC
  5
276
330
227
100
AcDbEntity
  8
2
100
AcDbCircle
 10
27.52099904703701
 20
13.56446516565972
 30
0.0
 40
0.7997785714285862
100
AcDbArc
 50
42.70009742764695
 51
90.0
  0
ARC
  5
277
330
227
100
AcDbEntity
  8
2
100
AcDbCircle
 10
29.00104904703701
 20
12.75549373708839
 30
0.0
 40
3.861000000000004
100
AcDbArc
 50
136.997131351905
 51
155.3756816478381
  0
LINE
  5
278
330
227
100
AcDbEntity
  8
2
100
AcDbLine
 10
25.49117092415296
 20
14.36424373708848
 30
0.0
 11
27.52099904703701
 21
14.36424373708848
 31
0.0
  0
LINE
  5
279
330
227
100
AcDbEntity
  8
2
100
AcDbLine
 10
25.29826706621501
 20
13.84944373708833
 30
0.0
 11
26.74166369873788
 21
13.84944373708833
 31
0.0
  0
LINE
  5
27A
330
227
100
AcDbEntity
  8
2
100
AcDbLine
 10
21.62615655656694
 20
13.68108331659107
 30
0.0
 11
22.55581922202745
 21
12.90923226949428
 31
0.0
  0
LINE
  5
27B
330
227
100
AcDbEntity
  8
2
100
AcDbLine
 10
22.17994904703695
 20
14.36424373708848
 30
0.0
 11
22.17994904703695
 21
15.97299373708836
 31
0.0
  0
ARC
  5
27C
330
227
100
AcDbEntity
  8
2
100
AcDbCircle
 10
21.87279052943748
 20
13.97814373708832
 30
0.0
 40
0.3861
100
AcDbArc
 50
199.4712206344909
 51
230.2988970429413
  0
LINE
  5
27D
330
227
100
AcDbEntity
  8
2
100
AcDbLine
 10
21.00588342584004
 20
15.97299373708836
 30
0.0
 11
22.17994904703695
 21
15.97299373708836
 31
0.0
  0
ARC
  5
27E
330
227
100
AcDbEntity
  8
2
100
AcDbCircle
 10
27.52099904703701
 20
11.37518623708854
 30
0.0
 40
1.83719250000003
100
AcDbArc
 50
223.0028686480949
 51
316.9971313519052
  0
ARC
  5
27F
330
227
100
AcDbEntity
  8
2
100
AcDbCircle
 10
27.52099904703701
 20
11.94652230851704
 30
0.0
 40
0.7997785714285809
100
AcDbArc
 50
219.9662130438002
 51
317.2999025723527
  0
ARC
  5
280
330
227
100
AcDbEntity
  8
2
100
AcDbCircle
 10
20.89294904703698
 20
11.46849373708834
 30
0.0
 40
2.3166
100
AcDbArc
 50
345.5224878140707
 51
6.072222391826212
  0
ARC
  5
281
330
227
100
AcDbEntity
  8
2
100
AcDbCircle
 10
21.21469904703699
 20
11.59719373708833
 30
0.0
 40
0.4504500000000001
100
AcDbArc
 50
270.0
 51
50.2988970429412
  0
ARC
  5
282
330
227
100
AcDbEntity
  8
2
100
AcDbCircle
 10
21.39140200369386
 20
11.33979373708837
 30
0.0
 40
1.8018
100
AcDbArc
 50
270.0
 51
345.5224878140709
  0
ARC
  5
283
330
227
100
AcDbEntity
  8
2
100
AcDbCircle
 10
28.48624904703698
 20
12.75549373708839
 30
0.0
 40
2.0592
100
AcDbArc
 50
147.9100487437197
 51
219.9662130437999
  0
ARC
  5
284
330
227
100
AcDbEntity
  8
2
100
AcDbCircle
 10
29.00104904703701
 20
12.75549373708839
 30
0.0
 40
3.861000000000004
100
AcDbArc
 50
163.5407503717398
 51
223.002868648095
  0
ARC
  5
285
330
227
100
AcDbEntity
  8
2
100
AcDbCircle
 10
21.40486068196495
 20
11.52295030717312
 30
0.0
 40
1.8018
100
AcDbArc
 50
6.072222391826098
 51
50.29889704294132
  0
LINE
  5
286
330
227
100
AcDbEntity
  8
2
100
AcDbLine
 10
28.10876706979033
 20
14.10684373708852
 30
0.0
 11
29.65773963780944
 21
14.10684373708852
 31
0.0
  0
ARC
  5
287
330
227
100
AcDbEntity
  8
2
100
AcDbCircle
 10
26.040949047037
 20
12.75549373708839
 30
0.0
 40
3.861000000000009
100
AcDbArc
 50
20.48731511472257
 51
43.00286864809499
  0
ARC
  5
288
330
227
100
AcDbEntity
  8
2
100
AcDbCircle
 10
26.040949047037
 20
12.75549373708839
 30
0.0
 40
3.861000000000009
100
AcDbArc
 50
315.5798432416822
 51
339.5126848852774
  0
LINE
  5
289
330
227
100
AcDbEntity
  8
2
100
AcDbLine
 10
28.10876706979028
 20
11.40414373708847
 30
0.0
 11
29.65773963780944
 21
11.40414373708847
 31
0.0
  0
LINE
  5
28A
330
227
100
AcDbEntity
  8
2
100
AcDbLine
 10
38.26744904703703
 20
15.97299373708836
 30
0.0
 11
39.55444904703706
 21
15.97299373708836
 31
0.0
  0
ARC
  5
28B
330
227
100
AcDbEntity
  8
2
100
AcDbCircle
 10
31.18894904703694
 20
12.75549373708839
 30
0.0
 40
3.861000000000009
100
AcDbArc
 50
24.62431835216174
 51
43.00286864809488
  0
LINE
  5
28C
330
227
100
AcDbEntity
  8
2
100
AcDbLine
 10
33.4483343953363
 20
13.84944373708833
 30
0.0
 11
34.89173102785894
 21
13.84944373708833
 31
0.0
  0
ARC
  5
28D
330
227
100
AcDbEntity
  8
2
100
AcDbCircle
 10
32.66899904703695
 20
13.56446516565972
 30
0.0
 40
0.7997785714285862
100
AcDbArc
 50
90.0
 51
140.0337869562028
  0
ARC
  5
28E
330
227
100
AcDbEntity
  8
2
100
AcDbCircle
 10
32.66899904703695
 20
14.13580123708846
 30
0.0
 40
1.837192500000036
100
AcDbArc
 50
43.00286864809488
 51
136.997131351905
  0
LINE
  5
28F
330
227
100
AcDbEntity
  8
2
100
AcDbLine
 10
32.66899904703695
 20
14.36424373708848
 30
0.0
 11
34.698827169921
 21
14.36424373708848
 31
0.0
  0
LINE
  5
290
330
227
100
AcDbEntity
  8
2
100
AcDbLine
 10
38.26744904703703
 20
11.66154373708844
 30
0.0
 11
39.55444904703706
 21
11.66154373708844
 31
0.0
  0
ARC
  5
291
330
227
100
AcDbEntity
  8
2
100
AcDbCircle
 10
39.64066169970175
 20
10.82499373708845
 30
0.0
 40
1.286999999999999
100
AcDbArc
 50
209.9999999999989
 51
270.0
  0
LINE
  5
292
330
227
100
AcDbEntity
  8
2
100
AcDbLine
 10
37.49524904703703
 20
10.24584373708842
 30
0.0
 11
37.49524904703703
 21
10.11714373708844
 31
0.0
  0
ARC
  5
293
330
227
100
AcDbEntity
  8
2
100
AcDbCircle
 10
36.916099047037
 20
10.11714373708844
 30
0.0
 40
0.5791500000000022
100
AcDbArc
 50
334.6230664748516
 51
0.0
  0
ARC
  5
294
330
227
100
AcDbEntity
  8
2
100
AcDbCircle
 10
40.19794904703696
 20
11.14674373708851
 30
0.0
 40
1.9305
100
AcDbArc
 50
180.0
 51
209.9999999999992
  0
LINE
  5
295
330
227
100
AcDbEntity
  8
2
100
AcDbLine
 10
34.79254904703696
 20
10.24584373708842
 30
0.0
 11
34.79254904703696
 21
10.11714373708844
 31
0.0
  0
LINE
  5
296
330
227
100
AcDbEntity
  8
2
100
AcDbLine
 10
35.95084904703703
 20
10.24584373708842
 30
0.0
 11
35.95084904703703
 21
10.11714373708844
 31
0.0
  0
ARC
  5
297
330
227
100
AcDbEntity
  8
2
100
AcDbCircle
 10
35.371699047037
 20
10.24584373708842
 30
0.0
 40
0.5791499999999962
100
AcDbArc
 50
0.0
 51
180.0
  0
ARC
  5
298
330
227
100
AcDbEntity
  8
2
100
AcDbCircle
 10
35.371699047037
 20
10.11714373708844
 30
0.0
 40
0.5791500000000022
100
AcDbArc
 50
179.9999999999996
 51
0.0
  0
ARC
  5
299
330
227
100
AcDbEntity
  8
2
100
AcDbCircle
 10
36.916099047037
 20
10.11714373708844
 30
0.0
 40
0.5791500000000022
100
AcDbArc
 50
179.9999999999996
 51
251.0024366832901
  0
LINE
  5
29A
330
227
100
AcDbEntity
  8
2
100
AcDbLine
 10
36.33694904703697
 20
10.24584373708842
 30
0.0
 11
36.33694904703697
 21
10.11714373708844
 31
0.0
  0
ARC
  5
29B
330
227
100
AcDbEntity
  8
2
100
AcDbCircle
 10
32.66899904703695
 20
11.94652230851704
 30
0.0
 40
0.7997785714285809
100
AcDbArc
 50
219.9662130438002
 51
320.0337869561998
  0
ARC
  5
29C
330
227
100
AcDbEntity
  8
2
100
AcDbCircle
 10
32.66899904703695
 20
11.37518623708854
 30
0.0
 40
1.83719250000003
100
AcDbArc
 50
223.0028686480949
 51
316.9971313519052
  0
ARC
  5
29D
330
227
100
AcDbEntity
  8
2
100
AcDbCircle
 10
36.916099047037
 20
10.24584373708842
 30
0.0
 40
0.5791499999999962
100
AcDbArc
 50
0.0
 51
180.0
  0
LINE
  5
29E
330
227
100
AcDbEntity
  8
2
100
AcDbLine
 10
38.26744904703703
 20
15.97299373708836
 30
0.0
 11
38.26744904703703
 21
11.66154373708844
 31
0.0
  0
LINE
  5
29F
330
227
100
AcDbEntity
  8
2
100
AcDbLine
 10
39.55444904703706
 20
15.97299373708836
 30
0.0
 11
39.55444904703706
 21
11.66154373708844
 31
0.0
  0
ARC
  5
2A0
330
227
100
AcDbEntity
  8
2
100
AcDbCircle
 10
31.70374904703698
 20
12.75549373708839
 30
0.0
 40
2.0592
100
AcDbArc
 50
320.0337869562001
 51
32.08995125628041
  0
ARC
  5
2A1
330
227
100
AcDbEntity
  8
2
100
AcDbCircle
 10
33.63424904703703
 20
12.75549373708839
 30
0.0
 40
2.0592
100
AcDbArc
 50
140.0337869562019
 51
219.9662130437999
  0
ARC
  5
2A2
330
227
100
AcDbEntity
  8
2
100
AcDbCircle
 10
31.18894904703694
 20
12.75549373708839
 30
0.0
 40
3.861000000000009
100
AcDbArc
 50
315.5798432416822
 51
16.4592496282602
  0
ARC
  5
2A3
330
227
100
AcDbEntity
  8
2
100
AcDbCircle
 10
47.85559904703695
 20
14.36424373708848
 30
0.0
 40
1.9305
100
AcDbArc
 50
0.0
 51
29.99999999999925
  0
LINE
  5
2A4
330
227
100
AcDbEntity
  8
2
100
AcDbLine
 10
45.28159904703699
 20
15.97299373708836
 30
0.0
 11
45.28159904703699
 21
14.36424373708848
 31
0.0
  0
LINE
  5
2A5
330
227
100
AcDbEntity
  8
2
100
AcDbLine
 10
45.79639904703703
 20
15.97299373708836
 30
0.0
 11
45.79639904703703
 21
14.36424373708848
 31
0.0
  0
LINE
  5
2A6
330
227
100
AcDbEntity
  8
2
100
AcDbLine
 10
48.41288639437227
 20
15.97299373708836
 30
0.0
 11
45.79639904703703
 21
15.97299373708836
 31
0.0
  0
LINE
  5
2A7
330
227
100
AcDbEntity
  8
2
100
AcDbLine
 10
48.49909904703697
 20
14.36424373708848
 30
0.0
 11
45.79639904703703
 21
14.36424373708848
 31
0.0
  0
LINE
  5
2A8
330
227
100
AcDbEntity
  8
2
100
AcDbLine
 10
47.08339904703693
 20
13.84944373708833
 30
0.0
 11
45.79639904703703
 21
13.84944373708833
 31
0.0
  0
ARC
  5
2A9
330
227
100
AcDbEntity
  8
2
100
AcDbCircle
 10
48.41288639437227
 20
14.68599373708832
 30
0.0
 40
1.286999999999999
100
AcDbArc
 50
29.99999999999893
 51
90.0
  0
LINE
  5
2AA
330
227
100
AcDbEntity
  8
2
100
AcDbLine
 10
51.330499047037
 20
10.24584373708842
 30
0.0
 11
51.330499047037
 21
10.11714373708844
 31
0.0
  0
ARC
  5
2AB
330
227
100
AcDbEntity
  8
2
100
AcDbCircle
 10
47.85559904703695
 20
11.14674373708851
 30
0.0
 40
1.9305
100
AcDbArc
 50
330.0000000000007
 51
0.0
  0
LINE
  5
2AC
330
227
100
AcDbEntity
  8
2
100
AcDbLine
 10
50.17219904703694
 20
10.24584373708842
 30
0.0
 11
50.17219904703694
 21
10.11714373708844
 31
0.0
  0
ARC
  5
2AD
330
227
100
AcDbEntity
  8
2
100
AcDbCircle
 10
50.75134904703697
 20
10.11714373708844
 30
0.0
 40
0.5791500000000022
100
AcDbArc
 50
179.9999999999996
 51
0.0
  0
ARC
  5
2AE
330
227
100
AcDbEntity
  8
2
100
AcDbCircle
 10
50.75134904703697
 20
10.24584373708842
 30
0.0
 40
0.5791499999999962
100
AcDbArc
 50
0.0
 51
180.0
  0
LINE
  5
2AF
330
227
100
AcDbEntity
  8
2
100
AcDbLine
 10
47.08339904703693
 20
11.14674373708851
 30
0.0
 11
48.49909904703697
 21
11.14674373708851
 31
0.0
  0
LINE
  5
2B0
330
227
100
AcDbEntity
  8
2
100
AcDbLine
 10
45.79639904703703
 20
9.537993737088411
 30
0.0
 11
48.41288639437227
 21
9.537993737088411
 31
0.0
  0
ARC
  5
2B1
330
227
100
AcDbEntity
  8
2
100
AcDbCircle
 10
48.41288639437227
 20
10.82499373708845
 30
0.0
 40
1.286999999999999
100
AcDbArc
 50
270.0
 51
330.000000000001
  0
LINE
  5
2B2
330
227
100
AcDbEntity
  8
2
100
AcDbLine
 10
49.786099047037
 20
11.14674373708851
 30
0.0
 11
49.786099047037
 21
14.36424373708848
 31
0.0
  0
LINE
  5
2B3
330
227
100
AcDbEntity
  8
2
100
AcDbLine
 10
47.08339904703693
 20
13.84944373708833
 30
0.0
 11
47.08339904703693
 21
11.14674373708851
 31
0.0
  0
LINE
  5
2B4
330
227
100
AcDbEntity
  8
2
100
AcDbLine
 10
48.49909904703697
 20
11.14674373708851
 30
0.0
 11
48.49909904703697
 21
14.36424373708848
 31
0.0
  0
LINE
  5
2B5
330
227
100
AcDbEntity
  8
2
100
AcDbLine
 10
45.79639904703703
 20
13.84944373708833
 30
0.0
 11
45.79639904703703
 21
9.537993737088411
 31
0.0
  0
LINE
  5
2B6
330
227
100
AcDbEntity
  8
2
100
AcDbLine
 10
42.64324904703705
 20
13.84944373708833
 30
0.0
 11
43.93024904703696
 21
13.84944373708833
 31
0.0
  0
LINE
  5
2B7
330
227
100
AcDbEntity
  8
2
100
AcDbLine
 10
41.29189904703703
 20
15.97299373708836
 30
0.0
 11
41.29189904703703
 21
14.36424373708848
 31
0.0
  0
LINE
  5
2B8
330
227
100
AcDbEntity
  8
2
100
AcDbLine
 10
42.64324904703705
 20
9.537993737088411
 30
0.0
 11
43.93024904703696
 21
9.537993737088411
 31
0.0
  0
LINE
  5
2B9
330
227
100
AcDbEntity
  8
2
100
AcDbLine
 10
42.25714904703699
 20
11.14674373708851
 30
0.0
 11
42.25714904703699
 21
9.537993737088411
 31
0.0
  0
LINE
  5
2BA
330
227
100
AcDbEntity
  8
2
100
AcDbLine
 10
42.64324904703705
 20
13.84944373708833
 30
0.0
 11
42.64324904703705
 21
9.537993737088411
 31
0.0
  0
LINE
  5
2BB
330
227
100
AcDbEntity
  8
2
100
AcDbLine
 10
43.93024904703696
 20
13.84944373708833
 30
0.0
 11
43.93024904703696
 21
9.537993737088411
 31
0.0
  0
LINE
  5
2BC
330
227
100
AcDbEntity
  8
2
100
AcDbLine
 10
41.29189904703703
 20
15.97299373708836
 30
0.0
 11
45.28159904703699
 21
15.97299373708836
 31
0.0
  0
LINE
  5
2BD
330
227
100
AcDbEntity
  8
2
100
AcDbLine
 10
41.29189904703703
 20
14.36424373708848
 30
0.0
 11
45.28159904703699
 21
14.36424373708848
 31
0.0
  0
ENDBLK
  5
2BE
330
227
100
AcDbEntity
  8
0
100
AcDbBlockEnd
  0
ENDSEC
  0
SECTION
  2
ENTITIES
  0
INSERT
  5
3D0
330
1F
100
AcDbEntity
  8
0
100
AcDbBlockReference
  2
SUG-AR01
 10
159.8977360578974
 20
155.8430879880064
 30
0.0
 41
0.5000000000000038
 42
0.5
 43
0.5
 50
157.6028330529295
  0
LINE
  5
3D6
330
1F
100
AcDbEntity
  8
0
100
AcDbLine
 10
25.90878117239454
 20
137.0858508883769
 30
0.0
 11
25.90878117239454
 21
136.885850888377
 31
0.0
  0
TEXT
  5
41B
330
1F
100
AcDbEntity
  8
0
100
AcDbText
 10
157.5726358937381
 20
158.8868859337775
 30
0.0
 40
1.5
  1
AAAAA0
 50
315.0000000000003
  7
SIMPLEX
100
AcDbText
  0
ARC
  5
41C
330
1F
100
AcDbEntity
  8
0
  6
H3
100
AcDbCircle
 10
67.84264872221125
 20
164.3766652410427
 30
0.0
 40
19.42183720793247
100
AcDbArc
 50
243.2892109340733
 51
271.9655228541018
  0
ARC
  5
41D
330
1F
100
AcDbEntity
  8
0
  6
H3
100
AcDbCircle
 10
68.4616864545942
 20
141.0942809155292
 30
0.0
 40
19.71122218236261
100
AcDbArc
 50
89.86310685813689
 51
118.3133622387482
  0
ARC
  5
41E
330
1F
100
AcDbEntity
  8
0
  6
H3
100
AcDbCircle
 10
68.4616864545942
 20
139.3972246406814
 30
0.0
 40
19.71122218236261
100
AcDbArc
 50
89.86310685813689
 51
118.3133622387482
  0
ARC
  5
41F
330
1F
100
AcDbEntity
  8
0
  6
H3
100
AcDbCircle
 10
75.00878117239427
 20
146.4662549390876
 30
0.0
 40
1.5
100
AcDbArc
 50
270.0
 51
0.0
  0
ARC
  5
420
330
1F
100
AcDbEntity
  8
0
  6
H3
100
AcDbCircle
 10
75.00878117239427
 20
159.3054468376663
 30
0.0
 40
1.5
100
AcDbArc
 50
0.0
 51
90.0
  0
ARC
  5
421
330
1F
100
AcDbEntity
  8
0
  6
H3
100
AcDbCircle
 10
75.00878117239427
 20
157.6083905628186
 30
0.0
 40
1.5
100
AcDbArc
 50
0.0
 51
90.0
  0
LINE
  5
422
330
1F
100
AcDbEntity
  8
0
  6
H3
100
AcDbLine
 10
75.00878117239427
 20
144.9662549390876
 30
0.0
 11
68.50878117239425
 21
144.9662549390876
 31
0.0
  0
LINE
  5
423
330
1F
100
AcDbEntity
  8
0
  6
H3
100
AcDbLine
 10
75.00878117239427
 20
159.1083905628186
 30
0.0
 11
68.50878117239425
 21
159.1083905628186
 31
0.0
  0
LINE
  5
424
330
1F
100
AcDbEntity
  8
0
  6
H3
100
AcDbLine
 10
75.00878117239427
 20
160.8054468376663
 30
0.0
 11
68.50878117239425
 21
160.8054468376663
 31
0.0
  0
LINE
  5
425
330
1F
100
AcDbEntity
  8
0
  6
H3
100
AcDbLine
 10
76.50878117239426
 20
146.4662549390876
 30
0.0
 11
76.50878117239426
 21
159.3054468376663
 31
0.0
  0
LINE
  5
45F
330
1F
100
AcDbEntity
  8
0
100
AcDbLine
 10
244.9039688846526
 20
161.385850888377
 30
0.0
 11
247.2789688846526
 21
161.385850888377
 31
0.0
  0
LINE
  5
460
330
1F
100
AcDbEntity
  8
0
100
AcDbLine
 10
244.9039688846526
 20
129.385850888377
 30
0.0
 11
247.2789688846526
 21
129.385850888377
 31
0.0
  0
LINE
  5
461
330
1F
100
AcDbEntity
  8
0
100
AcDbLine
 10
246.4039688846526
 20
129.385850888377
 30
0.0
 11
246.4039688846526
 21
138.385850888377
 31
0.0
  0
LINE
  5
462
330
1F
100
AcDbEntity
  8
0
100
AcDbLine
 10
247.2789688846526
 20
129.385850888377
 30
0.0
 11
247.2789688846526
 21
138.385850888377
 31
0.0
  0
LINE
  5
463
330
1F
100
AcDbEntity
  8
0
100
AcDbLine
 10
245.7039688846527
 20
151.885850888377
 30
0.0
 11
245.7039688846527
 21
138.885850888377
 31
0.0
  0
LINE
  5
464
330
1F
100
AcDbEntity
  8
0
100
AcDbLine
 10
246.2039688846527
 20
138.385850888377
 30
0.0
 11
260.4039688846526
 21
138.3858508883771
 31
0.0
  0
LINE
  5
465
330
1F
100
AcDbEntity
  8
0
100
AcDbLine
 10
260.9039688846526
 20
138.8858508883771
 30
0.0
 11
260.9039688846526
 21
151.885850888377
 31
0.0
  0
LINE
  5
466
330
1F
100
AcDbEntity
  8
0
100
AcDbLine
 10
260.4039688846526
 20
152.385850888377
 30
0.0
 11
246.2039688846527
 21
152.385850888377
 31
0.0
  0
LINE
  5
467
330
1F
100
AcDbEntity
  8
0
100
AcDbLine
 10
246.7039688846527
 20
151.885850888377
 30
0.0
 11
246.7039688846527
 21
138.885850888377
 31
0.0
  0
LINE
  5
468
330
1F
100
AcDbEntity
  8
0
100
AcDbLine
 10
247.2789688846526
 20
152.385850888377
 30
0.0
 11
247.2789688846526
 21
161.385850888377
 31
0.0
  0
LINE
  5
469
330
1F
100
AcDbEntity
  8
0
100
AcDbLine
 10
246.4039688846526
 20
152.385850888377
 30
0.0
 11
246.4039688846526
 21
161.385850888377
 31
0.0
  0
ARC
  5
46A
330
1F
100
AcDbEntity
  8
0
100
AcDbCircle
 10
260.4039688846526
 20
138.8858508883771
 30
0.0
 40
0.5
100
AcDbArc
 50
270.0
 51
0.0
  0
ARC
  5
46B
330
1F
100
AcDbEntity
  8
0
100
AcDbCircle
 10
260.4039688846526
 20
151.885850888377
 30
0.0
 40
0.5
100
AcDbArc
 50
0.0
 51
90.0
  0
ARC
  5
46C
330
1F
100
AcDbEntity
  8
0
100
AcDbCircle
 10
246.2039688846527
 20
151.885850888377
 30
0.0
 40
0.5
100
AcDbArc
 50
90.0
 51
180.0
  0
ARC
  5
46D
330
1F
100
AcDbEntity
  8
0
100
AcDbCircle
 10
246.2039688846527
 20
138.885850888377
 30
0.0
 40
0.5
100
AcDbArc
 50
180.0
 51
270.0
  0
LINE
  5
478
330
1F
100
AcDbEntity
  8
0
100
AcDbLine
 10
119.9935259981625
 20
226.174339115373
 30
0.0
 11
97.85469135608877
 21
226.174339115373
 31
0.0
  0
LINE
  5
47E
330
1F
100
AcDbEntity
  8
0
100
AcDbLine
 10
119.9935259981625
 20
226.174339115373
 30
0.0
 11
103.8546913560888
 21
226.174339115373
 31
0.0
  0
LINE
  5
484
330
1F
100
AcDbEntity
  8
0
100
AcDbLine
 10
119.9935259981625
 20
226.174339115373
 30
0.0
 11
109.8546913560888
 21
226.174339115373
 31
0.0
  0
LINE
  5
48C
330
1F
100
AcDbEntity
  8
0
100
AcDbLine
 10
138.8935259981626
 20
246.974339115373
 30
0.0
 11
134.4041035361303
 21
251.4637615774051
 31
0.0
  0
ARC
  5
48D
330
1F
100
AcDbEntity
  8
0
100
AcDbCircle
 10
138.8935259981626
 20
246.974339115373
 30
0.0
 40
0.8
100
AcDbArc
 50
270.0
 51
45.00000000000173
  0
LINE
  5
48E
330
1F
100
AcDbEntity
  8
0
100
AcDbLine
 10
139.4592114231118
 20
247.5400245403223
 30
0.0
 11
134.9697889610796
 21
252.0294470023543
 31
0.0
  0
LINE
  5
48F
330
1F
100
AcDbEntity
  8
0
100
AcDbLine
 10
148.1935259981626
 20
226.174339115373
 30
0.0
 11
121.4935259981625
 21
226.174339115373
 31
0.0
  0
LINE
  5
490
330
1F
100
AcDbEntity
  8
0
100
AcDbLine
 10
148.1935259981626
 20
226.974339115373
 30
0.0
 11
121.4935259981625
 21
226.974339115373
 31
0.0
  0
LINE
  5
491
330
1F
100
AcDbEntity
  8
0
100
AcDbLine
 10
120.6935259981626
 20
243.874339115373
 30
0.0
 11
120.6935259981626
 21
226.974339115373
 31
0.0
  0
LINE
  5
492
330
1F
100
AcDbEntity
  8
0
100
AcDbLine
 10
121.4935259981625
 20
243.874339115373
 30
0.0
 11
121.4935259981625
 21
226.974339115373
 31
0.0
  0
LINE
  5
493
330
1F
100
AcDbEntity
  8
0
100
AcDbLine
 10
138.8935259981626
 20
246.1743391153731
 30
0.0
 11
114.1975391223724
 21
246.174339115373
 31
0.0
  0
LINE
  5
494
330
1F
100
AcDbEntity
  8
0
100
AcDbLine
 10
148.1935259981626
 20
244.6743391153731
 30
0.0
 11
121.4935259981625
 21
244.6743391153731
 31
0.0
  0
LINE
  5
495
330
1F
100
AcDbEntity
  8
0
100
AcDbLine
 10
148.1935259981626
 20
243.874339115373
 30
0.0
 11
121.4935259981625
 21
243.874339115373
 31
0.0
  0
ARC
  5
496
330
1F
100
AcDbEntity
  8
0
100
AcDbCircle
 10
121.4935259981625
 20
226.974339115373
 30
0.0
 40
0.8
100
AcDbArc
 50
180.0
 51
270.0
  0
ARC
  5
497
330
1F
100
AcDbEntity
  8
0
100
AcDbCircle
 10
121.4935259981625
 20
243.874339115373
 30
0.0
 40
0.8
100
AcDbArc
 50
90.0
 51
180.0
  0
LINE
  5
498
330
1F
100
AcDbEntity
  8
0
100
AcDbLine
 10
138.8935259981626
 20
246.974339115373
 30
0.0
 11
114.1975391223724
 21
246.974339115373
 31
0.0
  0
LINE
  5
499
330
1F
100
AcDbEntity
  8
0
100
AcDbLine
 10
139.6935259981626
 20
264.2837591695227
 30
0.0
 11
139.6935259981626
 21
246.974339115373
 31
0.0
  0
LINE
  5
49A
330
1F
100
AcDbEntity
  8
0
100
AcDbLine
 10
138.8935259981626
 20
264.2837591695227
 30
0.0
 11
138.8935259981626
 21
246.974339115373
 31
0.0
  0
LINE
  5
49B
330
1F
100
AcDbEntity
  8
0
100
AcDbLine
 10
142.4972139766719
 20
252.974339115373
 30
0.0
 11
142.4972139766719
 21
255.274339115373
 31
0.0
  0
LINE
  5
49C
330
1F
100
AcDbEntity
  8
0
100
AcDbLine
 10
125.6935259981626
 20
255.274339115373
 30
0.0
 11
167.9698666112646
 21
255.274339115373
 31
0.0
  0
LINE
  5
49D
330
1F
100
AcDbEntity
  8
0
100
AcDbLine
 10
125.6935259981626
 20
252.974339115373
 30
0.0
 11
167.9698666112646
 21
252.974339115373
 31
0.0
  0
LINE
  5
49E
330
1F
100
AcDbEntity
  8
0
100
AcDbLine
 10
125.6935259981626
 20
255.274339115373
 30
0.0
 11
125.6935259981626
 21
252.974339115373
 31
0.0
  0
LINE
  5
49F
330
1F
100
AcDbEntity
  8
0
100
AcDbLine
 10
133.6935259981627
 20
252.974339115373
 30
0.0
 11
133.6935259981627
 21
255.274339115373
 31
0.0
  0
LINE
  5
4A0
330
1F
100
AcDbEntity
  8
0
100
AcDbLine
 10
136.2568001726677
 20
133.6858508883771
 30
0.0
 11
146.1935259981625
 21
133.6858508883771
 31
0.0
  0
LINE
  5
4A1
330
1F
100
AcDbEntity
  8
0
100
AcDbLine
 10
136.2568001726675
 20
127.0858508883772
 30
0.0
 11
146.1935259981625
 21
127.0858508883772
 31
0.0
  0
LINE
  5
4A2
330
1F
100
AcDbEntity
  8
0
100
AcDbLine
 10
136.2568001726677
 20
133.6858508883771
 30
0.0
 11
136.2568001726675
 21
127.0858508883772
 31
0.0
  0
LINE
  5
4A3
330
1F
100
AcDbEntity
  8
0
100
AcDbLine
 10
143.1507901272118
 20
133.6858508883771
 30
0.0
 11
143.1507901272118
 21
127.0858508883772
 31
0.0
  0
LINE
  5
4A4
330
1F
100
AcDbEntity
  8
0
100
AcDbLine
 10
28.40878117239444
 20
137.8858508883769
 30
0.0
 11
26.00878117239445
 21
137.8858508883769
 31
0.0
  0
LINE
  5
4BC
330
1F
100
AcDbEntity
  8
0
  6
P3
100
AcDbLine
 10
168.1935259981626
 20
170.385850888377
 30
0.0
 11
168.1935259981626
 21
180.0554672920518
 31
0.0
  0
LINE
  5
4BD
330
1F
100
AcDbEntity
  8
0
  6
P3
100
AcDbLine
 10
157.1935259981626
 20
177.3858508883767
 30
0.0
 11
144.1935259981626
 21
177.3858508883768
 31
0.0
  0
LINE
  5
4BE
330
1F
100
AcDbEntity
  8
0
  6
P3
100
AcDbLine
 10
158.1935259981626
 20
170.7249505195541
 30
0.0
 11
158.1935259981626
 21
176.3858508883767
 31
0.0
  0
LINE
  5
4BF
330
1F
100
AcDbEntity
  8
0
  6
P3
100
AcDbLine
 10
143.1935259981626
 20
178.3858508883768
 30
0.0
 11
143.1935259981626
 21
181.2702950788242
 31
0.0
  0
ARC
  5
4C0
330
1F
100
AcDbEntity
  8
0
  6
P3
100
AcDbCircle
 10
157.1935259981626
 20
176.3858508883767
 30
0.0
 40
1.0
100
AcDbArc
 50
0.0
 51
90.0
  0
ARC
  5
4C1
330
1F
100
AcDbEntity
  8
0
  6
P3
100
AcDbCircle
 10
163.1935259981626
 20
180.0554672920518
 30
0.0
 40
5.0
100
AcDbArc
 50
0.0
 51
82.43915682332845
  0
ARC
  5
4C2
330
1F
100
AcDbEntity
  8
0
  6
P3
100
AcDbCircle
 10
144.1935259981626
 20
178.3858508883768
 30
0.0
 40
1.0
100
AcDbArc
 50
180.0
 51
270.0
  0
ARC
  5
4C3
330
1F
100
AcDbEntity
  8
0
  6
P3
100
AcDbCircle
 10
145.1935259981626
 20
181.2702950788242
 30
0.0
 40
2.0
100
AcDbArc
 50
108.4860146790875
 51
180.0
  0
ARC
  5
4C4
330
1F
100
AcDbEntity
  8
0
  6
P3
100
AcDbCircle
 10
158.1935259981626
 20
142.385850888377
 30
0.0
 40
43.0
100
AcDbArc
 50
82.43915682332845
 51
108.4860146790875
  0
ARC
  5
4C5
330
1F
100
AcDbEntity
  8
0
100
AcDbCircle
 10
168.6935259981626
 20
152.885850888377
 30
0.0
 40
43.0
100
AcDbArc
 50
172.4391568233281
 51
198.4860146790877
  0
ARC
  5
4C6
330
1F
100
AcDbEntity
  8
0
100
AcDbCircle
 10
129.8090818077154
 20
139.8858508883769
 30
0.0
 40
2.0
100
AcDbArc
 50
198.4860146790877
 51
270.0
  0
ARC
  5
4C7
330
1F
100
AcDbEntity
  8
0
100
AcDbCircle
 10
132.6935259981628
 20
138.8858508883769
 30
0.0
 40
1.0
100
AcDbArc
 50
270.0
 51
359.9999999999996
  0
ARC
  5
4C8
330
1F
100
AcDbEntity
  8
0
100
AcDbCircle
 10
131.0239095944878
 20
157.885850888377
 30
0.0
 40
5.0
100
AcDbArc
 50
90.0
 51
172.4391568233277
  0
ARC
  5
4C9
330
1F
100
AcDbEntity
  8
0
100
AcDbCircle
 10
141.8544263669855
 20
151.8858508883771
 30
0.0
 40
1.0
100
AcDbArc
 50
10.00000000000021
 51
90.0
  0
ARC
  5
4CA
330
1F
100
AcDbEntity
  8
0
100
AcDbCircle
 10
134.6935259981629
 20
151.8858508883771
 30
0.0
 40
1.0
100
AcDbArc
 50
90.0
 51
179.9999999999996
  0
ARC
  5
4CB
330
1F
100
AcDbEntity
  8
0
100
AcDbCircle
 10
146.3113220483105
 20
144.8858508883771
 30
0.0
 40
2.0
100
AcDbArc
 50
189.9999999999998
 51
270.0
  0
LINE
  5
4CC
330
1F
100
AcDbEntity
  8
0
100
AcDbLine
 10
142.8392341199977
 20
152.059499066044
 30
0.0
 11
144.3417065422861
 21
144.5385545330432
 31
0.0
  0
LINE
  5
4CD
330
1F
100
AcDbEntity
  8
0
100
AcDbLine
 10
132.6935259981628
 20
137.8858508883769
 30
0.0
 11
129.8090818077154
 21
137.8858508883769
 31
0.0
  0
LINE
  5
4CE
330
1F
100
AcDbEntity
  8
0
100
AcDbLine
 10
141.8544263669855
 20
152.8858508883771
 30
0.0
 11
134.6935259981629
 21
152.8858508883771
 31
0.0
  0
LINE
  5
4CF
330
1F
100
AcDbEntity
  8
0
100
AcDbLine
 10
133.6935259981629
 20
151.8858508883771
 30
0.0
 11
133.6935259981628
 21
138.8858508883769
 31
0.0
  0
LINE
  5
4D0
330
1F
100
AcDbEntity
  8
0
100
AcDbLine
 10
146.1935259981625
 20
162.885850888377
 30
0.0
 11
131.0239095944878
 21
162.885850888377
 31
0.0
  0
LINE
  5
4D1
330
1F
100
AcDbEntity
  8
0
100
AcDbLine
 10
146.1935259981625
 20
142.885850888377
 30
0.0
 11
146.3113220483105
 21
142.8858508883771
 31
0.0
  0
LINE
  5
4E4
330
1F
100
AcDbEntity
  8
0
100
AcDbLine
 10
134.1935259981625
 20
130.3858508883771
 30
0.0
 11
148.1935259981625
 21
130.3858508883771
 31
0.0
  0
LINE
  5
4E5
330
1F
100
AcDbEntity
  8
0
100
AcDbLine
 10
28.40878117239444
 20
142.8858508883769
 30
0.0
 11
28.40878117239444
 21
164.885850888377
 31
0.0
  0
LINE
  5
4E6
330
1F
100
AcDbEntity
  8
0
100
AcDbLine
 10
28.40878117239444
 20
137.8858508883769
 30
0.0
 11
28.40878117239444
 21
162.8858508883768
 31
0.0
  0
ARC
  5
4E7
330
1F
100
AcDbEntity
  8
0
100
AcDbCircle
 10
136.1935259981624
 20
126.0858508883771
 30
0.0
 40
0.5
100
AcDbArc
 50
179.9999999999996
 51
270.0
  0
ARC
  5
4E8
330
1F
100
AcDbEntity
  8
0
100
AcDbCircle
 10
136.1935259981626
 20
134.6858508883771
 30
0.0
 40
0.5
100
AcDbArc
 50
90.0
 51
179.9999999999996
  0
LINE
  5
4E9
330
1F
100
AcDbEntity
  8
0
100
AcDbLine
 10
135.6935259981626
 20
134.6858508883771
 30
0.0
 11
135.6935259981624
 21
126.0858508883771
 31
0.0
  0
LINE
  5
4EA
330
1F
100
AcDbEntity
  8
0
100
AcDbLine
 10
136.1935259981624
 20
125.5858508883771
 30
0.0
 11
146.1935259981624
 21
125.5858508883771
 31
0.0
  0
LINE
  5
4EB
330
1F
100
AcDbEntity
  8
0
100
AcDbLine
 10
136.1935259981626
 20
135.1858508883771
 30
0.0
 11
146.1935259981625
 21
135.1858508883771
 31
0.0
  0
LINE
  5
4EC
330
1F
100
AcDbEntity
  8
0
100
AcDbLine
 10
148.5435259981625
 20
257.7743391153731
 30
0.0
 11
148.5435259981627
 21
257.2743391153731
 31
0.0
  0
LINE
  5
4ED
330
1F
100
AcDbEntity
  8
0
100
AcDbLine
 10
154.8435259981627
 20
257.7743391153731
 30
0.0
 11
154.8435259981627
 21
257.2743391153731
 31
0.0
  0
ARC
  5
4EE
330
1F
100
AcDbEntity
  8
0
100
AcDbCircle
 10
151.6935259981626
 20
254.9305891153732
 30
0.0
 40
4.243749999999924
100
AcDbArc
 50
42.07502205084348
 51
137.9249779491565
  0
LINE
  5
4EF
330
1F
100
AcDbEntity
  8
0
100
AcDbLine
 10
148.5435259981625
 20
257.2743391153731
 30
0.0
 11
154.8435259981627
 21
257.2743391153731
 31
0.0
  0
LINE
  5
4F0
330
1F
100
AcDbEntity
  8
0
100
AcDbLine
 10
167.0435259981625
 20
257.274339115373
 30
0.0
 11
173.3435259981626
 21
257.274339115373
 31
0.0
  0
ARC
  5
4F1
330
1F
100
AcDbEntity
  8
0
100
AcDbCircle
 10
170.1935259981626
 20
254.9305891153731
 30
0.0
 40
4.243749999999924
100
AcDbArc
 50
42.07502205084348
 51
137.9249779491565
  0
LINE
  5
4F2
330
1F
100
AcDbEntity
  8
0
100
AcDbLine
 10
173.3435259981626
 20
257.774339115373
 30
0.0
 11
173.3435259981626
 21
257.2743391153731
 31
0.0
  0
LINE
  5
4F3
330
1F
100
AcDbEntity
  8
0
100
AcDbLine
 10
167.0435259981625
 20
257.774339115373
 30
0.0
 11
167.0435259981627
 21
257.274339115373
 31
0.0
  0
LINE
  5
4F4
330
1F
100
AcDbEntity
  8
0
100
AcDbLine
 10
55.6087811723948
 20
170.3858508883769
 30
0.0
 11
55.10878117239434
 21
170.385850888377
 31
0.0
  0
LINE
  5
4F5
330
1F
100
AcDbEntity
  8
0
100
AcDbLine
 10
55.60878117239434
 20
120.385850888377
 30
0.0
 11
55.10878117239434
 21
120.385850888377
 31
0.0
  0
LINE
  5
4F6
330
1F
100
AcDbEntity
  8
0
100
AcDbLine
 10
54.10878117239411
 20
167.385850888377
 30
0.0
 11
55.10878117239434
 21
167.385850888377
 31
0.0
  0
LINE
  5
4F7
330
1F
100
AcDbEntity
  8
0
100
AcDbLine
 10
54.20878117239425
 20
123.385850888377
 30
0.0
 11
55.10878117239434
 21
123.385850888377
 31
0.0
  0
LINE
  5
4F8
330
1F
100
AcDbEntity
  8
0
100
AcDbLine
 10
59.1127811723947
 20
121.4232504443681
 30
0.0
 11
59.1127811723947
 21
169.3484513323858
 31
0.0
  0
LINE
  5
4F9
330
1F
100
AcDbEntity
  8
T
100
AcDbLine
 10
158.1935259981626
 20
165.5858508883769
 30
0.0
 11
158.1935259981626
 21
140.185850888377
 31
0.0
  0
LINE
  5
4FA
330
1F
100
AcDbEntity
  8
0
100
AcDbLine
 10
55.6087811723948
 20
170.3858508883769
 30
0.0
 11
58.6996052612282
 21
169.840855208892
 31
0.0
  0
LINE
  5
4FB
330
1F
100
AcDbEntity
  8
0
100
AcDbLine
 10
55.60878117239434
 20
120.385850888377
 30
0.0
 11
58.6996052612282
 21
120.9308465678619
 31
0.0
  0
LINE
  5
4FC
330
1F
100
AcDbEntity
  8
0
100
AcDbLine
 10
146.1935259981625
 20
168.385850888377
 30
0.0
 11
146.1935259981621
 21
122.385850888377
 31
0.0
  0
LINE
  5
4FD
330
1F
100
AcDbEntity
  8
0
100
AcDbLine
 10
148.1935259981621
 20
120.385850888377
 30
0.0
 11
215.1935259981624
 21
120.385850888377
 31
0.0
  0
LINE
  5
4FE
330
1F
100
AcDbEntity
  8
0
100
AcDbLine
 10
217.1935259981624
 20
122.385850888377
 30
0.0
 11
217.1935259981626
 21
168.385850888377
 31
0.0
  0
LINE
  5
4FF
330
1F
100
AcDbEntity
  8
0
100
AcDbLine
 10
215.1935259981626
 20
170.385850888377
 30
0.0
 11
148.1935259981626
 21
170.385850888377
 31
0.0
  0
LINE
  5
500
330
1F
100
AcDbEntity
  8
0
100
AcDbLine
 10
146.5524589113295
 20
167.9983361358738
 30
0.0
 11
146.5524589113295
 21
122.7733656408802
 31
0.0
  0
LINE
  5
501
330
1F
100
AcDbEntity
  8
0
100
AcDbLine
 10
216.8345597043624
 20
167.9983361358738
 30
0.0
 11
216.8345597043624
 21
122.7733656408802
 31
0.0
  0
ARC
  5
502
330
1F
100
AcDbEntity
  8
0
100
AcDbCircle
 10
181.6935093078462
 20
2552.162151482056
 30
0.0
 40
2382.394150334082
100
AcDbArc
 50
269.2037448085354
 51
270.7962551914647
  0
ARC
  5
503
330
1F
100
AcDbEntity
  8
0
100
AcDbCircle
 10
181.6935093078462
 20
-2261.390449705304
 30
0.0
 40
2382.394150334082
100
AcDbArc
 50
89.20374480853535
 51
90.79625519146464
  0
ARC
  5
504
330
1F
100
AcDbEntity
  8
0
100
AcDbCircle
 10
148.5524589113295
 20
167.9983361358738
 30
0.0
 40
2.0
100
AcDbArc
 50
89.04512187259333
 51
180.0
  0
ARC
  5
505
330
1F
100
AcDbEntity
  8
0
100
AcDbCircle
 10
148.1935259981626
 20
168.385850888377
 30
0.0
 40
2.0
100
AcDbArc
 50
90.0
 51
179.9999999999996
  0
ARC
  5
506
330
1F
100
AcDbEntity
  8
0
100
AcDbCircle
 10
214.8345597043624
 20
167.9983361358738
 30
0.0
 40
2.0
100
AcDbArc
 50
0.0
 51
90.95487812740342
  0
ARC
  5
507
330
1F
100
AcDbEntity
  8
0
100
AcDbCircle
 10
215.1935259981626
 20
168.385850888377
 30
0.0
 40
2.0
100
AcDbArc
 50
0.0
 51
90.0
  0
ARC
  5
508
330
1F
100
AcDbEntity
  8
0
100
AcDbCircle
 10
148.1935259981621
 20
122.385850888377
 30
0.0
 40
2.0
100
AcDbArc
 50
179.9999999999996
 51
270.0
  0
ARC
  5
509
330
1F
100
AcDbEntity
  8
0
100
AcDbCircle
 10
148.5524589113295
 20
122.7733656408802
 30
0.0
 40
2.0
100
AcDbArc
 50
180.0
 51
270.9548781274066
  0
ARC
  5
50A
330
1F
100
AcDbEntity
  8
0
100
AcDbCircle
 10
214.8345597043624
 20
122.7733656408802
 30
0.0
 40
2.0
100
AcDbArc
 50
269.0451218725966
 51
0.0
  0
ARC
  5
50B
330
1F
100
AcDbEntity
  8
0
100
AcDbCircle
 10
215.1935259981624
 20
122.385850888377
 30
0.0
 40
2.0
100
AcDbArc
 50
270.0
 51
0.0
  0
LINE
  5
50C
330
1F
100
AcDbEntity
  8
0
100
AcDbLine
 10
55.10878117239434
 20
120.385850888377
 30
0.0
 11
55.10878117239434
 21
170.385850888377
 31
0.0
  0
LINE
  5
50D
330
1F
100
AcDbEntity
  8
0
100
AcDbLine
 10
55.10878117239434
 20
135.385850888377
 30
0.0
 11
39.90878117239429
 21
135.385850888377
 31
0.0
  0
LINE
  5
50E
330
1F
100
AcDbEntity
  8
0
100
AcDbLine
 10
30.30878117239439
 20
136.885850888377
 30
0.0
 11
20.6587811723943
 21
136.885850888377
 31
0.0
  0
LINE
  5
50F
330
1F
100
AcDbEntity
  8
0
100
AcDbLine
 10
19.1587811723943
 20
135.3858508883769
 30
0.0
 11
19.15878117239453
 21
125.3645451525372
 31
0.0
  0
LINE
  5
510
330
1F
100
AcDbEntity
  8
0
100
AcDbLine
 10
39.90878117239429
 20
125.385850888377
 30
0.0
 11
39.90878117239429
 21
135.385850888377
 31
0.0
  0
LINE
  5
511
330
1F
100
AcDbEntity
  8
0
100
AcDbLine
 10
178.2435259981625
 20
125.4541373270624
 30
0.0
 11
178.2435259981623
 21
165.3175644496916
 31
0.0
  0
LINE
  5
512
330
1F
100
AcDbEntity
  8
0
100
AcDbLine
 10
30.30878117239439
 20
136.885850888377
 30
0.0
 11
30.30878117239439
 21
164.8858508883769
 31
0.0
  0
LINE
  5
513
330
1F
100
AcDbEntity
  8
0
100
AcDbLine
 10
30.30878117239439
 20
164.8858508883769
 30
0.0
 11
51.10878117239434
 21
164.885850888377
 31
0.0
  0
LINE
  5
514
330
1F
100
AcDbEntity
  8
0
100
AcDbLine
 10
30.30878117239439
 20
159.5507296883465
 30
0.0
 11
51.10878117239434
 21
159.5507296883465
 31
0.0
  0
LINE
  5
515
330
1F
100
AcDbEntity
  8
0
100
AcDbLine
 10
51.10878117239434
 20
159.5507296883465
 30
0.0
 11
51.10878117239434
 21
167.1233848977992
 31
0.0
  0
LINE
  5
516
330
1F
100
AcDbEntity
  8
0
100
AcDbLine
 10
55.60878117239434
 20
120.385850888377
 30
0.0
 11
55.60878117239434
 21
170.3858508883769
 31
0.0
  0
LINE
  5
517
330
1F
100
AcDbEntity
  8
0
100
AcDbLine
 10
39.90878117239429
 20
125.385850888377
 30
0.0
 11
55.10878117239434
 21
125.385850888377
 31
0.0
  0
LINE
  5
518
330
1F
100
AcDbEntity
  8
0
100
AcDbLine
 10
51.10878117239434
 20
165.885850888377
 30
0.0
 11
54.2087811723942
 21
165.885850888377
 31
0.0
  0
LINE
  5
519
330
1F
100
AcDbEntity
  8
0
100
AcDbLine
 10
51.10878117239434
 20
160.8858508883769
 30
0.0
 11
54.2087811723942
 21
160.885850888377
 31
0.0
  0
LINE
  5
51A
330
1F
100
AcDbEntity
  8
0
100
AcDbLine
 10
51.10878117239434
 20
143.885850888377
 30
0.0
 11
54.2087811723942
 21
143.885850888377
 31
0.0
  0
LINE
  5
51B
330
1F
100
AcDbEntity
  8
0
100
AcDbLine
 10
51.10878117239434
 20
138.8858508883769
 30
0.0
 11
54.2087811723942
 21
138.8858508883769
 31
0.0
  0
LINE
  5
51C
330
1F
100
AcDbEntity
  8
0
100
AcDbLine
 10
54.20878117239425
 20
125.385850888377
 30
0.0
 11
54.20878117239425
 21
123.385850888377
 31
0.0
  0
LINE
  5
51D
330
1F
100
AcDbEntity
  8
0
100
AcDbLine
 10
53.65878117239429
 20
125.3858508883771
 30
0.0
 11
53.65878117239429
 21
123.3922886566173
 31
0.0
  0
LINE
  5
51E
330
1F
100
AcDbEntity
  8
0
100
AcDbLine
 10
51.10878117239434
 20
143.885850888377
 30
0.0
 11
51.10878117239434
 21
138.8858508883769
 31
0.0
  0
LINE
  5
51F
330
1F
100
AcDbEntity
  8
0
100
AcDbLine
 10
54.20878117239425
 20
160.8858508883769
 30
0.0
 11
54.20878117239425
 21
165.885850888377
 31
0.0
  0
LINE
  5
520
330
1F
100
AcDbEntity
  8
0
100
AcDbLine
 10
53.65878117239429
 20
160.8858508883769
 30
0.0
 11
53.65878117239429
 21
165.885850888377
 31
0.0
  0
LINE
  5
521
330
1F
100
AcDbEntity
  8
0
100
AcDbLine
 10
54.20878117239425
 20
138.8858508883769
 30
0.0
 11
54.20878117239425
 21
143.885850888377
 31
0.0
  0
LINE
  5
522
330
1F
100
AcDbEntity
  8
0
100
AcDbLine
 10
53.65878117239429
 20
138.8858508883769
 30
0.0
 11
53.65878117239429
 21
143.885850888377
 31
0.0
  0
ARC
  5
523
330
1F
100
AcDbEntity
  8
0
100
AcDbCircle
 10
20.6587811723943
 20
135.385850888377
 30
0.0
 40
1.5
100
AcDbArc
 50
90.0
 51
180.0000000000004
  0
LINE
  5
524
330
1F
100
AcDbEntity
  8
0
100
AcDbLine
 10
245.9039688846526
 20
167.385850888377
 30
0.0
 11
244.9039688846526
 21
167.385850888377
 31
0.0
  0
LINE
  5
525
330
1F
100
AcDbEntity
  8
0
100
AcDbLine
 10
244.4039688846524
 20
120.385850888377
 30
0.0
 11
241.2745593621014
 21
121.2243736427309
 31
0.0
  0
LINE
  5
526
330
1F
100
AcDbEntity
  8
0
100
AcDbLine
 10
244.9039688846526
 20
170.385850888377
 30
0.0
 11
244.4039688846526
 21
170.385850888377
 31
0.0
  0
LINE
  5
527
330
1F
100
AcDbEntity
  8
0
100
AcDbLine
 10
244.9039688846526
 20
120.385850888377
 30
0.0
 11
244.9039688846526
 21
170.385850888377
 31
0.0
  0
LINE
  5
528
330
1F
100
AcDbEntity
  8
0
100
AcDbLine
 10
244.4039688846524
 20
120.385850888377
 30
0.0
 11
244.9039688846526
 21
120.385850888377
 31
0.0
  0
LINE
  5
529
330
1F
100
AcDbEntity
  8
0
100
AcDbLine
 10
240.9039688846526
 20
169.0643652208787
 30
0.0
 11
240.9039688846526
 21
121.7073365558754
 31
0.0
  0
LINE
  5
52A
330
1F
100
AcDbEntity
  8
0
100
AcDbLine
 10
245.9039688846526
 20
123.385850888377
 30
0.0
 11
244.9039688846526
 21
123.385850888377
 31
0.0
  0
LINE
  5
52B
330
1F
100
AcDbEntity
  8
0
100
AcDbLine
 10
244.4039688846526
 20
120.385850888377
 30
0.0
 11
244.4039688846526
 21
170.385850888377
 31
0.0
  0
LINE
  5
52C
330
1F
100
AcDbEntity
  8
0
100
AcDbLine
 10
244.4039688846526
 20
170.385850888377
 30
0.0
 11
241.2745593621014
 21
169.5473281340232
 31
0.0
  0
LINE
  5
52D
330
1F
100
AcDbEntity
  8
0
100
AcDbLine
 10
57.60878117239434
 20
121.1580546653825
 30
0.0
 11
57.60878117239434
 21
169.6136471113715
 31
0.0
  0
LINE
  5
52E
330
1F
100
AcDbEntity
  8
0
100
AcDbLine
 10
242.4039688846526
 20
121.3054127672287
 30
0.0
 11
242.4039688846526
 21
169.4662890095253
 31
0.0
  0
ARC
  5
52F
330
1F
100
AcDbEntity
  8
0
100
AcDbCircle
 10
241.4039688846526
 20
121.7073365558754
 30
0.0
 40
0.5
100
AcDbArc
 50
180.0
 51
254.9999999999988
  0
ARC
  5
530
330
1F
100
AcDbEntity
  8
0
100
AcDbCircle
 10
242.9039688846526
 20
121.3054127672287
 30
0.0
 40
0.5
100
AcDbArc
 50
180.0
 51
254.9999999999988
  0
ARC
  5
531
330
1F
100
AcDbEntity
  8
0
100
AcDbCircle
 10
242.9039688846526
 20
169.4662890095253
 30
0.0
 40
0.5
100
AcDbArc
 50
104.9999999999996
 51
180.0
  0
ARC
  5
532
330
1F
100
AcDbEntity
  8
0
100
AcDbCircle
 10
241.4039688846526
 20
169.0643652208787
 30
0.0
 40
0.5
100
AcDbArc
 50
104.9999999999996
 51
180.0
  0
LINE
  5
533
330
1F
100
AcDbEntity
  8
0
100
AcDbLine
 10
263.4039688846526
 20
136.885850888377
 30
0.0
 11
279.4039688846526
 21
136.885850888377
 31
0.0
  0
LINE
  5
534
330
1F
100
AcDbEntity
  8
0
100
AcDbLine
 10
280.9039688846526
 20
125.3648729004398
 30
0.0
 11
280.9039688846526
 21
135.385850888377
 31
0.0
  0
ARC
  5
535
330
1F
100
AcDbEntity
  8
0
100
AcDbCircle
 10
279.4039688846526
 20
135.385850888377
 30
0.0
 40
1.5
100
AcDbArc
 50
0.0
 51
90.0
  0
LINE
  5
536
330
1F
100
AcDbEntity
  8
0
100
AcDbLine
 10
274.1039688846527
 20
136.885850888377
 30
0.0
 11
274.1039688846527
 21
157.885850888377
 31
0.0
  0
LINE
  5
537
330
1F
100
AcDbEntity
  8
0
100
AcDbLine
 10
274.1039688846527
 20
157.885850888377
 30
0.0
 11
269.7039688846526
 21
157.885850888377
 31
0.0
  0
LINE
  5
538
330
1F
100
AcDbEntity
  8
0
100
AcDbLine
 10
263.4039688846522
 20
127.2077304351242
 30
0.0
 11
263.4039688846524
 21
163.5639713416298
 31
0.0
  0
LINE
  5
539
330
1F
100
AcDbEntity
  8
0
100
AcDbLine
 10
269.7039688846526
 20
157.885850888377
 30
0.0
 11
269.7039688846526
 21
164.8858508883769
 31
0.0
  0
LINE
  5
53A
330
1F
100
AcDbEntity
  8
0
100
AcDbLine
 10
263.0259100864512
 20
164.8858508883769
 30
0.0
 11
269.7039688846526
 21
164.8858508883769
 31
0.0
  0
ARC
  5
53B
330
1F
100
AcDbEntity
  8
0
100
AcDbCircle
 10
57.10878117239435
 20
169.6136471113715
 30
0.0
 40
0.5
100
AcDbArc
 50
0.0
 51
79.9999999999998
  0
ARC
  5
53C
330
1F
100
AcDbEntity
  8
0
100
AcDbCircle
 10
58.61278117239471
 20
169.3484513323858
 30
0.0
 40
0.5
100
AcDbArc
 50
0.0
 51
79.9999999999998
  0
ARC
  5
53D
330
1F
100
AcDbEntity
  8
0
100
AcDbCircle
 10
57.10878117239435
 20
121.1580546653825
 30
0.0
 40
0.5
100
AcDbArc
 50
279.9999999999986
 51
0.0
  0
ARC
  5
53E
330
1F
100
AcDbEntity
  8
0
100
AcDbCircle
 10
58.61278117239471
 20
121.4232504443681
 30
0.0
 40
0.5
100
AcDbArc
 50
280.0000000000001
 51
0.0
  0
LINE
  5
53F
330
1F
100
AcDbEntity
  8
T
100
AcDbLine
 10
170.4935259981628
 20
152.885850888377
 30
0.0
 11
145.0935259981626
 21
152.885850888377
 31
0.0
  0
LINE
  5
540
330
1F
100
AcDbEntity
  8
0
100
AcDbLine
 10
30.30878117239416
 20
137.0858508883769
 30
0.0
 11
25.90878117239454
 21
137.0858508883769
 31
0.0
  0
LINE
  5
541
330
1F
100
AcDbEntity
  8
0
100
AcDbLine
 10
30.30878117239439
 20
164.885850888377
 30
0.0
 11
25.90878117239454
 21
164.885850888377
 31
0.0
  0
LINE
  5
542
330
1F
100
AcDbEntity
  8
0
100
AcDbLine
 10
25.90878117239454
 20
137.0858508883769
 30
0.0
 11
25.90878117239454
 21
142.885850888377
 31
0.0
  0
LINE
  5
543
330
1F
100
AcDbEntity
  8
0
100
AcDbLine
 10
28.40878117239444
 20
162.8858508883768
 30
0.0
 11
26.00878117239445
 21
162.8858508883768
 31
0.0
  0
LINE
  5
544
330
1F
100
AcDbEntity
  8
0
100
AcDbLine
 10
26.00878117239445
 20
137.8858508883769
 30
0.0
 11
26.00878117239445
 21
162.8858508883768
 31
0.0
  0
LINE
  5
545
330
1F
100
AcDbEntity
  8
0
100
AcDbLine
 10
23.90878117239453
 20
164.885850888377
 30
0.0
 11
25.90878117239454
 21
164.885850888377
 31
0.0
  0
LINE
  5
546
330
1F
100
AcDbEntity
  8
0
100
AcDbLine
 10
23.90878117239453
 20
137.0858508883771
 30
0.0
 11
25.9087811723943
 21
137.0858508883771
 31
0.0
  0
LINE
  5
547
330
1F
100
AcDbEntity
  8
0
100
AcDbLine
 10
23.90878117239453
 20
137.0858508883771
 30
0.0
 11
23.90878117239453
 21
164.885850888377
 31
0.0
  0
LINE
  5
548
330
1F
100
AcDbEntity
  8
0
100
AcDbLine
 10
25.90878117239454
 20
164.885850888377
 30
0.0
 11
25.9087811723943
 21
137.0858508883771
 31
0.0
  0
LINE
  5
549
330
1F
100
AcDbEntity
  8
0
100
AcDbLine
 10
23.40878117239453
 20
158.235850888377
 30
0.0
 11
23.90878117239453
 21
158.235850888377
 31
0.0
  0
LINE
  5
54A
330
1F
100
AcDbEntity
  8
0
100
AcDbLine
 10
23.40878117239453
 20
164.535850888377
 30
0.0
 11
23.9087811723943
 21
164.535850888377
 31
0.0
  0
ARC
  5
54B
330
1F
100
AcDbEntity
  8
0
100
AcDbCircle
 10
26.2525311723943
 20
161.385850888377
 30
0.0
 40
4.243749999999924
100
AcDbArc
 50
132.0750220508435
 51
227.9249779491565
  0
ARC
  5
54C
330
1F
100
AcDbEntity
  8
0
100
AcDbCircle
 10
26.25253117239407
 20
140.885850888377
 30
0.0
 40
4.243749999999924
100
AcDbArc
 50
132.0750220508435
 51
227.9249779491565
  0
LINE
  5
54D
330
1F
100
AcDbEntity
  8
0
100
AcDbLine
 10
23.4087811723943
 20
144.035850888377
 30
0.0
 11
23.9087811723943
 21
144.035850888377
 31
0.0
  0
LINE
  5
54E
330
1F
100
AcDbEntity
  8
0
100
AcDbLine
 10
23.4087811723943
 20
137.735850888377
 30
0.0
 11
23.9087811723943
 21
137.735850888377
 31
0.0
  0
LINE
  5
54F
330
1F
100
AcDbEntity
  8
0
100
AcDbLine
 10
276.6039688846527
 20
137.7358508883769
 30
0.0
 11
276.1039688846527
 21
137.735850888377
 31
0.0
  0
LINE
  5
550
330
1F
100
AcDbEntity
  8
0
100
AcDbLine
 10
276.6039688846527
 20
144.0358508883769
 30
0.0
 11
276.1039688846527
 21
144.0358508883769
 31
0.0
  0
ARC
  5
551
330
1F
100
AcDbEntity
  8
0
100
AcDbCircle
 10
273.7602188846527
 20
140.8858508883769
 30
0.0
 40
4.243749999999924
100
AcDbArc
 50
312.0750220508435
 51
47.92497794915647
  0
ARC
  5
552
330
1F
100
AcDbEntity
  8
0
100
AcDbCircle
 10
273.7602188846527
 20
161.3858508883769
 30
0.0
 40
4.243749999999924
100
AcDbArc
 50
312.0750220508435
 51
47.92497794915647
  0
LINE
  5
553
330
1F
100
AcDbEntity
  8
0
100
AcDbLine
 10
276.6039688846527
 20
164.5358508883769
 30
0.0
 11
276.1039688846527
 21
164.5358508883769
 31
0.0
  0
LINE
  5
554
330
1F
100
AcDbEntity
  8
0
100
AcDbLine
 10
276.6039688846527
 20
158.2358508883769
 30
0.0
 11
276.1039688846527
 21
158.235850888377
 31
0.0
  0
LINE
  5
555
330
1F
100
AcDbEntity
  8
0
100
AcDbLine
 10
274.1039688846527
 20
164.8858508883769
 30
0.0
 11
274.1039688846527
 21
137.0858508883769
 31
0.0
  0
LINE
  5
556
330
1F
100
AcDbEntity
  8
0
100
AcDbLine
 10
276.1039688846527
 20
137.0858508883769
 30
0.0
 11
274.1039688846527
 21
137.0858508883769
 31
0.0
  0
LINE
  5
557
330
1F
100
AcDbEntity
  8
0
100
AcDbLine
 10
276.1039688846527
 20
164.8858508883769
 30
0.0
 11
274.1039688846527
 21
164.8858508883769
 31
0.0
  0
LINE
  5
558
330
1F
100
AcDbEntity
  8
0
100
AcDbLine
 10
269.7039688846526
 20
157.885850888377
 30
0.0
 11
269.7039688846526
 21
164.8858508883769
 31
0.0
  0
LINE
  5
559
330
1F
100
AcDbEntity
  8
0
100
AcDbLine
 10
269.7039688846526
 20
164.8858508883769
 30
0.0
 11
274.1039688846527
 21
164.8858508883769
 31
0.0
  0
LINE
  5
55A
330
1F
100
AcDbEntity
  8
0
100
AcDbLine
 10
269.7039688846526
 20
158.3858508883769
 30
0.0
 11
274.1039688846527
 21
158.3858508883769
 31
0.0
  0
LINE
  5
55B
330
1F
100
AcDbEntity
  8
0
100
AcDbLine
 10
148.1935259981628
 20
257.2743391153731
 30
0.0
 11
173.6935259981626
 21
257.274339115373
 31
0.0
  0
LINE
  5
55C
330
1F
100
AcDbEntity
  8
0
100
AcDbLine
 10
148.1935259981626
 20
257.374339115373
 30
0.0
 11
149.1171131214839
 21
261.2573845952268
 31
0.0
  0
LINE
  5
55D
330
1F
100
AcDbEntity
  8
0
100
AcDbLine
 10
148.1935259981623
 20
250.974339115373
 30
0.0
 11
173.6935259981621
 21
250.974339115373
 31
0.0
  0
LINE
  5
55E
330
1F
100
AcDbEntity
  8
0
100
AcDbLine
 10
150.6935259981624
 20
252.974339115373
 30
0.0
 11
168.1935259981624
 21
252.974339115373
 31
0.0
  0
LINE
  5
55F
330
1F
100
AcDbEntity
  8
0
100
AcDbLine
 10
173.6935259981621
 20
255.3743391153729
 30
0.0
 11
173.6935259981621
 21
250.974339115373
 31
0.0
  0
LINE
  5
560
330
1F
100
AcDbEntity
  8
0
100
AcDbLine
 10
168.1935259981624
 20
255.3743391153729
 30
0.0
 11
168.1935259981624
 21
250.974339115373
 31
0.0
  0
LINE
  5
561
330
1F
100
AcDbEntity
  8
0
100
AcDbLine
 10
148.1935259981623
 20
252.974339115373
 30
0.0
 11
148.1935259981623
 21
250.974339115373
 31
0.0
  0
LINE
  5
562
330
1F
100
AcDbEntity
  8
0
100
AcDbLine
 10
168.1935259981624
 20
255.3743391153729
 30
0.0
 11
173.6935259981621
 21
255.3743391153729
 31
0.0
  0
LINE
  5
565
330
1F
100
AcDbEntity
  8
0
100
AcDbLine
 10
164.3935259981624
 20
252.9743391153728
 30
0.0
 11
151.9935259981623
 21
252.9743391153728
 31
0.0
  0
ARC
  5
566
330
1F
100
AcDbEntity
  8
0
100
AcDbCircle
 10
174.1935259981626
 20
242.8417002963485
 30
0.0
 40
0.5
100
AcDbArc
 50
180.0
 51
310.646921161015
  0
ARC
  5
567
330
1F
100
AcDbEntity
  8
0
100
AcDbCircle
 10
177.4505049385573
 20
239.0480097209553
 30
0.0
 40
4.5
100
AcDbArc
 50
94.99999999999976
 51
130.646921161015
  0
LINE
  5
568
330
1F
100
AcDbEntity
  8
0
100
AcDbLine
 10
190.1280345837999
 20
244.6743391153729
 30
0.0
 11
177.0583040961926
 21
243.5308858623681
 31
0.0
  0
ARC
  5
569
330
1F
100
AcDbEntity
  8
0
100
AcDbCircle
 10
150.1136588797287
 20
261.1743391153731
 30
0.0
 40
1.0
100
AcDbArc
 50
90.0
 51
175.2363583092739
  0
LINE
  5
56A
330
1F
100
AcDbEntity
  8
0
100
AcDbLine
 10
217.1935259981629
 20
225.674339115373
 30
0.0
 11
146.1935259981628
 21
225.674339115373
 31
0.0
  0
ARC
  5
56B
330
1F
100
AcDbEntity
  8
0
100
AcDbCircle
 10
172.1935259981625
 20
260.6743391153728
 30
0.0
 40
1.5
100
AcDbArc
 50
0.0
 51
90.0
  0
LINE
  5
56C
330
1F
100
AcDbEntity
  8
0
100
AcDbLine
 10
173.6935259981626
 20
250.974339115373
 30
0.0
 11
148.1935259981626
 21
250.974339115373
 31
0.0
  0
ARC
  5
56D
330
1F
100
AcDbEntity
  8
0
100
AcDbCircle
 10
199.3181484682393
 20
242.1743391153729
 30
0.0
 40
2.5
100
AcDbArc
 50
15.00000000000077
 51
90.0
  0
ARC
  5
56E
330
1F
100
AcDbEntity
  8
0
100
AcDbCircle
 10
147.1935259981625
 20
229.1743391153731
 30
0.0
 40
1.0
100
AcDbArc
 50
90.0
 51
180.0
  0
LINE
  5
56F
330
1F
100
AcDbEntity
  8
0
100
AcDbLine
 10
173.6935259981626
 20
230.1743391153737
 30
0.0
 11
147.1935259981625
 21
230.1743391153731
 31
0.0
  0
LINE
  5
570
330
1F
100
AcDbEntity
  8
0
100
AcDbLine
 10
146.1935259981625
 20
227.6102375002353
 30
0.0
 11
146.1935259981625
 21
229.1743391153731
 31
0.0
  0
LINE
  5
571
330
1F
100
AcDbEntity
  8
0
100
AcDbLine
 10
148.1935259981628
 20
227.0743391153729
 30
0.0
 11
146.1935259981625
 21
227.6102375002353
 31
0.0
  0
LINE
  5
572
330
1F
100
AcDbEntity
  8
0
100
AcDbLine
 10
217.1935259981629
 20
225.674339115373
 30
0.0
 11
217.1935259981626
 21
226.174339115373
 31
0.0
  0
LINE
  5
573
330
1F
100
AcDbEntity
  8
0
100
AcDbLine
 10
217.1935259981626
 20
226.1743391153729
 30
0.0
 11
146.1935259981625
 21
226.174339115373
 31
0.0
  0
LINE
  5
574
330
1F
100
AcDbEntity
  8
0
100
AcDbLine
 10
199.3181484682393
 20
244.6743391153729
 30
0.0
 11
190.1280345837999
 21
244.6743391153729
 31
0.0
  0
LINE
  5
575
330
1F
100
AcDbEntity
  8
0
100
AcDbLine
 10
172.1935259981625
 20
262.1743391153728
 30
0.0
 11
150.1136588797287
 21
262.1743391153731
 31
0.0
  0
LINE
  5
576
330
1F
100
AcDbEntity
  8
0
100
AcDbLine
 10
206.1935259981626
 20
226.174339115373
 30
0.0
 11
201.7329630339621
 21
242.8213867281292
 31
0.0
  0
LINE
  5
577
330
1F
100
AcDbEntity
  8
0
100
AcDbLine
 10
217.1935259981626
 20
225.674339115373
 30
0.0
 11
216.7569270324555
 21
224.0449295928216
 31
0.0
  0
LINE
  5
578
330
1F
100
AcDbEntity
  8
0
100
AcDbLine
 10
173.6935259981626
 20
230.1743391153737
 30
0.0
 11
173.6935259981626
 21
260.6743391153728
 31
0.0
  0
LINE
  5
579
330
1F
100
AcDbEntity
  8
0
100
AcDbLine
 10
146.1935259981625
 20
226.174339115373
 30
0.0
 11
146.1935259981628
 21
225.674339115373
 31
0.0
  0
LINE
  5
57A
330
1F
100
AcDbEntity
  8
0
100
AcDbLine
 10
146.1935259981628
 20
225.674339115373
 30
0.0
 11
146.6534706154525
 21
223.9578024349802
 31
0.0
  0
LINE
  5
57B
330
1F
100
AcDbEntity
  8
0
100
AcDbLine
 10
148.1935259981628
 20
257.3743391153739
 30
0.0
 11
148.1935259981628
 21
226.174339115373
 31
0.0
  0
LINE
  5
57C
330
1F
100
AcDbEntity
  8
0
100
AcDbLine
 10
279.4250935500347
 20
123.865021658312
 30
0.0
 11
245.4039688846526
 21
123.385850888377
 31
0.0
  0
ARC
  5
57D
330
1F
100
AcDbEntity
  8
0
100
AcDbCircle
 10
279.4039688846526
 20
125.3648729004398
 30
0.0
 40
1.5
100
AcDbArc
 50
270.8069294551021
 51
0.0
  0
LINE
  5
57E
330
1F
100
AcDbEntity
  8
0
100
AcDbLine
 10
245.9039688846522
 20
123.385850888377
 30
0.0
 11
261.1218582415213
 21
124.7172436898948
 31
0.0
  0
LINE
  5
57F
330
1F
100
AcDbEntity
  8
0
100
AcDbLine
 10
245.9039688846528
 20
167.385850888377
 30
0.0
 11
261.1218582415215
 21
166.0544580868592
 31
0.0
  0
ARC
  5
580
330
1F
100
AcDbEntity
  8
0
100
AcDbCircle
 10
260.9039688846524
 20
163.5639713416298
 30
0.0
 40
2.5
100
AcDbArc
 50
359.9999999999996
 51
85.00000000000024
  0
ARC
  5
581
330
1F
100
AcDbEntity
  8
0
100
AcDbCircle
 10
260.9039688846522
 20
127.2077304351242
 30
0.0
 40
2.5
100
AcDbArc
 50
274.9999999999998
 51
0.0
  0
LINE
  5
582
330
1F
100
AcDbEntity
  8
0
100
AcDbLine
 10
20.63732414057648
 20
123.8646986284602
 30
0.0
 11
54.10878117239434
 21
123.385850888377
 31
0.0
  0
ARC
  5
583
330
1F
100
AcDbEntity
  8
0
100
AcDbCircle
 10
20.65878117239453
 20
125.3645451525372
 30
0.0
 40
1.5
100
AcDbArc
 50
180.0000000000008
 51
269.1803738031358
  0
LINE
  5
584
330
1F
100
AcDbEntity
  8
0
100
AcDbLine
 10
54.10878117239434
 20
167.385850888377
 30
0.0
 11
38.89089181552522
 21
166.0544580868591
 31
0.0
  0
ARC
  5
585
330
1F
100
AcDbEntity
  8
0
100
AcDbCircle
 10
39.10878117239434
 20
163.5639713416298
 30
0.0
 40
2.5
100
AcDbArc
 50
94.99999999999976
 51
148.0788410213844
  0
LINE
  5
586
330
1F
100
AcDbEntity
  8
0
100
AcDbLine
 10
206.1935259981626
 20
227.6743391153731
 30
0.0
 11
205.4435259981622
 21
228.973377221051
 31
0.0
  0
LINE
  5
587
330
1F
100
AcDbEntity
  8
0
100
AcDbLine
 10
206.1935259981626
 20
226.1743391153727
 30
0.0
 11
206.1935259981626
 21
227.6743391153731
 31
0.0
  0
ARC
  5
588
330
1F
100
AcDbEntity
  8
0
100
AcDbCircle
 10
215.1447632329928
 20
228.3583794020242
 30
0.0
 40
1.0
100
AcDbArc
 50
310.0000000000001
 51
19.99999999999971
  0
LINE
  5
589
330
1F
100
AcDbEntity
  8
0
100
AcDbLine
 10
214.6935259981628
 20
226.6743391153728
 30
0.0
 11
215.7875508426794
 21
227.5923349589052
 31
0.0
  0
ARC
  5
58A
330
1F
100
AcDbEntity
  8
0
100
AcDbCircle
 10
208.3795127591498
 20
238.174339115373
 30
0.0
 40
4.0
100
AcDbArc
 50
20.00000000000009
 51
90.0
  0
ARC
  5
58B
330
1F
100
AcDbEntity
  8
0
100
AcDbCircle
 10
209.0935867625208
 20
237.6743391153728
 30
0.0
 40
2.0
100
AcDbArc
 50
338.5903778907299
 51
131.4096221092709
  0
LINE
  5
58C
330
1F
100
AcDbEntity
  8
0
100
AcDbLine
 10
207.9546866063233
 20
239.6743391153727
 30
0.0
 11
210.2704484389321
 21
239.6743391153727
 31
0.0
  0
LINE
  5
58D
330
1F
100
AcDbEntity
  8
0
100
AcDbLine
 10
210.7157132173643
 20
239.0651921095167
 30
0.0
 11
211.44350530519
 21
237.0655997821581
 31
0.0
  0
LINE
  5
58E
330
1F
100
AcDbEntity
  8
0
100
AcDbLine
 10
207.7707111069885
 20
239.1743391153728
 30
0.0
 11
202.710186496558
 21
239.1743391153728
 31
0.0
  0
LINE
  5
58F
330
1F
100
AcDbEntity
  8
0
100
AcDbLine
 10
216.0844558537788
 20
228.7003995453498
 30
0.0
 11
212.1382832422935
 21
239.5424196886755
 31
0.0
  0
LINE
  5
590
330
1F
100
AcDbEntity
  8
0
100
AcDbLine
 10
214.6935259981628
 20
226.6743391153728
 30
0.0
 11
210.9555758150068
 21
236.9442728386403
 31
0.0
  0
LINE
  5
591
330
1F
100
AcDbEntity
  8
0
100
AcDbLine
 10
208.3795127591498
 20
242.1743391153729
 30
0.0
 11
201.9063389192645
 21
242.1743391153727
 31
0.0
  0
LINE
  5
592
330
1F
100
AcDbEntity
  8
0
100
AcDbLine
 10
204.5335259981625
 20
166.3175644496916
 30
0.0
 11
179.2435259981623
 21
166.3175644496916
 31
0.0
  0
LINE
  5
593
330
1F
100
AcDbEntity
  8
0
100
AcDbLine
 10
204.5335259981623
 20
124.4541373270624
 30
0.0
 11
179.2435259981625
 21
124.4541373270624
 31
0.0
  0
LINE
  5
594
330
1F
100
AcDbEntity
  8
0
100
AcDbLine
 10
205.5335259981623
 20
125.4541373270624
 30
0.0
 11
205.5335259981625
 21
165.3175644496916
 31
0.0
  0
ARC
  5
595
330
1F
100
AcDbEntity
  8
0
100
AcDbCircle
 10
179.2435259981625
 20
125.4541373270624
 30
0.0
 40
1.0
100
AcDbArc
 50
180.0000000000004
 51
270.0
  0
ARC
  5
596
330
1F
100
AcDbEntity
  8
0
100
AcDbCircle
 10
204.5335259981623
 20
125.4541373270624
 30
0.0
 40
1.0
100
AcDbArc
 50
270.0
 51
359.9999999999996
  0
ARC
  5
597
330
1F
100
AcDbEntity
  8
0
100
AcDbCircle
 10
204.5335259981625
 20
165.3175644496916
 30
0.0
 40
1.0
100
AcDbArc
 50
359.9999999999996
 51
90.0
  0
ARC
  5
598
330
1F
100
AcDbEntity
  8
0
100
AcDbCircle
 10
179.2435259981623
 20
165.3175644496916
 30
0.0
 40
1.0
100
AcDbArc
 50
90.0
 51
180.0000000000004
  0
LINE
  5
5AF
330
1F
100
AcDbEntity
  8
0
100
AcDbLine
 10
206.1935259981626
 20
168.9544318861308
 30
0.0
 11
206.1935259981626
 21
121.6564835162584
 31
0.0
  0
ARC
  5
5B0
330
1F
100
AcDbEntity
  8
0
100
AcDbCircle
 10
176.1935259981625
 20
522.1743391153728
 30
0.0
 40
300.0
100
AcDbArc
 50
264.4324819566015
 51
275.7319679651982
  0
LINE
  5
5B1
330
1F
100
AcDbEntity
  8
0
100
AcDbLine
 10
216.2739641193109
 20
223.6743391153729
 30
0.0
 11
206.1560025313197
 21
223.6743391153729
 31
0.0
  0
ARC
  5
5B2
330
1F
100
AcDbEntity
  8
0
100
AcDbCircle
 10
216.2739641193109
 20
224.1743391153729
 30
0.0
 40
0.5
100
AcDbArc
 50
270.0
 51
344.999999999998
  0
ARC
  5
5B3
330
1F
100
AcDbEntity
  8
0
100
AcDbCircle
 10
147.1364335285971
 20
224.0872119575315
 30
0.0
 40
0.5
100
AcDbArc
 50
195.0000000000008
 51
264.4324819566048
  0
TEXT
  5
5B4
330
1F
100
AcDbEntity
  8
0
100
AcDbText
 10
289.0546913560886
 20
17.55469135608882
 30
0.0
 40
4.0
  1
ロッカー錠
  7
SIMPLEX
100
AcDbText
  0
TEXT
  5
5B5
330
1F
100
AcDbEntity
  8
0
100
AcDbText
 10
289.0546913560886
 20
8.554691356088824
 30
0.0
 40
4.0
  1
DE10D-13（*）
  7
SIMPLEX
100
AcDbText
  0
LINE
  5
5FB
330
1F
100
AcDbEntity
  8
W
100
AcDbLine
 10
0.0
 20
0.0
 30
0.0
 11
-16.16275866951969
 21
0.0
 31
0.0
  0
LINE
  5
5FC
330
1F
100
AcDbEntity
  8
W
100
AcDbLine
 10
0.0
 20
0.0
 30
0.0
 11
0.0
 21
-13.87335872028507
 31
0.0
  0
LINE
  5
5FD
330
1F
100
AcDbEntity
  8
0
100
AcDbLine
 10
391.7147753022642
 20
277.7203096008136
 30
0.0
 11
404.9022689526963
 21
277.7203096008136
 31
0.0
  0
LINE
  5
5FE
330
1F
100
AcDbEntity
  8
0
100
AcDbLine
 10
391.7147753022642
 20
277.7203096008136
 30
0.0
 11
391.7147753022642
 21
291.9660509797287
 31
0.0
  0
ARC
  5
634
330
1F
100
AcDbEntity
  8
0
100
AcDbCircle
 10
158.1935259981626
 20
152.885850888377
 30
0.0
 40
2.25
100
AcDbArc
 50
168.7489885958886
 51
281.2510114041108
  0
LINE
  5
635
330
1F
100
AcDbEntity
  8
0
100
AcDbLine
 10
153.279133868916
 20
156.0324760646573
 30
0.0
 11
161.3401511744425
 21
147.9714587591306
 31
0.0
  0
LINE
  5
636
330
1F
100
AcDbEntity
  8
0
100
AcDbLine
 10
159.9259376120697
 20
149.3856723215036
 30
0.0
 11
161.6937045650359
 21
151.1534392744701
 31
0.0
  0
LINE
  5
637
330
1F
100
AcDbEntity
  8
0
100
AcDbLine
 10
163.1079181274087
 20
149.739225712097
 30
0.0
 11
155.0469008218822
 21
157.8002430176235
 31
0.0
  0
LINE
  5
638
330
1F
100
AcDbEntity
  8
0
100
AcDbLine
 10
156.4611143842555
 20
156.3860294552504
 30
0.0
 11
154.6933474312889
 21
154.6182625022842
 31
0.0
  0
ARC
  5
639
330
1F
100
AcDbEntity
  8
0
100
AcDbCircle
 10
158.1935259981626
 20
152.885850888377
 30
0.0
 40
2.25
100
AcDbArc
 50
348.7489885958887
 51
101.2510114041108
  0
LINE
  5
63A
330
1F
100
AcDbEntity
  8
0
100
AcDbLine
 10
155.0469008218822
 20
157.8002430176235
 30
0.0
 11
153.279133868916
 21
156.0324760646573
 31
0.0
  0
LINE
  5
63B
330
1F
100
AcDbEntity
  8
0
100
AcDbLine
 10
161.3401511744425
 20
147.9714587591306
 30
0.0
 11
163.1079181274087
 21
149.739225712097
 31
0.0
  0
CIRCLE
  5
63C
330
1F
100
AcDbEntity
  8
0
100
AcDbCircle
 10
158.1935259981626
 20
152.885850888377
 30
0.0
 40
8.25
  0
CIRCLE
  5
63D
330
1F
100
AcDbEntity
  8
0
100
AcDbCircle
 10
158.1935259981626
 20
152.885850888377
 30
0.0
 40
8.5
  0
LINE
  5
63E
330
1F
100
AcDbEntity
  8
0
100
AcDbLine
 10
164.5801407892106
 20
165.0061294128484
 30
0.0
 11
164.1139645270903
 21
164.1214375497484
 31
0.0
  0
LINE
  5
63F
330
1F
100
AcDbEntity
  8
0
100
AcDbLine
 10
151.8069112071145
 20
165.0061294128484
 30
0.0
 11
152.2730874692347
 21
164.1214375497484
 31
0.0
  0
LINE
  5
640
330
1F
100
AcDbEntity
  8
0
100
AcDbLine
 10
166.6788073724008
 20
161.3711322626154
 30
0.0
 11
164.5801407892106
 21
165.0061294128484
 31
0.0
  0
LINE
  5
641
330
1F
100
AcDbEntity
  8
0
100
AcDbLine
 10
149.708244623924
 20
161.3711322626156
 30
0.0
 11
151.8069112071145
 21
165.0061294128484
 31
0.0
  0
ARC
  5
642
330
1F
100
AcDbEntity
  8
0
100
AcDbCircle
 10
158.1935259981621
 20
152.8858508883769
 30
0.0
 40
12.7
100
AcDbArc
 50
62.21362569273317
 51
117.7863743072668
  0
ARC
  5
643
330
1F
100
AcDbEntity
  8
0
100
AcDbCircle
 10
158.1935259981621
 20
152.8858508883769
 30
0.0
 40
12.0
100
AcDbArc
 50
44.99999999999971
 51
134.9999999999985
  0
CIRCLE
  5
644
330
1F
100
AcDbEntity
  8
0
100
AcDbCircle
 10
158.1935259981626
 20
152.885850888377
 30
0.0
 40
9.3
  0
LINE
  5
65A
330
1F
100
AcDbEntity
  8
0
100
AcDbLine
 10
276.1039688846527
 20
164.8858508883769
 30
0.0
 11
276.1039688846527
 21
137.0858508883769
 31
0.0
  0
TEXT
  5
8DD
330
1F
100
AcDbEntity
  8
0
100
AcDbText
 10
309.2355704263797
 20
116.7960086120104
 30
0.0
 40
2.5
  1
AAAAA0
 50
180.0
  7
SIMPLEX
 72
     4
 11
301.8546180454273
 21
115.5460086120104
 31
0.0
100
AcDbText
  0
ARC
  5
8EA
330
1F
100
AcDbEntity
  8
0
100
AcDbCircle
 10
301.8546180327203
 20
152.0960086120103
 30
0.0
 40
0.7
100
AcDbArc
 50
35.0000000000003
 51
144.9999999999997
  0
LINE
  5
8EB
330
1F
100
AcDbEntity
  8
0
100
AcDbLine
 10
302.4280244637227
 20
152.497512117456
 30
0.0
 11
305.4546180454272
 21
148.175088526526
 31
0.0
  0
LINE
  5
8EC
330
1F
100
AcDbEntity
  8
0
100
AcDbLine
 10
301.2812116017181
 20
152.497512117456
 30
0.0
 11
298.2546180454274
 21
148.1750885628209
 31
0.0
  0
LINE
  5
8ED
330
1F
100
AcDbEntity
  8
0
100
AcDbLine
 10
303.1298861532982
 20
113.1960086120103
 30
0.0
 11
303.0984811965006
 21
113.1646036552127
 31
0.0
  0
LINE
  5
8EE
330
1F
100
AcDbEntity
  8
0
100
AcDbLine
 10
305.4546180454272
 20
127.4960086120103
 30
0.0
 11
305.4546180454272
 21
148.175088526526
 31
0.0
  0
LINE
  5
8EF
330
1F
100
AcDbEntity
  8
0
100
AcDbLine
 10
298.2546180454274
 20
127.4960086120103
 30
0.0
 11
298.2546180454274
 21
148.1750885628209
 31
0.0
  0
LINE
  5
8F0
330
1F
100
AcDbEntity
  8
0
100
AcDbLine
 10
305.6546180454272
 20
127.2960086120104
 30
0.0
 11
306.3546180454273
 21
127.2960086120104
 31
0.0
  0
LINE
  5
8F1
330
1F
100
AcDbEntity
  8
0
100
AcDbLine
 10
297.3546180454274
 20
127.2960086120104
 30
0.0
 11
298.0546180454273
 21
127.2960086120104
 31
0.0
  0
LINE
  5
8F2
330
1F
100
AcDbEntity
  8
0
100
AcDbLine
 10
307.6640930647384
 20
108.4960086120103
 30
0.0
 11
296.0451430261162
 21
108.4960086120103
 31
0.0
  0
LINE
  5
8F3
330
1F
100
AcDbEntity
  8
0
100
AcDbLine
 10
307.6640930647384
 20
112.4960086120103
 30
0.0
 11
303.8546180454273
 21
112.4960086120103
 31
0.0
  0
ARC
  5
8F4
330
1F
100
AcDbEntity
  8
0
100
AcDbCircle
 10
301.8546180454273
 20
110.4960086120103
 30
0.0
 40
6.5
100
AcDbArc
 50
345.5224878140701
 51
14.47751218592986
  0
ARC
  5
8F5
330
1F
100
AcDbEntity
  8
0
100
AcDbCircle
 10
301.8546180454273
 20
110.4960086120103
 30
0.0
 40
6.5
100
AcDbArc
 50
165.5224878140701
 51
194.4775121859299
  0
ARC
  5
8F6
330
1F
100
AcDbEntity
  8
0
100
AcDbCircle
 10
301.8546180454273
 20
110.9960086120103
 30
0.0
 40
2.5
100
AcDbArc
 50
36.8698976458437
 51
143.1301023541563
  0
ARC
  5
8F7
330
1F
100
AcDbEntity
  8
0
100
AcDbCircle
 10
306.3546180454273
 20
126.7960086120104
 30
0.0
 40
0.5
100
AcDbArc
 50
0.0
 51
90.0
  0
ARC
  5
8F8
330
1F
100
AcDbEntity
  8
0
100
AcDbCircle
 10
297.3546180454274
 20
126.7960086120104
 30
0.0
 40
0.5
100
AcDbArc
 50
90.0
 51
180.0
  0
ARC
  5
8F9
330
1F
100
AcDbEntity
  8
0
100
AcDbCircle
 10
307.6640930647384
 20
108.9960086120103
 30
0.0
 40
0.5
100
AcDbArc
 50
270.0
 51
345.5224878140701
  0
ARC
  5
8FA
330
1F
100
AcDbEntity
  8
0
100
AcDbCircle
 10
307.6640930647384
 20
111.9960086120103
 30
0.0
 40
0.5
100
AcDbArc
 50
14.47751218592986
 51
90.0
  0
ARC
  5
8FB
330
1F
100
AcDbEntity
  8
0
100
AcDbCircle
 10
296.0451430261162
 20
111.9960086120103
 30
0.0
 40
0.5
100
AcDbArc
 50
90.0
 51
165.5224878140701
  0
ARC
  5
8FC
330
1F
100
AcDbEntity
  8
0
100
AcDbCircle
 10
296.0451430261162
 20
108.9960086120103
 30
0.0
 40
0.5
100
AcDbArc
 50
194.4775121859299
 51
270.0
  0
ARC
  5
8FD
330
1F
100
AcDbEntity
  8
0
100
AcDbCircle
 10
305.6546180454272
 20
127.4960086120103
 30
0.0
 40
0.2
100
AcDbArc
 50
180.0
 51
270.0
  0
ARC
  5
8FE
330
1F
100
AcDbEntity
  8
0
100
AcDbCircle
 10
298.0546180454273
 20
127.4960086120103
 30
0.0
 40
0.2
100
AcDbArc
 50
270.0
 51
0.0
  0
ARC
  5
8FF
330
1F
100
AcDbEntity
  8
0
100
AcDbCircle
 10
291.8546180454273
 20
126.7247651673333
 30
0.0
 40
5.0
100
AcDbArc
 50
318.590377890729
 51
0.0
  0
ARC
  5
900
330
1F
100
AcDbEntity
  8
0
100
AcDbCircle
 10
306.8546180454273
 20
113.4960086120103
 30
0.0
 40
15.0
100
AcDbArc
 50
138.5903778907293
 51
180.0
  0
LINE
  5
901
330
1F
100
AcDbEntity
  8
0
100
AcDbLine
 10
291.8546180454273
 20
113.4960086120103
 30
0.0
 11
291.8546180454273
 21
108.7960086120103
 31
0.0
  0
LINE
  5
902
330
1F
100
AcDbEntity
  8
0
100
AcDbLine
 10
311.8546180454274
 20
108.7960086120102
 30
0.0
 11
311.8546180454274
 21
113.4960086120103
 31
0.0
  0
ARC
  5
903
330
1F
100
AcDbEntity
  8
0
100
AcDbCircle
 10
296.8546180454274
 20
113.4960086120103
 30
0.0
 40
15.0
100
AcDbArc
 50
0.0
 51
41.40962210927096
  0
ARC
  5
904
330
1F
100
AcDbEntity
  8
0
100
AcDbCircle
 10
311.8546180454274
 20
126.7247651673333
 30
0.0
 40
4.999999999999983
100
AcDbArc
 50
180.0
 51
221.4096221092709
  0
LINE
  5
905
330
1F
100
AcDbEntity
  8
0
100
AcDbLine
 10
299.8546180454273
 20
112.4960086120103
 30
0.0
 11
296.0451430261162
 21
112.4960086120103
 31
0.0
  0
LINE
  5
906
330
1F
100
AcDbEntity
  8
0
100
AcDbLine
 10
294.8546180454274
 20
105.7960086120104
 30
0.0
 11
308.8546180454273
 21
105.7960086120102
 31
0.0
  0
ARC
  5
907
330
1F
100
AcDbEntity
  8
0
100
AcDbCircle
 10
308.8546180454273
 20
108.7960086120102
 30
0.0
 40
3.0
100
AcDbArc
 50
270.0
 51
0.0
  0
ARC
  5
908
330
1F
100
AcDbEntity
  8
0
100
AcDbCircle
 10
294.8546180454274
 20
108.7960086120103
 30
0.0
 40
3.0
100
AcDbArc
 50
180.0
 51
270.0
  0
LINE
  5
909
330
1F
100
AcDbEntity
  8
0
100
AcDbLine
 10
308.6187975246422
 20
120.6371927813088
 30
0.0
 11
306.8776133553438
 21
118.8960086120103
 31
0.0
  0
LINE
  5
90A
330
1F
100
AcDbEntity
  8
0
100
AcDbLine
 10
296.4776133553437
 20
108.4960086120103
 30
0.0
 11
294.779041806938
 21
106.7974370636048
 31
0.0
  0
LINE
  5
90B
330
1F
100
AcDbEntity
  8
0
100
AcDbLine
 10
309.038010755032
 20
120.3492992305121
 30
0.0
 11
307.5847201365302
 21
118.8960086120103
 31
0.0
  0
LINE
  5
90C
330
1F
100
AcDbEntity
  8
0
100
AcDbLine
 10
297.1847201365303
 20
108.4960086120103
 30
0.0
 11
295.4847201365303
 21
106.7960086120104
 31
0.0
  0
LINE
  5
90D
330
1F
100
AcDbEntity
  8
0
100
AcDbLine
 10
309.3012671940205
 20
119.905448888314
 30
0.0
 11
308.2918269177167
 21
118.8960086120103
 31
0.0
  0
LINE
  5
90E
330
1F
100
AcDbEntity
  8
0
100
AcDbLine
 10
297.8918269177169
 20
108.4960086120103
 30
0.0
 11
296.1918269177168
 21
106.7960086120104
 31
0.0
  0
LINE
  5
90F
330
1F
100
AcDbEntity
  8
0
100
AcDbLine
 10
309.5342218929839
 20
119.4312968060908
 30
0.0
 11
308.9989336989033
 21
118.8960086120103
 31
0.0
  0
LINE
  5
910
330
1F
100
AcDbEntity
  8
0
100
AcDbLine
 10
298.5989336989032
 20
108.4960086120103
 30
0.0
 11
296.8989336989034
 21
106.7960086120104
 31
0.0
  0
LINE
  5
911
330
1F
100
AcDbEntity
  8
0
100
AcDbLine
 10
309.7519744674733
 20
118.9419425993936
 30
0.0
 11
309.7060404800898
 21
118.8960086120103
 31
0.0
  0
LINE
  5
912
330
1F
100
AcDbEntity
  8
0
100
AcDbLine
 10
299.3060404800898
 20
108.4960086120103
 30
0.0
 11
297.6060404800898
 21
106.7960086120104
 31
0.0
  0
LINE
  5
913
330
1F
100
AcDbEntity
  8
0
100
AcDbLine
 10
304.7131472612763
 20
113.1960086120103
 30
0.0
 11
304.0131472612764
 21
112.4960086120103
 31
0.0
  0
LINE
  5
914
330
1F
100
AcDbEntity
  8
0
100
AcDbLine
 10
300.0131472612766
 20
108.4960086120103
 30
0.0
 11
298.3131472612765
 21
106.7960086120104
 31
0.0
  0
LINE
  5
915
330
1F
100
AcDbEntity
  8
0
100
AcDbLine
 10
305.420254042463
 20
113.1960086120103
 30
0.0
 11
304.720254042463
 21
112.4960086120103
 31
0.0
  0
LINE
  5
916
330
1F
100
AcDbEntity
  8
0
100
AcDbLine
 10
300.720254042463
 20
108.4960086120103
 30
0.0
 11
299.0202540424629
 21
106.7960086120104
 31
0.0
  0
LINE
  5
917
330
1F
100
AcDbEntity
  8
0
100
AcDbLine
 10
306.1273608236495
 20
113.1960086120103
 30
0.0
 11
305.4273608236495
 21
112.4960086120103
 31
0.0
  0
LINE
  5
918
330
1F
100
AcDbEntity
  8
0
100
AcDbLine
 10
301.4273608236497
 20
108.4960086120103
 30
0.0
 11
299.7273608236497
 21
106.7960086120104
 31
0.0
  0
LINE
  5
919
330
1F
100
AcDbEntity
  8
0
100
AcDbLine
 10
306.8344676048362
 20
113.1960086120102
 30
0.0
 11
306.1344676048361
 21
112.4960086120103
 31
0.0
  0
LINE
  5
91A
330
1F
100
AcDbEntity
  8
0
100
AcDbLine
 10
302.1344676048361
 20
108.4960086120103
 30
0.0
 11
300.4344676048361
 21
106.7960086120104
 31
0.0
  0
LINE
  5
91B
330
1F
100
AcDbEntity
  8
0
100
AcDbLine
 10
307.5415743860227
 20
113.1960086120103
 30
0.0
 11
306.8415743860227
 21
112.4960086120103
 31
0.0
  0
LINE
  5
91C
330
1F
100
AcDbEntity
  8
0
100
AcDbLine
 10
302.8415743860228
 20
108.4960086120103
 30
0.0
 11
301.1415743860225
 21
106.7960086120104
 31
0.0
  0
LINE
  5
91D
330
1F
100
AcDbEntity
  8
0
100
AcDbLine
 10
308.2486811672092
 20
113.1960086120102
 30
0.0
 11
307.5486811672092
 21
112.4960086120103
 31
0.0
  0
LINE
  5
91E
330
1F
100
AcDbEntity
  8
0
100
AcDbLine
 10
303.5486811672092
 20
108.4960086120103
 30
0.0
 11
301.8486811672092
 21
106.7960086120104
 31
0.0
  0
LINE
  5
91F
330
1F
100
AcDbEntity
  8
0
100
AcDbLine
 10
308.9557879483957
 20
113.1960086120102
 30
0.0
 11
308.0605086269668
 21
112.3007292905813
 31
0.0
  0
LINE
  5
920
330
1F
100
AcDbEntity
  8
0
100
AcDbLine
 10
304.2557879483957
 20
108.4960086120103
 30
0.0
 11
302.5557879483956
 21
106.7960086120102
 31
0.0
  0
LINE
  5
921
330
1F
100
AcDbEntity
  8
0
100
AcDbLine
 10
309.6628947295822
 20
113.1960086120102
 30
0.0
 11
308.2299312393689
 21
111.7630451217969
 31
0.0
  0
LINE
  5
922
330
1F
100
AcDbEntity
  8
0
100
AcDbLine
 10
304.9628947295823
 20
108.4960086120103
 30
0.0
 11
303.2628947295823
 21
106.7960086120102
 31
0.0
  0
LINE
  5
923
330
1F
100
AcDbEntity
  8
0
100
AcDbLine
 10
310.3700015107688
 20
113.1960086120102
 30
0.0
 11
308.3218502969824
 21
111.1478573982239
 31
0.0
  0
LINE
  5
924
330
1F
100
AcDbEntity
  8
0
100
AcDbLine
 10
305.6700015107688
 20
108.4960086120103
 30
0.0
 11
303.9700015107687
 21
106.7960086120102
 31
0.0
  0
LINE
  5
925
330
1F
100
AcDbEntity
  8
0
100
AcDbLine
 10
310.8546180327203
 20
112.9735183527752
 30
0.0
 11
308.3545789887953
 21
110.4734793088502
 31
0.0
  0
LINE
  5
926
330
1F
100
AcDbEntity
  8
0
100
AcDbLine
 10
306.3771082919554
 20
108.4960086120103
 30
0.0
 11
304.6771082919554
 21
106.7960086120102
 31
0.0
  0
LINE
  5
927
330
1F
100
AcDbEntity
  8
0
100
AcDbLine
 10
310.8546180327203
 20
112.2664115715887
 30
0.0
 11
308.3081190132607
 21
109.7199125521292
 31
0.0
  0
LINE
  5
928
330
1F
100
AcDbEntity
  8
0
100
AcDbLine
 10
307.0842150731419
 20
108.4960086120103
 30
0.0
 11
305.3842150731418
 21
106.7960086120102
 31
0.0
  0
LINE
  5
929
330
1F
100
AcDbEntity
  8
0
100
AcDbLine
 10
310.8546180327203
 20
111.5593047904021
 30
0.0
 11
308.1409435012584
 21
108.8456302589402
 31
0.0
  0
LINE
  5
92A
330
1F
100
AcDbEntity
  8
0
100
AcDbLine
 10
307.8144714051016
 20
108.5191581627833
 30
0.0
 11
306.0913218543285
 21
106.7960086120102
 31
0.0
  0
LINE
  5
92B
330
1F
100
AcDbEntity
  8
0
100
AcDbLine
 10
310.8546180327203
 20
110.8521980092156
 30
0.0
 11
306.7984286355149
 21
106.7960086120102
 31
0.0
  0
LINE
  5
92C
330
1F
100
AcDbEntity
  8
0
100
AcDbLine
 10
310.8546180327203
 20
110.145091228029
 30
0.0
 11
307.5055354167016
 21
106.7960086120102
 31
0.0
  0
LINE
  5
92D
330
1F
100
AcDbEntity
  8
0
100
AcDbLine
 10
310.8546180327203
 20
109.4379844468425
 30
0.0
 11
308.212642197888
 21
106.7960086120102
 31
0.0
  0
LINE
  5
92E
330
1F
100
AcDbEntity
  8
0
100
AcDbLine
 10
310.853521202359
 20
108.7297808352946
 30
0.0
 11
308.9208458094361
 21
106.7971054423717
 31
0.0
  0
LINE
  5
92F
330
1F
100
AcDbEntity
  8
0
100
AcDbLine
 10
310.5212266387271
 20
107.6903794904761
 30
0.0
 11
309.9602471542544
 21
107.1294000060036
 31
0.0
  0
LINE
  5
930
330
1F
100
AcDbEntity
  8
0
100
AcDbLine
 10
307.9705065741571
 20
120.6960086120103
 30
0.0
 11
306.1705065741571
 21
118.8960086120103
 31
0.0
  0
LINE
  5
931
330
1F
100
AcDbEntity
  8
0
100
AcDbLine
 10
295.8227086700713
 20
108.5482107079243
 30
0.0
 11
294.1856896536806
 21
106.9111916915336
 31
0.0
  0
LINE
  5
932
330
1F
100
AcDbEntity
  8
0
100
AcDbLine
 10
307.2633997929707
 20
120.6960086120103
 30
0.0
 11
305.4633997929707
 21
118.8960086120103
 31
0.0
  0
LINE
  5
933
330
1F
100
AcDbEntity
  8
0
100
AcDbLine
 10
295.5365024508021
 20
108.9691112698417
 30
0.0
 11
293.7178636004826
 21
107.1504724195223
 31
0.0
  0
LINE
  5
934
330
1F
100
AcDbEntity
  8
0
100
AcDbLine
 10
306.5562930117839
 20
120.6960086120103
 30
0.0
 11
304.756293011784
 21
118.8960086120103
 31
0.0
  0
LINE
  5
935
330
1F
100
AcDbEntity
  8
0
100
AcDbLine
 10
295.4221003274554
 20
109.5618159276816
 30
0.0
 11
293.3447228060662
 21
107.4844384062924
 31
0.0
  0
LINE
  5
936
330
1F
100
AcDbEntity
  8
0
100
AcDbLine
 10
305.8491862305975
 20
120.6960086120103
 30
0.0
 11
304.0491862305976
 21
118.8960086120103
 31
0.0
  0
LINE
  5
937
330
1F
100
AcDbEntity
  8
0
100
AcDbLine
 10
295.3610093233706
 20
110.2078317047835
 30
0.0
 11
293.0621080008588
 21
107.9089303822717
 31
0.0
  0
LINE
  5
938
330
1F
100
AcDbEntity
  8
0
100
AcDbLine
 10
305.1420794494108
 20
120.6960086120103
 30
0.0
 11
303.3420794494109
 21
118.8960086120103
 31
0.0
  0
LINE
  5
939
330
1F
100
AcDbEntity
  8
0
100
AcDbLine
 10
295.3686288557356
 20
110.9225580183348
 30
0.0
 11
292.8864839342423
 21
108.4404130968416
 31
0.0
  0
LINE
  5
93A
330
1F
100
AcDbEntity
  8
0
100
AcDbLine
 10
304.4349726682244
 20
120.6960086120103
 30
0.0
 11
302.6349726682245
 21
118.8960086120103
 31
0.0
  0
LINE
  5
93B
330
1F
100
AcDbEntity
  8
0
100
AcDbLine
 10
295.4737544854083
 20
111.7347904291942
 30
0.0
 11
292.8546180327203
 21
109.1156539765062
 31
0.0
  0
LINE
  5
93C
330
1F
100
AcDbEntity
  8
0
100
AcDbLine
 10
303.727865887038
 20
120.6960086120103
 30
0.0
 11
301.9278658870378
 21
118.8960086120103
 31
0.0
  0
LINE
  5
93D
330
1F
100
AcDbEntity
  8
0
100
AcDbLine
 10
303.0207591058513
 20
120.6960086120103
 30
0.0
 11
301.2207591058514
 21
118.8960086120103
 31
0.0
  0
LINE
  5
93E
330
1F
100
AcDbEntity
  8
0
100
AcDbLine
 10
302.3136523246649
 20
120.6960086120103
 30
0.0
 11
300.5136523246647
 21
118.8960086120103
 31
0.0
  0
LINE
  5
93F
330
1F
100
AcDbEntity
  8
0
100
AcDbLine
 10
301.6065455434782
 20
120.6960086120103
 30
0.0
 11
299.8065455434783
 21
118.8960086120103
 31
0.0
  0
LINE
  5
940
330
1F
100
AcDbEntity
  8
0
100
AcDbLine
 10
300.8994387622918
 20
120.6960086120103
 30
0.0
 11
299.0994387622917
 21
118.8960086120103
 31
0.0
  0
LINE
  5
941
330
1F
100
AcDbEntity
  8
0
100
AcDbLine
 10
300.1923319811051
 20
120.6960086120103
 30
0.0
 11
298.3923319811051
 21
118.8960086120103
 31
0.0
  0
LINE
  5
942
330
1F
100
AcDbEntity
  8
0
100
AcDbLine
 10
299.4852251999187
 20
120.6960086120103
 30
0.0
 11
297.6852251999186
 21
118.8960086120103
 31
0.0
  0
LINE
  5
943
330
1F
100
AcDbEntity
  8
0
100
AcDbLine
 10
298.778118418732
 20
120.6960086120103
 30
0.0
 11
296.978118418732
 21
118.8960086120103
 31
0.0
  0
LINE
  5
944
330
1F
100
AcDbEntity
  8
0
100
AcDbLine
 10
298.0710116375456
 20
120.6960086120103
 30
0.0
 11
296.2710116375456
 21
118.8960086120103
 31
0.0
  0
LINE
  5
945
330
1F
100
AcDbEntity
  8
0
100
AcDbLine
 10
297.3639048563589
 20
120.6960086120103
 30
0.0
 11
295.5639048563589
 21
118.8960086120103
 31
0.0
  0
LINE
  5
946
330
1F
100
AcDbEntity
  8
0
100
AcDbLine
 10
296.6567980751725
 20
120.6960086120103
 30
0.0
 11
294.8567980751725
 21
118.8960086120103
 31
0.0
  0
LINE
  5
947
330
1F
100
AcDbEntity
  8
0
100
AcDbLine
 10
295.9496912939858
 20
120.6960086120103
 30
0.0
 11
294.1496912939858
 21
118.8960086120103
 31
0.0
  0
LINE
  5
948
330
1F
100
AcDbEntity
  8
0
100
AcDbLine
 10
295.2208160260466
 20
120.6742401252576
 30
0.0
 11
294.3620419081367
 21
119.8154660073478
 31
0.0
  0
LINE
  5
949
330
1F
100
AcDbEntity
  8
0
100
AcDbLine
 10
294.9975598214783
 20
120.5984690592888
 30
0.0
 11
296.7000202687568
 21
118.8960086120103
 31
0.0
  0
LINE
  5
94A
330
1F
100
AcDbEntity
  8
0
100
AcDbLine
 10
307.1000202687569
 20
108.4960086120103
 30
0.0
 11
308.8000202687569
 21
106.7960086120102
 31
0.0
  0
LINE
  5
94B
330
1F
100
AcDbEntity
  8
0
100
AcDbLine
 10
295.6071270499433
 20
120.6960086120103
 30
0.0
 11
297.4071270499435
 21
118.8960086120103
 31
0.0
  0
LINE
  5
94C
330
1F
100
AcDbEntity
  8
0
100
AcDbLine
 10
307.7908047729902
 20
108.5123308889635
 30
0.0
 11
309.4242819722249
 21
106.8788536897288
 31
0.0
  0
LINE
  5
94D
330
1F
100
AcDbEntity
  8
0
100
AcDbLine
 10
296.31423383113
 20
120.6960086120103
 30
0.0
 11
298.1142338311299
 21
118.8960086120103
 31
0.0
  0
LINE
  5
94E
330
1F
100
AcDbEntity
  8
0
100
AcDbLine
 10
308.1463284765425
 20
108.8639139665978
 30
0.0
 11
309.9119153215716
 21
107.0983271215688
 31
0.0
  0
LINE
  5
94F
330
1F
100
AcDbEntity
  8
0
100
AcDbLine
 10
297.0213406123164
 20
120.6960086120103
 30
0.0
 11
298.8213406123167
 21
118.8960086120103
 31
0.0
  0
LINE
  5
950
330
1F
100
AcDbEntity
  8
0
100
AcDbLine
 10
308.2695436310107
 20
109.4478055933161
 30
0.0
 11
310.3017993338151
 21
107.4155498905116
 31
0.0
  0
LINE
  5
951
330
1F
100
AcDbEntity
  8
0
100
AcDbLine
 10
297.7284473935031
 20
120.6960086120103
 30
0.0
 11
299.528447393503
 21
118.8960086120103
 31
0.0
  0
LINE
  5
952
330
1F
100
AcDbEntity
  8
0
100
AcDbLine
 10
308.3414818756391
 20
110.0829741298743
 30
0.0
 11
310.6017889500383
 21
107.8226670554751
 31
0.0
  0
LINE
  5
953
330
1F
100
AcDbEntity
  8
0
100
AcDbLine
 10
298.4355541746895
 20
120.6960086120103
 30
0.0
 11
300.2355541746897
 21
118.8960086120103
 31
0.0
  0
LINE
  5
954
330
1F
100
AcDbEntity
  8
0
100
AcDbLine
 10
308.3482661274278
 20
110.783296659272
 30
0.0
 11
310.7999541611505
 21
108.3316086255496
 31
0.0
  0
LINE
  5
955
330
1F
100
AcDbEntity
  8
0
100
AcDbLine
 10
299.1426609558762
 20
120.6960086120103
 30
0.0
 11
300.9426609558762
 21
118.8960086120103
 31
0.0
  0
LINE
  5
956
330
1F
100
AcDbEntity
  8
0
100
AcDbLine
 10
308.2645920998866
 20
111.5740774679998
 30
0.0
 11
310.8546180327203
 21
108.9840515351661
 31
0.0
  0
LINE
  5
957
330
1F
100
AcDbEntity
  8
0
100
AcDbLine
 10
299.8497677370626
 20
120.6960086120103
 30
0.0
 11
301.6497677370628
 21
118.8960086120103
 31
0.0
  0
LINE
  5
958
330
1F
100
AcDbEntity
  8
0
100
AcDbLine
 10
300.5568745182494
 20
120.6960086120103
 30
0.0
 11
302.3568745182493
 21
118.8960086120103
 31
0.0
  0
LINE
  5
959
330
1F
100
AcDbEntity
  8
0
100
AcDbLine
 10
301.2639812994357
 20
120.6960086120103
 30
0.0
 11
303.0639812994359
 21
118.8960086120103
 31
0.0
  0
LINE
  5
95A
330
1F
100
AcDbEntity
  8
0
100
AcDbLine
 10
301.9710880806224
 20
120.6960086120103
 30
0.0
 11
303.7710880806224
 21
118.8960086120103
 31
0.0
  0
LINE
  5
95B
330
1F
100
AcDbEntity
  8
0
100
AcDbLine
 10
302.6781948618088
 20
120.6960086120103
 30
0.0
 11
304.478194861809
 21
118.8960086120103
 31
0.0
  0
LINE
  5
95C
330
1F
100
AcDbEntity
  8
0
100
AcDbLine
 10
303.3853016429955
 20
120.6960086120103
 30
0.0
 11
305.1853016429955
 21
118.8960086120103
 31
0.0
  0
LINE
  5
95D
330
1F
100
AcDbEntity
  8
0
100
AcDbLine
 10
304.0924084241819
 20
120.6960086120103
 30
0.0
 11
305.8924084241821
 21
118.8960086120103
 31
0.0
  0
LINE
  5
95E
330
1F
100
AcDbEntity
  8
0
100
AcDbLine
 10
304.7995152053686
 20
120.6960086120103
 30
0.0
 11
306.5995152053686
 21
118.8960086120103
 31
0.0
  0
LINE
  5
95F
330
1F
100
AcDbEntity
  8
0
100
AcDbLine
 10
305.5066219865552
 20
120.6960086120103
 30
0.0
 11
307.3066219865552
 21
118.8960086120103
 31
0.0
  0
LINE
  5
960
330
1F
100
AcDbEntity
  8
0
100
AcDbLine
 10
306.2137287677417
 20
120.6960086120103
 30
0.0
 11
308.0137287677417
 21
118.8960086120103
 31
0.0
  0
LINE
  5
961
330
1F
100
AcDbEntity
  8
0
100
AcDbLine
 10
306.9208355489282
 20
120.6960086120103
 30
0.0
 11
308.7208355489283
 21
118.8960086120103
 31
0.0
  0
LINE
  5
962
330
1F
100
AcDbEntity
  8
0
100
AcDbLine
 10
307.6279423301148
 20
120.6960086120103
 30
0.0
 11
309.4279423301149
 21
118.8960086120103
 31
0.0
  0
LINE
  5
963
330
1F
100
AcDbEntity
  8
0
100
AcDbLine
 10
308.3366014457272
 20
120.6944562775843
 30
0.0
 11
309.4751344240053
 21
119.5559232993062
 31
0.0
  0
LINE
  5
964
330
1F
100
AcDbEntity
  8
0
100
AcDbLine
 10
294.6133824084764
 20
120.2755396911043
 30
0.0
 11
295.9929134875704
 21
118.8960086120103
 31
0.0
  0
LINE
  5
965
330
1F
100
AcDbEntity
  8
0
100
AcDbLine
 10
306.3929134875702
 20
108.4960086120103
 30
0.0
 11
308.0929134875703
 21
106.7960086120102
 31
0.0
  0
LINE
  5
966
330
1F
100
AcDbEntity
  8
0
100
AcDbLine
 10
294.3634891512886
 20
119.8183261671055
 30
0.0
 11
295.2858067063839
 21
118.8960086120103
 31
0.0
  0
LINE
  5
967
330
1F
100
AcDbEntity
  8
0
100
AcDbLine
 10
305.6858067063838
 20
108.4960086120103
 30
0.0
 11
307.3858067063838
 21
106.7960086120102
 31
0.0
  0
LINE
  5
968
330
1F
100
AcDbEntity
  8
0
100
AcDbLine
 10
294.133317040591
 20
119.3413914966166
 30
0.0
 11
294.5786999251973
 21
118.8960086120103
 31
0.0
  0
LINE
  5
969
330
1F
100
AcDbEntity
  8
0
100
AcDbLine
 10
304.9786999251971
 20
108.4960086120103
 30
0.0
 11
306.6786999251972
 21
106.7960086120102
 31
0.0
  0
LINE
  5
96A
330
1F
100
AcDbEntity
  8
0
100
AcDbLine
 10
299.5715931440106
 20
113.1960086120103
 30
0.0
 11
300.0458261271656
 21
112.7217756288555
 31
0.0
  0
LINE
  5
96B
330
1F
100
AcDbEntity
  8
0
100
AcDbLine
 10
304.2715931440107
 20
108.4960086120103
 30
0.0
 11
305.9715931440107
 21
106.7960086120102
 31
0.0
  0
LINE
  5
96C
330
1F
100
AcDbEntity
  8
0
100
AcDbLine
 10
298.8644863628242
 20
113.1960086120103
 30
0.0
 11
299.5644863628239
 21
112.4960086120103
 31
0.0
  0
LINE
  5
96D
330
1F
100
AcDbEntity
  8
0
100
AcDbLine
 10
303.564486362824
 20
108.4960086120103
 30
0.0
 11
305.2644863628241
 21
106.7960086120102
 31
0.0
  0
LINE
  5
96E
330
1F
100
AcDbEntity
  8
0
100
AcDbLine
 10
298.1573795816375
 20
113.1960086120103
 30
0.0
 11
298.8573795816376
 21
112.4960086120103
 31
0.0
  0
LINE
  5
96F
330
1F
100
AcDbEntity
  8
0
100
AcDbLine
 10
302.8573795816376
 20
108.4960086120103
 30
0.0
 11
304.5573795816376
 21
106.7960086120102
 31
0.0
  0
LINE
  5
970
330
1F
100
AcDbEntity
  8
0
100
AcDbLine
 10
297.4502728004511
 20
113.1960086120103
 30
0.0
 11
298.1502728004508
 21
112.4960086120103
 31
0.0
  0
LINE
  5
971
330
1F
100
AcDbEntity
  8
0
100
AcDbLine
 10
302.1502728004509
 20
108.4960086120103
 30
0.0
 11
303.850272800451
 21
106.7960086120102
 31
0.0
  0
LINE
  5
972
330
1F
100
AcDbEntity
  8
0
100
AcDbLine
 10
296.7431660192644
 20
113.1960086120103
 30
0.0
 11
297.4431660192645
 21
112.4960086120103
 31
0.0
  0
LINE
  5
973
330
1F
100
AcDbEntity
  8
0
100
AcDbLine
 10
301.4431660192645
 20
108.4960086120103
 30
0.0
 11
303.1431660192645
 21
106.7960086120102
 31
0.0
  0
LINE
  5
974
330
1F
100
AcDbEntity
  8
0
100
AcDbLine
 10
296.036059238078
 20
113.1960086120103
 30
0.0
 11
296.7360592380781
 21
112.4960086120103
 31
0.0
  0
LINE
  5
975
330
1F
100
AcDbEntity
  8
0
100
AcDbLine
 10
300.7360592380778
 20
108.4960086120103
 30
0.0
 11
302.4360592380781
 21
106.7960086120104
 31
0.0
  0
LINE
  5
976
330
1F
100
AcDbEntity
  8
0
100
AcDbLine
 10
295.3289524568914
 20
113.1960086120103
 30
0.0
 11
296.0292064940747
 21
112.4957545748269
 31
0.0
  0
LINE
  5
977
330
1F
100
AcDbEntity
  8
0
100
AcDbLine
 10
300.0289524568914
 20
108.4960086120103
 30
0.0
 11
301.7289524568913
 21
106.7960086120104
 31
0.0
  0
LINE
  5
978
330
1F
100
AcDbEntity
  8
0
100
AcDbLine
 10
294.6218456757049
 20
113.1960086120103
 30
0.0
 11
295.598032610907
 21
112.2198216768082
 31
0.0
  0
LINE
  5
979
330
1F
100
AcDbEntity
  8
0
100
AcDbLine
 10
299.3218456757049
 20
108.4960086120103
 30
0.0
 11
301.021845675705
 21
106.7960086120104
 31
0.0
  0
LINE
  5
97A
330
1F
100
AcDbEntity
  8
0
100
AcDbLine
 10
293.9147388945182
 20
113.1960086120103
 30
0.0
 11
295.4583155766261
 21
111.6524319299023
 31
0.0
  0
LINE
  5
97B
330
1F
100
AcDbEntity
  8
0
100
AcDbLine
 10
298.6147388945182
 20
108.4960086120103
 30
0.0
 11
300.3147388945183
 21
106.7960086120104
 31
0.0
  0
LINE
  5
97C
330
1F
100
AcDbEntity
  8
0
100
AcDbLine
 10
293.2076321133318
 20
113.1960086120103
 30
0.0
 11
295.3763655065722
 21
111.0272752187698
 31
0.0
  0
LINE
  5
97D
330
1F
100
AcDbEntity
  8
0
100
AcDbLine
 10
297.9076321133318
 20
108.4960086120103
 30
0.0
 11
299.6076321133319
 21
106.7960086120104
 31
0.0
  0
LINE
  5
97E
330
1F
100
AcDbEntity
  8
0
100
AcDbLine
 10
292.8546180327203
 20
112.8419159114352
 30
0.0
 11
295.3564894408253
 21
110.3400445033302
 31
0.0
  0
LINE
  5
97F
330
1F
100
AcDbEntity
  8
0
100
AcDbLine
 10
297.2005253321452
 20
108.4960086120103
 30
0.0
 11
298.9005253321452
 21
106.7960086120104
 31
0.0
  0
LINE
  5
980
330
1F
100
AcDbEntity
  8
0
100
AcDbLine
 10
292.8546180327203
 20
112.1348091302486
 30
0.0
 11
295.4211678514
 21
109.568259311569
 31
0.0
  0
LINE
  5
981
330
1F
100
AcDbEntity
  8
0
100
AcDbLine
 10
296.4934185509587
 20
108.4960086120103
 30
0.0
 11
298.1934185509587
 21
106.7960086120104
 31
0.0
  0
LINE
  5
982
330
1F
100
AcDbEntity
  8
0
100
AcDbLine
 10
292.8546180327203
 20
111.4277023490621
 30
0.0
 11
297.4863117697721
 21
106.7960086120104
 31
0.0
  0
LINE
  5
983
330
1F
100
AcDbEntity
  8
0
100
AcDbLine
 10
292.8546180327203
 20
110.7205955678756
 30
0.0
 11
296.7792049885854
 21
106.7960086120104
 31
0.0
  0
LINE
  5
984
330
1F
100
AcDbEntity
  8
0
100
AcDbLine
 10
292.8546180327203
 20
110.0134887866889
 30
0.0
 11
296.072098207399
 21
106.7960086120104
 31
0.0
  0
LINE
  5
985
330
1F
100
AcDbEntity
  8
0
100
AcDbLine
 10
292.8546180327203
 20
109.3063820055024
 30
0.0
 11
295.3649914262123
 21
106.7960086120104
 31
0.0
  0
LINE
  5
986
330
1F
100
AcDbEntity
  8
0
100
AcDbLine
 10
292.86541431346
 20
108.5884789435764
 30
0.0
 11
294.6470883642864
 21
106.8068048927499
 31
0.0
  0
LINE
  5
987
330
1F
100
AcDbEntity
  8
0
100
AcDbLine
 10
310.1781948618091
 20
113.1960086120102
 30
0.0
 11
310.8546180327203
 21
112.5195854410989
 31
0.0
  0
LINE
  5
988
330
1F
100
AcDbEntity
  8
0
100
AcDbLine
 10
304.0060404800899
 20
113.1960086120103
 30
0.0
 11
303.5979293462153
 21
112.7878974781358
 31
0.0
  0
LINE
  5
989
330
1F
100
AcDbEntity
  8
0
100
AcDbLine
 10
303.2989336989033
 20
113.1960086120103
 30
0.0
 11
303.2036908359387
 21
113.1007657490457
 31
0.0
  0
LINE
  5
98A
330
1F
100
AcDbEntity
  8
0
100
AcDbLine
 10
300.4705065741571
 20
113.1960086120103
 30
0.0
 11
299.7705065741572
 21
112.4960086120103
 31
0.0
  0
LINE
  5
98B
330
1F
100
AcDbEntity
  8
0
100
AcDbLine
 10
299.7633997929706
 20
113.1960086120103
 30
0.0
 11
299.0633997929706
 21
112.4960086120103
 31
0.0
  0
LINE
  5
98C
330
1F
100
AcDbEntity
  8
0
100
AcDbLine
 10
299.056293011784
 20
113.1960086120103
 30
0.0
 11
298.3562930117841
 21
112.4960086120103
 31
0.0
  0
LINE
  5
98D
330
1F
100
AcDbEntity
  8
0
100
AcDbLine
 10
309.4710880806224
 20
113.1960086120102
 30
0.0
 11
310.8546180327203
 21
111.8124786599123
 31
0.0
  0
LINE
  5
98E
330
1F
100
AcDbEntity
  8
0
100
AcDbLine
 10
308.763981299436
 20
113.1960086120102
 30
0.0
 11
310.8546180327203
 21
111.1053718787258
 31
0.0
  0
LINE
  5
98F
330
1F
100
AcDbEntity
  8
0
100
AcDbLine
 10
298.3491862305974
 20
113.1960086120103
 30
0.0
 11
297.6491862305975
 21
112.4960086120103
 31
0.0
  0
LINE
  5
990
330
1F
100
AcDbEntity
  8
0
100
AcDbLine
 10
308.0568745182493
 20
113.1960086120102
 30
0.0
 11
310.8546180327203
 21
110.3982650975392
 31
0.0
  0
LINE
  5
991
330
1F
100
AcDbEntity
  8
0
100
AcDbLine
 10
297.6420794494109
 20
113.1960086120103
 30
0.0
 11
296.942079449411
 21
112.4960086120103
 31
0.0
  0
LINE
  5
992
330
1F
100
AcDbEntity
  8
0
100
AcDbLine
 10
296.9349726682244
 20
113.1960086120103
 30
0.0
 11
296.2349726682244
 21
112.4960086120103
 31
0.0
  0
LINE
  5
993
330
1F
100
AcDbEntity
  8
0
100
AcDbLine
 10
306.6426609558762
 20
113.1960086120103
 30
0.0
 11
307.3426609558762
 21
112.4960086120103
 31
0.0
  0
LINE
  5
994
330
1F
100
AcDbEntity
  8
0
100
AcDbLine
 10
296.227865887038
 20
113.1960086120103
 30
0.0
 11
292.8546180327203
 21
109.8227607576927
 31
0.0
  0
LINE
  5
995
330
1F
100
AcDbEntity
  8
0
100
AcDbLine
 10
307.3497677370629
 20
113.1960086120103
 30
0.0
 11
310.8546180327203
 21
109.6911583163527
 31
0.0
  0
LINE
  5
996
330
1F
100
AcDbEntity
  8
0
100
AcDbLine
 10
305.9355541746894
 20
113.1960086120103
 30
0.0
 11
306.6355541746895
 21
112.4960086120103
 31
0.0
  0
LINE
  5
997
330
1F
100
AcDbEntity
  8
0
100
AcDbLine
 10
295.5207591058513
 20
113.1960086120103
 30
0.0
 11
292.8546180327203
 21
110.5298675388793
 31
0.0
  0
LINE
  5
998
330
1F
100
AcDbEntity
  8
0
100
AcDbLine
 10
305.2284473935031
 20
113.1960086120103
 30
0.0
 11
305.9284473935031
 21
112.4960086120103
 31
0.0
  0
LINE
  5
999
330
1F
100
AcDbEntity
  8
0
100
AcDbLine
 10
294.8136523246649
 20
113.1960086120103
 30
0.0
 11
292.8546180327203
 21
111.2369743200659
 31
0.0
  0
LINE
  5
99A
330
1F
100
AcDbEntity
  8
0
100
AcDbLine
 10
304.5213406123167
 20
113.1960086120103
 30
0.0
 11
305.2213406123164
 21
112.4960086120103
 31
0.0
  0
LINE
  5
99B
330
1F
100
AcDbEntity
  8
0
100
AcDbLine
 10
294.1065455434782
 20
113.1960086120103
 30
0.0
 11
292.8546180327203
 21
111.9440811012524
 31
0.0
  0
LINE
  5
99C
330
1F
100
AcDbEntity
  8
0
100
AcDbLine
 10
303.8142338311299
 20
113.1960086120103
 30
0.0
 11
304.51423383113
 21
112.4960086120103
 31
0.0
  0
LINE
  5
99D
330
1F
100
AcDbEntity
  8
0
100
AcDbLine
 10
293.3994387622917
 20
113.1960086120103
 30
0.0
 11
292.8546180327203
 21
112.651187882439
 31
0.0
  0
LINE
  5
99E
330
1F
100
AcDbEntity
  8
0
100
AcDbLine
 10
303.1071270499435
 20
113.1960086120103
 30
0.0
 11
303.2000242925577
 21
113.103111369396
 31
0.0
  0
LINE
  5
99F
330
1F
100
AcDbEntity
  8
0
100
AcDbLine
 10
300.2786999251973
 20
113.1960086120103
 30
0.0
 11
300.4266502348069
 21
113.0480583024008
 31
0.0
  0
LINE
  5
9A0
330
1F
100
AcDbEntity
  8
0
100
AcDbLine
 10
306.8546180454273
 20
126.7247651673333
 30
0.0
 11
306.8546180454273
 21
126.7960086120104
 31
0.0
  0
LINE
  5
9A1
330
1F
100
AcDbEntity
  8
0
100
AcDbLine
 10
296.8546180454274
 20
126.7247651673333
 30
0.0
 11
296.8546180454274
 21
126.7960086120104
 31
0.0
  0
TEXT
  5
9D7
330
1F
100
AcDbEntity
  8
0
100
AcDbText
 10
51.15784583235722
 20
265.3117323906607
 30
0.0
 40
2.1
  1
±0.05
  7
SIMPLEX
100
AcDbText
  0
TEXT
  5
9D8
330
1F
100
AcDbEntity
  8
0
100
AcDbText
 10
47.05784583235685
 20
259.3117323906607
 30
0.0
 40
2.1
  1
±0.05
  7
SIMPLEX
100
AcDbText
  0
TEXT
  5
9D9
330
1F
100
AcDbEntity
  8
0
100
AcDbText
 10
14.64017730717148
 20
229.0122897870774
 30
0.0
 40
3.0
  1
(取付板厚 t0.8～t1.0)
  7
SIMPLEX
100
AcDbText
  0
TEXT
  5
9DA
330
1F
100
AcDbEntity
  8
0
100
AcDbText
 10
89.42164553024738
 20
208.1980040727916
 30
0.0
 40
3.0
  1
14
 50
90.0
  7
SIMPLEX
 72
     1
 11
89.42164553024738
 21
210.4122897870773
 31
0.0
100
AcDbText
  0
INSERT
  5
9DB
330
1F
100
AcDbEntity
  8
0
100
AcDbBlockReference
  2
SUG-AR01
 10
90.32164553024744
 20
203.4122897870772
 30
0.0
 41
0.5
 42
0.5
 43
0.5
 50
90.0
  0
INSERT
  5
9DC
330
1F
100
AcDbEntity
  8
0
100
AcDbBlockReference
  2
SUG-AR01
 10
90.32164553024744
 20
217.4122897870773
 30
0.0
 41
0.5
 42
0.5
 43
0.5
 50
270.0
  0
LINE
  5
9DD
330
1F
100
AcDbEntity
  8
0
100
AcDbLine
 10
71.73641726092842
 20
203.4122897870772
 30
0.0
 11
91.32164553024743
 21
203.4122897870772
 31
0.0
  0
LINE
  5
9DE
330
1F
100
AcDbEntity
  8
0
100
AcDbLine
 10
90.32164553024744
 20
217.4122897870773
 30
0.0
 11
90.32164553024744
 21
203.4122897870772
 31
0.0
  0
TEXT
  5
9DF
330
1F
100
AcDbEntity
  8
0
100
AcDbText
 10
89.42164553024738
 20
221.3765755013631
 30
0.0
 40
3.0
  1
16.5
 50
90.0
  7
SIMPLEX
 72
     1
 11
89.42164553024738
 21
225.6622897870773
 31
0.0
100
AcDbText
  0
INSERT
  5
9E0
330
1F
100
AcDbEntity
  8
0
100
AcDbBlockReference
  2
SUG-AR01
 10
90.32164553024744
 20
217.4122897870773
 30
0.0
 41
0.5
 42
0.5
 43
0.5
 50
90.0
  0
INSERT
  5
9E1
330
1F
100
AcDbEntity
  8
0
100
AcDbBlockReference
  2
SUG-AR01
 10
90.32164553024744
 20
233.9122897870772
 30
0.0
 41
0.5
 42
0.5
 43
0.5
 50
270.0
  0
LINE
  5
9E2
330
1F
100
AcDbEntity
  8
0
100
AcDbLine
 10
79.93641726092869
 20
217.4122897870773
 30
0.0
 11
91.32164553024743
 21
217.4122897870773
 31
0.0
  0
LINE
  5
9E3
330
1F
100
AcDbEntity
  8
0
100
AcDbLine
 10
90.32164553024744
 20
233.9122897870772
 30
0.0
 11
90.32164553024744
 21
217.4122897870773
 31
0.0
  0
TEXT
  5
9E4
330
1F
100
AcDbEntity
  8
0
100
AcDbText
 10
89.42164553024738
 20
238.6980040727916
 30
0.0
 40
3.0
  1
14
 50
90.0
  7
SIMPLEX
 72
     1
 11
89.42164553024738
 21
240.9122897870773
 31
0.0
100
AcDbText
  0
INSERT
  5
9E5
330
1F
100
AcDbEntity
  8
0
100
AcDbBlockReference
  2
SUG-AR01
 10
90.32164553024744
 20
233.9122897870772
 30
0.0
 41
0.5
 42
0.5
 43
0.5
 50
90.0
  0
INSERT
  5
9E6
330
1F
100
AcDbEntity
  8
0
100
AcDbBlockReference
  2
SUG-AR01
 10
90.32164553024744
 20
247.9122897870773
 30
0.0
 41
0.5
 42
0.5
 43
0.5
 50
270.0
  0
LINE
  5
9E7
330
1F
100
AcDbEntity
  8
0
100
AcDbLine
 10
79.93641726092869
 20
233.9122897870772
 30
0.0
 11
91.32164553024743
 21
233.9122897870772
 31
0.0
  0
LINE
  5
9E8
330
1F
100
AcDbEntity
  8
0
100
AcDbLine
 10
90.32164553024744
 20
247.9122897870773
 30
0.0
 11
90.32164553024744
 21
233.9122897870772
 31
0.0
  0
LINE
  5
9E9
330
1F
100
AcDbEntity
  8
0
100
AcDbLine
 10
71.73641726092842
 20
247.9122897870773
 30
0.0
 11
91.32164553024743
 21
247.9122897870773
 31
0.0
  0
TEXT
  5
9EA
330
1F
100
AcDbEntity
  8
0
100
AcDbText
 10
40.51498868949997
 20
264.8617323906607
 30
0.0
 40
3.0
  1
66.7
  7
SIMPLEX
 72
     1
 11
45.08641726092854
 21
264.8617323906607
 31
0.0
100
AcDbText
  0
INSERT
  5
9EB
330
1F
100
AcDbEntity
  8
0
100
AcDbBlockReference
  2
SUG-AR01
 10
78.43641726092869
 20
263.9617323906607
 30
0.0
 41
0.5
 42
0.5
 43
0.5
 50
180.0
  0
INSERT
  5
9EC
330
1F
100
AcDbEntity
  8
0
100
AcDbBlockReference
  2
SUG-AR01
 10
11.73641726092842
 20
263.9617323906607
 30
0.0
 41
0.5
 42
0.5
 43
0.5
  0
LINE
  5
9ED
330
1F
100
AcDbEntity
  8
0
100
AcDbLine
 10
11.73641726092842
 20
263.9617323906607
 30
0.0
 11
78.43641726092869
 21
263.9617323906607
 31
0.0
  0
LINE
  5
9EE
330
1F
100
AcDbEntity
  8
0
100
AcDbLine
 10
78.43641726092869
 20
235.4122897870773
 30
0.0
 11
78.43641726092869
 21
264.9617323906607
 31
0.0
  0
LINE
  5
9EF
330
1F
100
AcDbEntity
  8
0
100
AcDbLine
 10
11.73641726092842
 20
249.4122897870773
 30
0.0
 11
11.73641726092842
 21
264.9617323906607
 31
0.0
  0
TEXT
  5
9F0
330
1F
100
AcDbEntity
  8
0
100
AcDbText
 10
36.41498868949985
 20
258.8617323906607
 30
0.0
 40
3.0
  1
58.5
  7
SIMPLEX
 72
     1
 11
40.98641726092842
 21
258.8617323906607
 31
0.0
100
AcDbText
  0
INSERT
  5
9F1
330
1F
100
AcDbEntity
  8
0
100
AcDbBlockReference
  2
SUG-AR01
 10
70.23641726092842
 20
257.9617323906607
 30
0.0
 41
0.5
 42
0.5
 43
0.5
 50
180.0
  0
INSERT
  5
9F2
330
1F
100
AcDbEntity
  8
0
100
AcDbBlockReference
  2
SUG-AR01
 10
11.73641726092842
 20
257.9617323906607
 30
0.0
 41
0.5
 42
0.5
 43
0.5
  0
LINE
  5
9F3
330
1F
100
AcDbEntity
  8
0
100
AcDbLine
 10
11.73641726092842
 20
257.9617323906607
 30
0.0
 11
70.23641726092842
 21
257.9617323906607
 31
0.0
  0
LINE
  5
9F4
330
1F
100
AcDbEntity
  8
0
100
AcDbLine
 10
70.23641726092842
 20
249.4122897870773
 30
0.0
 11
70.23641726092842
 21
258.9617323906607
 31
0.0
  0
LINE
  5
9F5
330
1F
100
AcDbEntity
  8
0
100
AcDbLine
 10
11.73641726092842
 20
249.4122897870773
 30
0.0
 11
11.73641726092842
 21
258.9617323906607
 31
0.0
  0
LINE
  5
9F6
330
1F
100
AcDbEntity
  8
0
100
AcDbLine
 10
70.23641726092842
 20
217.4122897870773
 30
0.0
 11
70.23641726092842
 21
203.4122897870772
 31
0.0
  0
LINE
  5
9F7
330
1F
100
AcDbEntity
  8
0
100
AcDbLine
 10
78.43641726092869
 20
217.4122897870773
 30
0.0
 11
78.43641726092869
 21
233.9122897870774
 31
0.0
  0
LINE
  5
9F8
330
1F
100
AcDbEntity
  8
0
100
AcDbLine
 10
70.23641726092842
 20
217.4122897870773
 30
0.0
 11
78.43641726092869
 21
217.4122897870773
 31
0.0
  0
LINE
  5
9F9
330
1F
100
AcDbEntity
  8
0
100
AcDbLine
 10
70.23641726092842
 20
233.9122897870772
 30
0.0
 11
78.43641726092869
 21
233.9122897870772
 31
0.0
  0
LINE
  5
9FA
330
1F
100
AcDbEntity
  8
0
100
AcDbLine
 10
70.23641726092842
 20
203.4122897870772
 30
0.0
 11
11.73641726092842
 21
203.4122897870772
 31
0.0
  0
LINE
  5
9FB
330
1F
100
AcDbEntity
  8
0
100
AcDbLine
 10
70.23641726092842
 20
247.9122897870773
 30
0.0
 11
70.23641726092842
 21
233.9122897870772
 31
0.0
  0
LINE
  5
9FC
330
1F
100
AcDbEntity
  8
0
100
AcDbLine
 10
11.73641726092842
 20
247.9122897870773
 30
0.0
 11
70.23641726092842
 21
247.9122897870773
 31
0.0
  0
LINE
  5
9FD
330
1F
100
AcDbEntity
  8
0
100
AcDbLine
 10
11.73641726092842
 20
203.4122897870772
 30
0.0
 11
11.73641726092842
 21
247.9122897870773
 31
0.0
  0
TEXT
  5
9FE
330
1F
100
AcDbEntity
  8
0
100
AcDbText
 10
14.73641726092842
 20
235.3122897870774
 30
0.0
 40
5.0
  1
参考取付穴形状
 41
0.7
  7
SIMPLEX
100
AcDbText
  0
INSERT
  5
9FF
330
1F
100
AcDbEntity
  8
4
100
AcDbBlockReference
  2
SUG-AR06
 10
1516.742837687015
 20
444.286215092469
 30
0.0
  0
INSERT
  5
A00
330
1F
100
AcDbEntity
  8
4
100
AcDbBlockReference
  2
SUG-AR06
 10
1306.974263280963
 20
145.2685279549584
 30
0.0
  0
INSERT
  5
A01
330
1F
100
AcDbEntity
  8
4
100
AcDbBlockReference
  2
SUG-AR06
 10
1499.429633040106
 20
60.27413702991303
 30
0.0
  0
TEXT
  5
A02
330
1F
100
AcDbEntity
  8
S
 62
     6
100
AcDbText
 10
1294.904320857082
 20
-9.313431153830066
 30
0.0
 40
3.0
  1

  7
SIMPLEX
100
AcDbText
  0
INSERT
  5
A03
330
1F
100
AcDbEntity
  8
4
100
AcDbBlockReference
  2
SUG-AR06
 10
1769.319823780538
 20
518.1019589801133
 30
0.0
  0
INSERT
  5
A04
330
1F
100
AcDbEntity
  8
4
100
AcDbBlockReference
  2
SUG-AR06
 10
1306.974263280963
 20
145.2685279549584
 30
0.0
  0
INSERT
  5
A05
330
1F
100
AcDbEntity
  8
4
100
AcDbBlockReference
  2
SUG-AR06
 10
1499.429633040106
 20
60.27413702991303
 30
0.0
  0
TEXT
  5
A06
330
1F
100
AcDbEntity
  8
S
 62
     6
100
AcDbText
 10
1294.904320857082
 20
-9.313431153830066
 30
0.0
 40
3.0
  1

  7
SIMPLEX
100
AcDbText
  0
INSERT
  5
A07
330
1F
100
AcDbEntity
  8
4
100
AcDbBlockReference
  2
SUG-AR06
 10
1215.183935932408
 20
39.47161589101158
 30
0.0
  0
INSERT
  5
A08
330
1F
100
AcDbEntity
  8
4
100
AcDbBlockReference
  2
SUG-AR06
 10
1254.716074475428
 20
141.9174127413381
 30
0.0
  0
INSERT
  5
A09
330
1F
100
AcDbEntity
  8
4
100
AcDbBlockReference
  2
SUG-AR06
 10
1289.377789195086
 20
179.3180248922721
 30
0.0
  0
INSERT
  5
A0A
330
1F
100
AcDbEntity
  8
4
100
AcDbBlockReference
  2
SUG-AR06
 10
4324.838772148487
 20
167.1956356294396
 30
0.0
  0
INSERT
  5
A0B
330
1F
100
AcDbEntity
  8
4
100
AcDbBlockReference
  2
SUG-AR06
 10
4314.762166557319
 20
227.6338963559936
 30
0.0
  0
INSERT
  5
A0C
330
1F
100
AcDbEntity
  8
4
100
AcDbBlockReference
  2
SUG-AR06
 10
4949.588357840745
 20
373.6930255265844
 30
0.0
  0
INSERT
  5
A0D
330
1F
100
AcDbEntity
  8
4
100
AcDbBlockReference
  2
SUG-AR06
 10
5375.24346956998
 20
750.7069598683304
 30
0.0
  0
INSERT
  5
A0E
330
1F
100
AcDbEntity
  8
4
100
AcDbBlockReference
  2
SUG-AR06
 10
5375.24346956998
 20
750.7069598683304
 30
0.0
 41
0.1999999999999886
 42
0.2000000000000028
 43
0.2
  0
INSERT
  5
A0F
330
1F
100
AcDbEntity
  8
4
100
AcDbBlockReference
  2
SUG-AR06
 10
5413.734543521806
 20
733.7080816833212
 30
0.0
 41
0.1999999999999886
 42
0.2000000000000028
 43
0.2
  0
TEXT
  5
A10
330
1F
100
AcDbEntity
  8
S
 62
     6
100
AcDbText
 10
5372.829481085202
 20
719.7905680465727
 30
0.0
 40
0.6000000000000001
  1

  7
SIMPLEX
100
AcDbText
  0
INSERT
  5
A11
330
1F
100
AcDbEntity
  8
4
100
AcDbBlockReference
  2
SUG-AR06
 10
5361.758885806312
 20
740.5041283062297
 30
0.0
 41
0.1999999999999886
 42
0.2000000000000028
 43
0.2
  0
INSERT
  5
A12
330
1F
100
AcDbEntity
  8
4
100
AcDbBlockReference
  2
SUG-AR06
 10
5400.249959758139
 20
723.5052501212207
 30
0.0
 41
0.1999999999999886
 42
0.2000000000000028
 43
0.2
  0
TEXT
  5
A13
330
1F
100
AcDbEntity
  8
S
 62
     6
100
AcDbText
 10
5359.344897321534
 20
709.5877364844722
 30
0.0
 40
0.6000000000000001
  1

  7
SIMPLEX
100
AcDbText
  0
INSERT
  5
A14
330
1F
100
AcDbEntity
  8
4
100
AcDbBlockReference
  2
SUG-AR06
 10
5414.796454670619
 20
780.7313298281041
 30
0.0
 41
0.1999999999999886
 42
0.2000000000000028
 43
0.2
  0
INSERT
  5
A15
330
1F
100
AcDbEntity
  8
4
100
AcDbBlockReference
  2
SUG-AR06
 10
5430.483469569979
 20
785.1469598683303
 30
0.0
 41
0.1999999999999886
 42
0.2000000000000028
 43
0.2
  0
INSERT
  5
A16
330
1F
100
AcDbEntity
  8
4
100
AcDbBlockReference
  2
SUG-AR06
 10
5068.838772148487
 20
356.1956356294396
 30
0.0
  0
INSERT
  5
A17
330
1F
100
AcDbEntity
  8
4
100
AcDbBlockReference
  2
SUG-AR06
 10
4865.956363953308
 20
204.3729779011902
 30
0.0
  0
INSERT
  5
A18
330
1F
100
AcDbEntity
  8
4
100
AcDbBlockReference
  2
SUG-AR06
 10
5058.411733712452
 20
119.3785869761448
 30
0.0
  0
TEXT
  5
A19
330
1F
100
AcDbEntity
  8
S
 62
     6
100
AcDbText
 10
4853.886421529427
 20
49.79101879240175
 30
0.0
 40
3.0
  1

  7
SIMPLEX
100
AcDbText
  0
INSERT
  5
A1A
330
1F
100
AcDbEntity
  8
4
100
AcDbBlockReference
  2
SUG-AR06
 10
4798.53344513497
 20
153.3588200906874
 30
0.0
  0
INSERT
  5
A1B
330
1F
100
AcDbEntity
  8
4
100
AcDbBlockReference
  2
SUG-AR06
 10
4990.988814894113
 20
68.36442916564206
 30
0.0
  0
TEXT
  5
A1C
330
1F
100
AcDbEntity
  8
S
 62
     6
100
AcDbText
 10
4786.463502711089
 20
-1.223139018101051
 30
0.0
 40
3.0
  1

  7
SIMPLEX
100
AcDbText
  0
INSERT
  5
A1D
330
1F
100
AcDbEntity
  8
4
100
AcDbBlockReference
  2
SUG-AR06
 10
5285.689704593012
 20
220.2235332874903
 30
0.0
  0
INSERT
  5
A1E
330
1F
100
AcDbEntity
  8
4
100
AcDbBlockReference
  2
SUG-AR06
 10
5020.385979706547
 20
611.5395486778882
 30
0.0
 41
0.0999999999999943
 42
0.1000000000000014
 43
0.1
  0
INSERT
  5
A1F
330
1F
100
AcDbEntity
  8
4
100
AcDbBlockReference
  2
SUG-AR06
 10
5027.487836593613
 20
613.4793670725318
 30
0.0
 41
0.0999999999999943
 42
0.1000000000000014
 43
0.1
  0
INSERT
  5
A20
330
1F
100
AcDbEntity
  8
4
100
AcDbBlockReference
  2
SUG-AR06
 10
4999.867836593614
 20
596.2793670725317
 30
0.0
 41
0.0999999999999943
 42
0.1000000000000014
 43
0.1
  0
INSERT
  5
A21
330
1F
100
AcDbEntity
  8
4
100
AcDbBlockReference
  2
SUG-AR06
 10
5019.113373569529
 20
587.7799279800272
 30
0.0
 41
0.0999999999999943
 42
0.1000000000000014
 43
0.1
  0
TEXT
  5
A22
330
1F
100
AcDbEntity
  8
S
 62
     6
100
AcDbText
 10
4998.660842351227
 20
580.8211711616529
 30
0.0
 40
0.3
  1

  7
SIMPLEX
100
AcDbText
  0
INSERT
  5
A23
330
1F
100
AcDbEntity
  8
4
100
AcDbBlockReference
  2
SUG-AR06
 10
4993.12554471178
 20
591.1779512914814
 30
0.0
 41
0.0999999999999943
 42
0.1000000000000014
 43
0.1
  0
INSERT
  5
A24
330
1F
100
AcDbEntity
  8
4
100
AcDbBlockReference
  2
SUG-AR06
 10
5012.371081687692
 20
582.6785121989769
 30
0.0
 41
0.0999999999999943
 42
0.1000000000000014
 43
0.1
  0
TEXT
  5
A25
330
1F
100
AcDbEntity
  8
S
 62
     6
100
AcDbText
 10
4991.918550469392
 20
575.7197553806027
 30
0.0
 40
0.3
  1

  7
SIMPLEX
100
AcDbText
  0
INSERT
  5
A26
330
1F
100
AcDbEntity
  8
4
100
AcDbBlockReference
  2
SUG-AR06
 10
5044.931230460719
 20
669.2101841635307
 30
0.0
 41
0.0999999999999943
 42
0.1000000000000014
 43
0.1
  0
INSERT
  5
A27
330
1F
100
AcDbEntity
  8
4
100
AcDbBlockReference
  2
SUG-AR06
 10
5064.176767436633
 20
660.710745071026
 30
0.0
 41
0.0999999999999943
 42
0.1000000000000014
 43
0.1
  0
TEXT
  5
A28
330
1F
100
AcDbEntity
  8
S
 62
     6
100
AcDbText
 10
5043.724236218332
 20
653.7519882526517
 30
0.0
 40
0.3
  1

  7
SIMPLEX
100
AcDbText
  0
INSERT
  5
A29
330
1F
100
AcDbEntity
  8
4
100
AcDbBlockReference
  2
SUG-AR06
 10
5081.712232432614
 20
765.7358116312787
 30
0.0
 41
0.0999999999999943
 42
0.1000000000000014
 43
0.1
  0
INSERT
  5
A2A
330
1F
100
AcDbEntity
  8
4
100
AcDbBlockReference
  2
SUG-AR06
 10
5100.957769408529
 20
757.2363725387742
 30
0.0
 41
0.0999999999999943
 42
0.1000000000000014
 43
0.1
  0
TEXT
  5
A2B
330
1F
100
AcDbEntity
  8
S
 62
     6
100
AcDbText
 10
5080.505238190227
 20
750.2776157203999
 30
0.0
 40
0.3
  1

  7
SIMPLEX
100
AcDbText
  0
INSERT
  5
A2C
330
1F
100
AcDbEntity
  8
4
100
AcDbBlockReference
  2
SUG-AR06
 10
5062.698416972128
 20
354.6681958511582
 30
0.0
 41
0.3333333333333428
 42
0.3333333333333357
 43
0.333333333333333
  0
INSERT
  5
A2D
330
1F
100
AcDbEntity
  8
4
100
AcDbBlockReference
  2
SUG-AR06
 10
5086.814699768507
 20
361.3255178077174
 30
0.0
 41
0.3333333333333428
 42
0.3333333333333357
 43
0.333333333333333
  0
INSERT
  5
A2E
330
1F
100
AcDbEntity
  8
4
100
AcDbBlockReference
  2
SUG-AR06
 10
4994.748033101842
 20
303.9921844743842
 30
0.0
 41
0.3333333333333428
 42
0.3333333333333357
 43
0.333333333333333
  0
INSERT
  5
A2F
330
1F
100
AcDbEntity
  8
4
100
AcDbBlockReference
  2
SUG-AR06
 10
5058.899823021555
 20
275.6607208327023
 30
0.0
 41
0.3333333333333428
 42
0.3333333333333357
 43
0.333333333333333
  0
TEXT
  5
A30
330
1F
100
AcDbEntity
  8
S
 62
     6
100
AcDbText
 10
4990.724718960548
 20
252.4648647714547
 30
0.0
 40
0.9999999999999992
  1

  7
SIMPLEX
100
AcDbText
  0
INSERT
  5
A31
330
1F
100
AcDbEntity
  8
4
100
AcDbBlockReference
  2
SUG-AR06
 10
4972.273726829062
 20
286.9874652042166
 30
0.0
 41
0.3333333333333428
 42
0.3333333333333357
 43
0.333333333333333
  0
INSERT
  5
A32
330
1F
100
AcDbEntity
  8
4
100
AcDbBlockReference
  2
SUG-AR06
 10
5036.425516748775
 20
258.6560015625348
 30
0.0
 41
0.3333333333333428
 42
0.3333333333333357
 43
0.333333333333333
  0
TEXT
  5
A33
330
1F
100
AcDbEntity
  8
S
 62
     6
100
AcDbText
 10
4968.250412687769
 20
235.4601455012871
 30
0.0
 40
0.9999999999999992
  1

  7
SIMPLEX
100
AcDbText
  0
INSERT
  5
A34
330
1F
100
AcDbEntity
  8
4
100
AcDbBlockReference
  2
SUG-AR06
 10
5188.085390367665
 20
819.5187185969045
 30
0.0
 41
0.0999999999999943
 42
0.1000000000000014
 43
0.1
  0
INSERT
  5
A35
330
1F
100
AcDbEntity
  8
4
100
AcDbBlockReference
  2
SUG-AR06
 10
5207.330927343579
 20
811.0192795044
 30
0.0
 41
0.0999999999999943
 42
0.1000000000000014
 43
0.1
  0
TEXT
  5
A36
330
1F
100
AcDbEntity
  8
S
 62
     6
100
AcDbText
 10
5186.878396125277
 20
804.0605226860257
 30
0.0
 40
0.3
  1

  7
SIMPLEX
100
AcDbText
  0
INSERT
  5
A37
330
1F
100
AcDbEntity
  8
4
100
AcDbBlockReference
  2
SUG-AR06
 10
4918.772183105492
 20
672.6790535596667
 30
0.0
 41
0.3333333333333428
 42
0.3333333333333357
 43
0.333333333333333
  0
INSERT
  5
A38
330
1F
100
AcDbEntity
  8
4
100
AcDbBlockReference
  2
SUG-AR06
 10
4982.923973025204
 20
644.3475899179848
 30
0.0
 41
0.3333333333333428
 42
0.3333333333333357
 43
0.333333333333333
  0
TEXT
  5
A39
330
1F
100
AcDbEntity
  8
S
 62
     6
100
AcDbText
 10
4914.748868964198
 20
621.1517338567372
 30
0.0
 40
0.9999999999999992
  1

  7
SIMPLEX
100
AcDbText
  0
INSERT
  5
A3A
330
1F
100
AcDbEntity
  8
4
100
AcDbBlockReference
  2
SUG-AR06
 10
4896.297876832711
 20
655.6743342894991
 30
0.0
 41
0.3333333333333428
 42
0.3333333333333357
 43
0.333333333333333
  0
INSERT
  5
A3B
330
1F
100
AcDbEntity
  8
4
100
AcDbBlockReference
  2
SUG-AR06
 10
4960.449666752424
 20
627.3428706478171
 30
0.0
 41
0.3333333333333428
 42
0.3333333333333357
 43
0.333333333333333
  0
TEXT
  5
A3C
330
1F
100
AcDbEntity
  8
S
 62
     6
100
AcDbText
 10
4892.274562691419
 20
604.1470145865696
 30
0.0
 40
0.9999999999999992
  1

  7
SIMPLEX
100
AcDbText
  0
INSERT
  5
A3D
330
1F
100
AcDbEntity
  8
4
100
AcDbBlockReference
  2
SUG-AR06
 10
7541.965827543712
 20
296.6288688307095
 30
0.0
  0
INSERT
  5
A3E
330
1F
100
AcDbEntity
  8
4
100
AcDbBlockReference
  2
SUG-AR06
 10
7586.037439955068
 20
-179.7368097637471
 30
0.0
  0
INSERT
  5
A3F
330
1F
100
AcDbEntity
  8
4
100
AcDbBlockReference
  2
SUG-AR06
 10
7778.492809714212
 20
-264.7312006887924
 30
0.0
  0
TEXT
  5
A40
330
1F
100
AcDbEntity
  8
S
 62
     6
100
AcDbText
 10
7573.967497531187
 20
-334.3187688725355
 30
0.0
 40
3.0
  1

  7
SIMPLEX
100
AcDbText
  0
INSERT
  5
A41
330
1F
100
AcDbEntity
  8
4
100
AcDbBlockReference
  2
SUG-AR06
 10
7455.385269688981
 20
249.2716791719408
 30
0.0
  0
INSERT
  5
A42
330
1F
100
AcDbEntity
  8
4
100
AcDbBlockReference
  2
SUG-AR06
 10
5944.282908864686
 20
589.650411633583
 30
0.0
  0
INSERT
  5
A43
330
1F
100
AcDbEntity
  8
4
100
AcDbBlockReference
  2
SUG-AR06
 10
6214.643530130448
 20
248.7035728506673
 30
0.0
  0
INSERT
  5
A44
330
1F
100
AcDbEntity
  8
4
100
AcDbBlockReference
  2
SUG-AR06
 10
5769.55410688843
 20
681.031413736586
 30
0.0
  0
INSERT
  5
A45
330
1F
100
AcDbEntity
  8
4
100
AcDbBlockReference
  2
SUG-AR06
 10
7825.45826985138
 20
843.7734243082962
 30
0.0
  0
INSERT
  5
A46
330
1F
100
AcDbEntity
  8
4
100
AcDbBlockReference
  2
SUG-AR06
 10
7825.45826985138
 20
843.7734243082962
 30
0.0
 41
0.1999999999999886
 42
0.2000000000000028
 43
0.2
  0
INSERT
  5
A47
330
1F
100
AcDbEntity
  8
4
100
AcDbBlockReference
  2
SUG-AR06
 10
7863.949343803209
 20
826.7745461232872
 30
0.0
 41
0.1999999999999886
 42
0.2000000000000028
 43
0.2
  0
TEXT
  5
A48
330
1F
100
AcDbEntity
  8
S
 62
     6
100
AcDbText
 10
7823.044281366603
 20
812.8570324865385
 30
0.0
 40
0.6000000000000001
  1

  7
SIMPLEX
100
AcDbText
  0
INSERT
  5
A49
330
1F
100
AcDbEntity
  8
4
100
AcDbBlockReference
  2
SUG-AR06
 10
7811.973686087712
 20
833.5705927461956
 30
0.0
 41
0.1999999999999886
 42
0.2000000000000028
 43
0.2
  0
INSERT
  5
A4A
330
1F
100
AcDbEntity
  8
4
100
AcDbBlockReference
  2
SUG-AR06
 10
7850.464760039542
 20
816.5717145611866
 30
0.0
 41
0.1999999999999886
 42
0.2000000000000028
 43
0.2
  0
TEXT
  5
A4B
330
1F
100
AcDbEntity
  8
S
 62
     6
100
AcDbText
 10
7809.559697602934
 20
802.6542009244376
 30
0.0
 40
0.6000000000000001
  1

  7
SIMPLEX
100
AcDbText
  0
INSERT
  5
A4C
330
1F
100
AcDbEntity
  8
4
100
AcDbBlockReference
  2
SUG-AR06
 10
7865.01125495202
 20
873.7977942680698
 30
0.0
 41
0.1999999999999886
 42
0.2000000000000028
 43
0.2
  0
INSERT
  5
A4D
330
1F
100
AcDbEntity
  8
4
100
AcDbBlockReference
  2
SUG-AR06
 10
7880.698269851379
 20
878.2134243082962
 30
0.0
 41
0.1999999999999886
 42
0.2000000000000028
 43
0.2
  0
INSERT
  5
A4E
330
1F
100
AcDbEntity
  8
4
100
AcDbBlockReference
  2
SUG-AR06
 10
7843.233341823054
 20
844.0313740556776
 30
0.0
 41
0.1999999999999886
 42
0.2000000000000028
 43
0.2
  0
INSERT
  5
A4F
330
1F
100
AcDbEntity
  8
4
100
AcDbBlockReference
  2
SUG-AR06
 10
3146.081159872081
 20
292.0989236420463
 30
0.0
  0
INSERT
  5
A50
330
1F
100
AcDbEntity
  8
4
100
AcDbBlockReference
  2
SUG-AR06
 10
3137.652729325085
 20
264.1280731045824
 30
0.0
 41
0.1999999999999886
 42
0.2000000000000028
 43
0.2
  0
INSERT
  5
A51
330
1F
100
AcDbEntity
  8
4
100
AcDbBlockReference
  2
SUG-AR06
 10
3137.652729325085
 20
264.1280731045824
 30
0.0
 41
0.1999999999999886
 42
0.2000000000000028
 43
0.2
  0
INSERT
  5
A52
330
1F
100
AcDbEntity
  8
4
100
AcDbBlockReference
  2
SUG-AR06
 10
3176.143803276914
 20
247.1291949195733
 30
0.0
 41
0.1999999999999886
 42
0.2000000000000028
 43
0.2
  0
TEXT
  5
A53
330
1F
100
AcDbEntity
  8
S
 62
     6
100
AcDbText
 10
3135.238740840308
 20
233.2116812828247
 30
0.0
 40
0.6000000000000001
  1

  7
SIMPLEX
100
AcDbText
  0
INSERT
  5
A54
330
1F
100
AcDbEntity
  8
4
100
AcDbBlockReference
  2
SUG-AR06
 10
3124.168145561417
 20
253.9252415424818
 30
0.0
 41
0.1999999999999886
 42
0.2000000000000028
 43
0.2
  0
INSERT
  5
A55
330
1F
100
AcDbEntity
  8
4
100
AcDbBlockReference
  2
SUG-AR06
 10
3162.659219513246
 20
236.9263633574727
 30
0.0
 41
0.1999999999999886
 42
0.2000000000000028
 43
0.2
  0
TEXT
  5
A56
330
1F
100
AcDbEntity
  8
S
 62
     6
100
AcDbText
 10
3121.754157076641
 20
223.0088497207241
 30
0.0
 40
0.6000000000000001
  1

  7
SIMPLEX
100
AcDbText
  0
INSERT
  5
A57
330
1F
100
AcDbEntity
  8
4
100
AcDbBlockReference
  2
SUG-AR06
 10
3146.081159872081
 20
292.0989236420463
 30
0.0
 41
0.1999999999999886
 42
0.2000000000000028
 43
0.2
  0
INSERT
  5
A58
330
1F
100
AcDbEntity
  8
4
100
AcDbBlockReference
  2
SUG-AR06
 10
3184.572233823908
 20
275.1000454570373
 30
0.0
 41
0.1999999999999886
 42
0.2000000000000028
 43
0.2
  0
TEXT
  5
A59
330
1F
100
AcDbEntity
  8
S
 62
     6
100
AcDbText
 10
3143.667171387305
 20
261.1825318202887
 30
0.0
 40
0.6000000000000001
  1

  7
SIMPLEX
100
AcDbText
  0
INSERT
  5
A5A
330
1F
100
AcDbEntity
  8
4
100
AcDbBlockReference
  2
SUG-AR06
 10
3132.596576108412
 20
281.8960920799458
 30
0.0
 41
0.1999999999999886
 42
0.2000000000000028
 43
0.2
  0
INSERT
  5
A5B
330
1F
100
AcDbEntity
  8
4
100
AcDbBlockReference
  2
SUG-AR06
 10
3171.08765006024
 20
264.8972138949367
 30
0.0
 41
0.1999999999999886
 42
0.2000000000000028
 43
0.2
  0
TEXT
  5
A5C
330
1F
100
AcDbEntity
  8
S
 62
     6
100
AcDbText
 10
3130.182587623636
 20
250.9797002581881
 30
0.0
 40
0.6000000000000001
  1

  7
SIMPLEX
100
AcDbText
  0
INSERT
  5
A5D
330
1F
100
AcDbEntity
  8
4
100
AcDbBlockReference
  2
SUG-AR06
 10
2362.320775441716
 20
293.6998916427141
 30
0.0
 41
0.5
 42
0.5
 43
0.5
  0
INSERT
  5
A5E
330
1F
100
AcDbEntity
  8
4
100
AcDbBlockReference
  2
SUG-AR06
 10
2458.548460321288
 20
251.2026961801914
 30
0.0
 41
0.5
 42
0.5
 43
0.5
  0
TEXT
  5
A5F
330
1F
100
AcDbEntity
  8
S
 62
     6
100
AcDbText
 10
2356.285804229775
 20
216.4089120883199
 30
0.0
 40
1.5
  1

  7
SIMPLEX
100
AcDbText
  0
INSERT
  5
A60
330
1F
100
AcDbEntity
  8
4
100
AcDbBlockReference
  2
SUG-AR06
 10
2328.609316032547
 20
268.1928127374627
 30
0.0
 41
0.5
 42
0.5
 43
0.5
  0
INSERT
  5
A61
330
1F
100
AcDbEntity
  8
4
100
AcDbBlockReference
  2
SUG-AR06
 10
2424.837000912118
 20
225.69561727494
 30
0.0
 41
0.5
 42
0.5
 43
0.5
  0
TEXT
  5
A62
330
1F
100
AcDbEntity
  8
S
 62
     6
100
AcDbText
 10
2322.574344820607
 20
190.9018331830684
 30
0.0
 40
1.5
  1

  7
SIMPLEX
100
AcDbText
  0
INSERT
  5
A63
330
1F
100
AcDbEntity
  8
4
100
AcDbBlockReference
  2
SUG-AR06
 10
2467.986628742277
 20
370.0498473414512
 30
0.0
 41
0.5
 42
0.5
 43
0.5
  0
INSERT
  5
A64
330
1F
100
AcDbEntity
  8
4
100
AcDbBlockReference
  2
SUG-AR06
 10
2362.320775441716
 20
450.6555813983871
 30
0.0
 41
0.5
 42
0.5
 43
0.5
  0
INSERT
  5
A65
330
1F
100
AcDbEntity
  8
4
100
AcDbBlockReference
  2
SUG-AR06
 10
2458.548460321288
 20
408.1583859358644
 30
0.0
 41
0.5
 42
0.5
 43
0.5
  0
TEXT
  5
A66
330
1F
100
AcDbEntity
  8
S
 62
     6
100
AcDbText
 10
2356.285804229775
 20
373.3646018439932
 30
0.0
 40
1.5
  1

  7
SIMPLEX
100
AcDbText
  0
INSERT
  5
A67
330
1F
100
AcDbEntity
  8
4
100
AcDbBlockReference
  2
SUG-AR06
 10
2328.609316032547
 20
425.1485024931359
 30
0.0
 41
0.5
 42
0.5
 43
0.5
  0
INSERT
  5
A68
330
1F
100
AcDbEntity
  8
4
100
AcDbBlockReference
  2
SUG-AR06
 10
2424.837000912118
 20
382.6513070306132
 30
0.0
 41
0.5
 42
0.5
 43
0.5
  0
TEXT
  5
A69
330
1F
100
AcDbEntity
  8
S
 62
     6
100
AcDbText
 10
2322.574344820607
 20
347.8575229387417
 30
0.0
 40
1.5
  1

  7
SIMPLEX
100
AcDbText
  0
INSERT
  5
A6A
330
1F
100
AcDbEntity
  8
4
100
AcDbBlockReference
  2
SUG-AR06
 10
2467.986628742277
 20
527.0055370971244
 30
0.0
 41
0.5
 42
0.5
 43
0.5
  0
INSERT
  5
A6B
330
1F
100
AcDbEntity
  8
4
100
AcDbBlockReference
  2
SUG-AR06
 10
2534.587978890449
 20
539.5009062843199
 30
0.0
 41
0.3333333333333428
 42
0.3333333333333357
 43
0.333333333333333
  0
INSERT
  5
A6C
330
1F
100
AcDbEntity
  8
4
100
AcDbBlockReference
  2
SUG-AR06
 10
2598.739768810164
 20
511.169442642638
 30
0.0
 41
0.3333333333333428
 42
0.3333333333333357
 43
0.333333333333333
  0
TEXT
  5
A6D
330
1F
100
AcDbEntity
  8
S
 62
     6
100
AcDbText
 10
2530.564664749155
 20
487.9735865813903
 30
0.0
 40
0.9999999999999992
  1

  7
SIMPLEX
100
AcDbText
  0
INSERT
  5
A6E
330
1F
100
AcDbEntity
  8
4
100
AcDbBlockReference
  2
SUG-AR06
 10
2512.11367261767
 20
522.4961870141521
 30
0.0
 41
0.3333333333333428
 42
0.3333333333333357
 43
0.333333333333333
  0
INSERT
  5
A6F
330
1F
100
AcDbEntity
  8
4
100
AcDbBlockReference
  2
SUG-AR06
 10
2576.265462537384
 20
494.1647233724704
 30
0.0
 41
0.3333333333333428
 42
0.3333333333333357
 43
0.333333333333333
  0
TEXT
  5
A70
330
1F
100
AcDbEntity
  8
S
 62
     6
100
AcDbText
 10
2508.090358476376
 20
470.9688673112227
 30
0.0
 40
0.9999999999999992
  1

  7
SIMPLEX
100
AcDbText
  0
INSERT
  5
A71
330
1F
100
AcDbEntity
  8
4
100
AcDbBlockReference
  2
SUG-AR06
 10
2603.879788893062
 20
589.5385337858079
 30
0.0
 41
0.3333333333333428
 42
0.3333333333333357
 43
0.333333333333333
  0
INSERT
  5
A72
330
1F
100
AcDbEntity
  8
4
100
AcDbBlockReference
  2
SUG-AR06
 10
2637.585380930393
 20
539.5858270452391
 30
0.0
 41
0.3333333333333428
 42
0.3333333333333357
 43
0.333333333333333
  0
INSERT
  5
A73
330
1F
100
AcDbEntity
  8
4
100
AcDbBlockReference
  2
SUG-AR06
 10
2701.737170850107
 20
511.2543634035575
 30
0.0
 41
0.3333333333333428
 42
0.3333333333333357
 43
0.333333333333333
  0
TEXT
  5
A74
330
1F
100
AcDbEntity
  8
S
 62
     6
100
AcDbText
 10
2633.562066789098
 20
488.0585073423097
 30
0.0
 40
0.9999999999999992
  1

  7
SIMPLEX
100
AcDbText
  0
INSERT
  5
A75
330
1F
100
AcDbEntity
  8
4
100
AcDbBlockReference
  2
SUG-AR06
 10
2615.111074657612
 20
522.5811077750718
 30
0.0
 41
0.3333333333333428
 42
0.3333333333333357
 43
0.333333333333333
  0
INSERT
  5
A76
330
1F
100
AcDbEntity
  8
4
100
AcDbBlockReference
  2
SUG-AR06
 10
2679.262864577327
 20
494.2496441333899
 30
0.0
 41
0.3333333333333428
 42
0.3333333333333357
 43
0.333333333333333
  0
TEXT
  5
A77
330
1F
100
AcDbEntity
  8
S
 62
     6
100
AcDbText
 10
2611.08776051632
 20
471.0537880721422
 30
0.0
 40
0.9999999999999992
  1

  7
SIMPLEX
100
AcDbText
  0
INSERT
  5
A78
330
1F
100
AcDbEntity
  8
4
100
AcDbBlockReference
  2
SUG-AR06
 10
2706.877190933005
 20
589.6234545467271
 30
0.0
 41
0.3333333333333428
 42
0.3333333333333357
 43
0.333333333333333
  0
INSERT
  5
A79
330
1F
100
AcDbEntity
  8
4
100
AcDbBlockReference
  2
SUG-AR06
 10
2641.570340386359
 20
460.8256058026376
 30
0.0
 41
0.3333333333333428
 42
0.3333333333333357
 43
0.333333333333333
  0
INSERT
  5
A7A
330
1F
100
AcDbEntity
  8
4
100
AcDbBlockReference
  2
SUG-AR06
 10
2705.722130306073
 20
432.4941421609557
 30
0.0
 41
0.3333333333333428
 42
0.3333333333333357
 43
0.333333333333333
  0
TEXT
  5
A7B
330
1F
100
AcDbEntity
  8
S
 62
     6
100
AcDbText
 10
2637.547026245065
 20
409.298286099708
 30
0.0
 40
0.9999999999999992
  1

  7
SIMPLEX
100
AcDbText
  0
INSERT
  5
A7C
330
1F
100
AcDbEntity
  8
4
100
AcDbBlockReference
  2
SUG-AR06
 10
2619.096034113579
 20
443.82088653247
 30
0.0
 41
0.3333333333333428
 42
0.3333333333333357
 43
0.333333333333333
  0
INSERT
  5
A7D
330
1F
100
AcDbEntity
  8
4
100
AcDbBlockReference
  2
SUG-AR06
 10
2683.247824033294
 20
415.4894228907882
 30
0.0
 41
0.3333333333333428
 42
0.3333333333333357
 43
0.333333333333333
  0
TEXT
  5
A7E
330
1F
100
AcDbEntity
  8
S
 62
     6
100
AcDbText
 10
2615.072719972286
 20
392.2935668295406
 30
0.0
 40
0.9999999999999992
  1

  7
SIMPLEX
100
AcDbText
  0
INSERT
  5
A7F
330
1F
100
AcDbEntity
  8
4
100
AcDbBlockReference
  2
SUG-AR06
 10
2710.862150388971
 20
510.8632333041255
 30
0.0
 41
0.3333333333333428
 42
0.3333333333333357
 43
0.333333333333333
  0
INSERT
  5
A80
330
1F
100
AcDbEntity
  8
4
100
AcDbBlockReference
  2
SUG-AR06
 10
2620.719650583043
 20
307.9244496543024
 30
0.0
 41
0.5
 42
0.5
 43
0.5
  0
INSERT
  5
A81
330
1F
100
AcDbEntity
  8
4
100
AcDbBlockReference
  2
SUG-AR06
 10
2716.947335462615
 20
265.4272541917796
 30
0.0
 41
0.5
 42
0.5
 43
0.5
  0
TEXT
  5
A82
330
1F
100
AcDbEntity
  8
S
 62
     6
100
AcDbText
 10
2614.684679371102
 20
230.633470099908
 30
0.0
 40
1.5
  1

  7
SIMPLEX
100
AcDbText
  0
INSERT
  5
A83
330
1F
100
AcDbEntity
  8
4
100
AcDbBlockReference
  2
SUG-AR06
 10
2587.008191173874
 20
282.4173707490508
 30
0.0
 41
0.5
 42
0.5
 43
0.5
  0
INSERT
  5
A84
330
1F
100
AcDbEntity
  8
4
100
AcDbBlockReference
  2
SUG-AR06
 10
2683.235876053446
 20
239.9201752865282
 30
0.0
 41
0.5
 42
0.5
 43
0.5
  0
TEXT
  5
A85
330
1F
100
AcDbEntity
  8
S
 62
     6
100
AcDbText
 10
2580.973219961933
 20
205.1263911946566
 30
0.0
 40
1.5
  1

  7
SIMPLEX
100
AcDbText
  0
INSERT
  5
A86
330
1F
100
AcDbEntity
  8
4
100
AcDbBlockReference
  2
SUG-AR06
 10
2726.385503883604
 20
384.2744053530395
 30
0.0
 41
0.5
 42
0.5
 43
0.5
  0
INSERT
  5
A87
330
1F
100
AcDbEntity
  8
4
100
AcDbBlockReference
  2
SUG-AR06
 10
2798.43560020864
 20
293.6998916427141
 30
0.0
  0
INSERT
  5
A88
330
1F
100
AcDbEntity
  8
4
100
AcDbBlockReference
  2
SUG-AR06
 10
2990.890969967784
 20
208.7055007176687
 30
0.0
  0
TEXT
  5
A89
330
1F
100
AcDbEntity
  8
S
 62
     6
100
AcDbText
 10
2786.365657784759
 20
139.1179325339256
 30
0.0
 40
3.0
  1

  7
SIMPLEX
100
AcDbText
  0
INSERT
  5
A8A
330
1F
100
AcDbEntity
  8
4
100
AcDbBlockReference
  2
SUG-AR06
 10
2731.012681390302
 20
242.6857338322113
 30
0.0
  0
INSERT
  5
A8B
330
1F
100
AcDbEntity
  8
4
100
AcDbBlockReference
  2
SUG-AR06
 10
2923.468051149445
 20
157.6913429071659
 30
0.0
  0
TEXT
  5
A8C
330
1F
100
AcDbEntity
  8
S
 62
     6
100
AcDbText
 10
2718.942738966421
 20
88.10377472342281
 30
0.0
 40
3.0
  1

  7
SIMPLEX
100
AcDbText
  0
INSERT
  5
A8D
330
1F
100
AcDbEntity
  8
4
100
AcDbBlockReference
  2
SUG-AR06
 10
3008.43560020864
 20
446.699891642714
 30
0.0
  0
INSERT
  5
A8E
330
1F
100
AcDbEntity
  8
4
100
AcDbBlockReference
  2
SUG-AR06
 10
2798.43560020864
 20
519.1347919212463
 30
0.0
  0
INSERT
  5
A8F
330
1F
100
AcDbEntity
  8
4
100
AcDbBlockReference
  2
SUG-AR06
 10
2990.890969967784
 20
434.1404009962011
 30
0.0
  0
TEXT
  5
A90
330
1F
100
AcDbEntity
  8
S
 62
     6
100
AcDbText
 10
2786.365657784759
 20
364.552832812458
 30
0.0
 40
3.0
  1

  7
SIMPLEX
100
AcDbText
  0
INSERT
  5
A91
330
1F
100
AcDbEntity
  8
4
100
AcDbBlockReference
  2
SUG-AR06
 10
2731.012681390302
 20
468.1206341107436
 30
0.0
  0
INSERT
  5
A92
330
1F
100
AcDbEntity
  8
4
100
AcDbBlockReference
  2
SUG-AR06
 10
2923.468051149445
 20
383.1262431856984
 30
0.0
  0
TEXT
  5
A93
330
1F
100
AcDbEntity
  8
S
 62
     6
100
AcDbText
 10
2718.942738966421
 20
313.5386750019553
 30
0.0
 40
3.0
  1

  7
SIMPLEX
100
AcDbText
  0
INSERT
  5
A94
330
1F
100
AcDbEntity
  8
4
100
AcDbBlockReference
  2
SUG-AR06
 10
3008.43560020864
 20
672.1347919212466
 30
0.0
  0
INSERT
  5
A95
330
1F
100
AcDbEntity
  8
4
100
AcDbBlockReference
  2
SUG-AR06
 10
3110.125178995658
 20
481.7445819588016
 30
0.0
 41
0.0999999999999943
 42
0.1000000000000014
 43
0.1
  0
INSERT
  5
A96
330
1F
100
AcDbEntity
  8
4
100
AcDbBlockReference
  2
SUG-AR06
 10
3129.370715971572
 20
473.2451428662971
 30
0.0
 41
0.0999999999999943
 42
0.1000000000000014
 43
0.1
  0
TEXT
  5
A97
330
1F
100
AcDbEntity
  8
S
 62
     6
100
AcDbText
 10
3108.91818475327
 20
466.2863860479228
 30
0.0
 40
0.3
  1

  7
SIMPLEX
100
AcDbText
  0
INSERT
  5
A98
330
1F
100
AcDbEntity
  8
4
100
AcDbBlockReference
  2
SUG-AR06
 10
3103.382887113824
 20
476.6431661777513
 30
0.0
 41
0.0999999999999943
 42
0.1000000000000014
 43
0.1
  0
INSERT
  5
A99
330
1F
100
AcDbEntity
  8
4
100
AcDbBlockReference
  2
SUG-AR06
 10
3122.628424089739
 20
468.1437270852469
 30
0.0
 41
0.0999999999999943
 42
0.1000000000000014
 43
0.1
  0
TEXT
  5
A9A
330
1F
100
AcDbEntity
  8
S
 62
     6
100
AcDbText
 10
3102.175892871436
 20
461.1849702668727
 30
0.0
 40
0.3
  1

  7
SIMPLEX
100
AcDbText
  0
INSERT
  5
A9B
330
1F
100
AcDbEntity
  8
4
100
AcDbBlockReference
  2
SUG-AR06
 10
3131.237283026396
 20
496.9760055208813
 30
0.0
 41
0.0999999999999943
 42
0.1000000000000014
 43
0.1
  0
INSERT
  5
A9C
330
1F
100
AcDbEntity
  8
4
100
AcDbBlockReference
  2
SUG-AR06
 10
3153.873488435648
 20
481.5807840534508
 30
0.0
 41
0.0999999999999943
 42
0.1000000000000014
 43
0.1
  0
INSERT
  5
A9D
330
1F
100
AcDbEntity
  8
4
100
AcDbBlockReference
  2
SUG-AR06
 10
3173.119025411562
 20
473.0813449609462
 30
0.0
 41
0.0999999999999943
 42
0.1000000000000014
 43
0.1
  0
TEXT
  5
A9E
330
1F
100
AcDbEntity
  8
S
 62
     6
100
AcDbText
 10
3152.66649419326
 20
466.1225881425719
 30
0.0
 40
0.3
  1

  7
SIMPLEX
100
AcDbText
  0
INSERT
  5
A9F
330
1F
100
AcDbEntity
  8
4
100
AcDbBlockReference
  2
SUG-AR06
 10
3147.131196553814
 20
476.4793682724005
 30
0.0
 41
0.0999999999999943
 42
0.1000000000000014
 43
0.1
  0
INSERT
  5
AA0
330
1F
100
AcDbEntity
  8
4
100
AcDbBlockReference
  2
SUG-AR06
 10
3166.376733529729
 20
467.979929179896
 30
0.0
 41
0.0999999999999943
 42
0.1000000000000014
 43
0.1
  0
TEXT
  5
AA1
330
1F
100
AcDbEntity
  8
S
 62
     6
100
AcDbText
 10
3145.924202311426
 20
461.0211723615217
 30
0.0
 40
0.3
  1

  7
SIMPLEX
100
AcDbText
  0
INSERT
  5
AA2
330
1F
100
AcDbEntity
  8
4
100
AcDbBlockReference
  2
SUG-AR06
 10
3174.985592466385
 20
496.8122076155303
 30
0.0
 41
0.0999999999999943
 42
0.1000000000000014
 43
0.1
  0
INSERT
  5
AA3
330
1F
100
AcDbEntity
  8
4
100
AcDbBlockReference
  2
SUG-AR06
 10
3919.340346408924
 20
-21.06898620879511
 30
0.0
 41
1.784694120293351
 42
1.784694120293351
 43
1.784694120293352
  0
INSERT
  5
AA4
330
1F
100
AcDbEntity
  8
4
100
AcDbBlockReference
  2
SUG-AR06
 10
3464.030694743739
 20
539.2882163288049
 30
0.0
  0
INSERT
  5
AA5
330
1F
100
AcDbEntity
  8
4
100
AcDbBlockReference
  2
SUG-AR06
 10
3146.081159872081
 20
292.0989236420463
 30
0.0
  0
INSERT
  5
AA6
330
1F
100
AcDbEntity
  8
4
100
AcDbBlockReference
  2
SUG-AR06
 10
3338.536529631222
 20
207.1045327170009
 30
0.0
  0
TEXT
  5
AA7
330
1F
100
AcDbEntity
  8
S
 62
     6
100
AcDbText
 10
3134.011217448199
 20
137.5169645332578
 30
0.0
 40
3.0
  1

  7
SIMPLEX
100
AcDbText
  0
INSERT
  5
AA8
330
1F
100
AcDbEntity
  8
4
100
AcDbBlockReference
  2
SUG-AR06
 10
3523.541749335603
 20
6.517149262504545
 30
0.0
  0
INSERT
  5
AA9
330
1F
100
AcDbEntity
  8
4
100
AcDbBlockReference
  2
SUG-AR06
 10
3523.541749335603
 20
6.517149262504545
 30
0.0
  0
INSERT
  5
AAA
330
1F
100
AcDbEntity
  8
4
100
AcDbBlockReference
  2
SUG-AR06
 10
4183.220237853237
 20
381.3007861504798
 30
0.0
  0
INSERT
  5
AAB
330
1F
100
AcDbEntity
  8
4
100
AcDbBlockReference
  2
SUG-AR06
 10
4129.125999817698
 20
284.7910092025689
 30
0.0
 41
0.5
 42
0.5
 43
0.5
  0
INSERT
  5
AAC
330
1F
100
AcDbEntity
  8
4
100
AcDbBlockReference
  2
SUG-AR06
 10
4225.353684697269
 20
242.2938137400462
 30
0.0
 41
0.5
 42
0.5
 43
0.5
  0
TEXT
  5
AAD
330
1F
100
AcDbEntity
  8
S
 62
     6
100
AcDbText
 10
4123.091028605757
 20
207.5000296481747
 30
0.0
 40
1.5
  1

  7
SIMPLEX
100
AcDbText
  0
INSERT
  5
AAE
330
1F
100
AcDbEntity
  8
4
100
AcDbBlockReference
  2
SUG-AR06
 10
4095.414540408528
 20
259.2839302973175
 30
0.0
 41
0.5
 42
0.5
 43
0.5
  0
INSERT
  5
AAF
330
1F
100
AcDbEntity
  8
4
100
AcDbBlockReference
  2
SUG-AR06
 10
4191.6422252881
 20
216.7867348347948
 30
0.0
 41
0.5
 42
0.5
 43
0.5
  0
TEXT
  5
AB0
330
1F
100
AcDbEntity
  8
S
 62
     6
100
AcDbText
 10
4089.379569196586
 20
181.9929507429233
 30
0.0
 40
1.5
  1

  7
SIMPLEX
100
AcDbText
  0
INSERT
  5
AB1
330
1F
100
AcDbEntity
  8
4
100
AcDbBlockReference
  2
SUG-AR06
 10
4101.753833696688
 20
285.5577467710244
 30
0.0
 41
0.5
 42
0.5
 43
0.5
  0
INSERT
  5
AB2
330
1F
100
AcDbEntity
  8
4
100
AcDbBlockReference
  2
SUG-AR06
 10
4197.98151857626
 20
243.0605513085017
 30
0.0
 41
0.5
 42
0.5
 43
0.5
  0
TEXT
  5
AB3
330
1F
100
AcDbEntity
  8
S
 62
     6
100
AcDbText
 10
4095.718862484747
 20
208.2667672166301
 30
0.0
 40
1.5
  1

  7
SIMPLEX
100
AcDbText
  0
INSERT
  5
AB4
330
1F
100
AcDbEntity
  8
4
100
AcDbBlockReference
  2
SUG-AR06
 10
4068.042374287517
 20
260.0506678657731
 30
0.0
 41
0.5
 42
0.5
 43
0.5
  0
INSERT
  5
AB5
330
1F
100
AcDbEntity
  8
4
100
AcDbBlockReference
  2
SUG-AR06
 10
4164.27005916709
 20
217.5534724032504
 30
0.0
 41
0.5
 42
0.5
 43
0.5
  0
TEXT
  5
AB6
330
1F
100
AcDbEntity
  8
S
 62
     6
100
AcDbText
 10
4062.007403075578
 20
182.7596883113787
 30
0.0
 40
1.5
  1

  7
SIMPLEX
100
AcDbText
  0
INSERT
  5
AB7
330
1F
100
AcDbEntity
  8
4
100
AcDbBlockReference
  2
SUG-AR06
 10
4105.220237853235
 20
271.8007861504798
 30
0.0
 41
0.25
 42
0.25
 43
0.25
  0
INSERT
  5
AB8
330
1F
100
AcDbEntity
  8
4
100
AcDbBlockReference
  2
SUG-AR06
 10
4153.334080293022
 20
250.5521884192185
 30
0.0
 41
0.25
 42
0.25
 43
0.25
  0
TEXT
  5
AB9
330
1F
100
AcDbEntity
  8
S
 62
     6
100
AcDbText
 10
4102.202752247265
 20
233.1552963732827
 30
0.0
 40
0.75
  1

  7
SIMPLEX
100
AcDbText
  0
INSERT
  5
ABA
330
1F
100
AcDbEntity
  8
4
100
AcDbBlockReference
  2
SUG-AR06
 10
3840.032827238026
 20
40.02901802721047
 30
0.0
  0
INSERT
  5
ABB
330
1F
100
AcDbEntity
  8
4
100
AcDbBlockReference
  2
SUG-AR06
 10
4032.48819699717
 20
-44.96537289783494
 30
0.0
  0
TEXT
  5
ABC
330
1F
100
AcDbEntity
  8
S
 62
     6
100
AcDbText
 10
3827.962884814145
 20
-114.552941081578
 30
0.0
 40
3.0
  1

  7
SIMPLEX
100
AcDbText
  0
INSERT
  5
ABD
330
1F
100
AcDbEntity
  8
4
100
AcDbBlockReference
  2
SUG-AR06
 10
3772.609908419688
 20
-10.98513978329234
 30
0.0
  0
INSERT
  5
ABE
330
1F
100
AcDbEntity
  8
4
100
AcDbBlockReference
  2
SUG-AR06
 10
3965.065278178832
 20
-95.97953070833773
 30
0.0
  0
TEXT
  5
ABF
330
1F
100
AcDbEntity
  8
S
 62
     6
100
AcDbText
 10
3760.539965995807
 20
-165.5670988920807
 30
0.0
 40
3.0
  1

  7
SIMPLEX
100
AcDbText
  0
INSERT
  5
AC0
330
1F
100
AcDbEntity
  8
4
100
AcDbBlockReference
  2
SUG-AR06
 10
4126.327488560364
 20
-234.1740403027603
 30
0.0
  0
INSERT
  5
AC1
330
1F
100
AcDbEntity
  8
4
100
AcDbBlockReference
  2
SUG-AR06
 10
4318.782858319506
 20
-319.1684312278057
 30
0.0
  0
TEXT
  5
AC2
330
1F
100
AcDbEntity
  8
S
 62
     6
100
AcDbText
 10
4114.257546136483
 20
-388.7559994115487
 30
0.0
 40
3.0
  1

  7
SIMPLEX
100
AcDbText
  0
INSERT
  5
AC3
330
1F
100
AcDbEntity
  8
4
100
AcDbBlockReference
  2
SUG-AR06
 10
4058.904569742025
 20
-285.1881981132631
 30
0.0
  0
INSERT
  5
AC4
330
1F
100
AcDbEntity
  8
4
100
AcDbBlockReference
  2
SUG-AR06
 10
4251.359939501168
 20
-370.1825890383084
 30
0.0
  0
TEXT
  5
AC5
330
1F
100
AcDbEntity
  8
S
 62
     6
100
AcDbText
 10
4046.834627318143
 20
-439.7701572220515
 30
0.0
 40
3.0
  1

  7
SIMPLEX
100
AcDbText
  0
INSERT
  5
AC6
330
1F
100
AcDbEntity
  8
4
100
AcDbBlockReference
  2
SUG-AR06
 10
4520.971361890214
 20
-286.9568786953792
 30
0.0
  0
INSERT
  5
AC7
330
1F
100
AcDbEntity
  8
4
100
AcDbBlockReference
  2
SUG-AR06
 10
4713.426731649357
 20
-371.9512696204243
 30
0.0
  0
TEXT
  5
AC8
330
1F
100
AcDbEntity
  8
S
 62
     6
100
AcDbText
 10
4508.901419466331
 20
-441.5388378041675
 30
0.0
 40
3.0
  1

  7
SIMPLEX
100
AcDbText
  0
INSERT
  5
AC9
330
1F
100
AcDbEntity
  8
4
100
AcDbBlockReference
  2
SUG-AR06
 10
4453.548443071875
 20
-337.9710365058818
 30
0.0
  0
INSERT
  5
ACA
330
1F
100
AcDbEntity
  8
4
100
AcDbBlockReference
  2
SUG-AR06
 10
4646.003812831017
 20
-422.9654274309272
 30
0.0
  0
TEXT
  5
ACB
330
1F
100
AcDbEntity
  8
S
 62
     6
100
AcDbText
 10
4441.478500647995
 20
-492.5529956146703
 30
0.0
 40
3.0
  1

  7
SIMPLEX
100
AcDbText
  0
INSERT
  5
ACC
330
1F
100
AcDbEntity
  8
4
100
AcDbBlockReference
  2
SUG-AR06
 10
3523.541749335603
 20
6.517149262504545
 30
0.0
  0
INSERT
  5
ACD
330
1F
100
AcDbEntity
  8
4
100
AcDbBlockReference
  2
SUG-AR06
 10
4180.166203054393
 20
-358.1581714629078
 30
0.0
  0
INSERT
  5
ACE
330
1F
100
AcDbEntity
  8
4
100
AcDbBlockReference
  2
SUG-AR06
 10
4372.621572813534
 20
-443.152562387953
 30
0.0
  0
TEXT
  5
ACF
330
1F
100
AcDbEntity
  8
S
 62
     6
100
AcDbText
 10
4168.096260630512
 20
-512.740130571696
 30
0.0
 40
3.0
  1

  7
SIMPLEX
100
AcDbText
  0
INSERT
  5
AD0
330
1F
100
AcDbEntity
  8
4
100
AcDbBlockReference
  2
SUG-AR06
 10
4112.743284236056
 20
-409.1723292734103
 30
0.0
  0
INSERT
  5
AD1
330
1F
100
AcDbEntity
  8
4
100
AcDbBlockReference
  2
SUG-AR06
 10
4305.198653995197
 20
-494.1667201984558
 30
0.0
  0
TEXT
  5
AD2
330
1F
100
AcDbEntity
  8
S
 62
     6
100
AcDbText
 10
4100.673341812174
 20
-563.7542883821988
 30
0.0
 40
3.0
  1

  7
SIMPLEX
100
AcDbText
  0
INSERT
  5
AD3
330
1F
100
AcDbEntity
  8
4
100
AcDbBlockReference
  2
SUG-AR06
 10
3523.541749335603
 20
6.517149262504545
 30
0.0
  0
INSERT
  5
AD4
330
1F
100
AcDbEntity
  8
4
100
AcDbBlockReference
  2
SUG-AR06
 10
3715.997119094747
 20
-78.47724166254088
 30
0.0
  0
TEXT
  5
AD5
330
1F
100
AcDbEntity
  8
S
 62
     6
100
AcDbText
 10
3511.471806911723
 20
-148.0648098462839
 30
0.0
 40
3.0
  1

  7
SIMPLEX
100
AcDbText
  0
INSERT
  5
AD6
330
1F
100
AcDbEntity
  8
4
100
AcDbBlockReference
  2
SUG-AR06
 10
3994.076834031424
 20
367.881573224453
 30
0.0
  0
INSERT
  5
AD7
330
1F
100
AcDbEntity
  8
4
100
AcDbBlockReference
  2
SUG-AR06
 10
4079.74142198705
 20
393.6172371985577
 30
0.0
  0
INSERT
  5
AD8
330
1F
100
AcDbEntity
  8
4
100
AcDbBlockReference
  2
SUG-AR06
 10
3523.541749335603
 20
6.517149262504545
 30
0.0
  0
INSERT
  5
AD9
330
1F
100
AcDbEntity
  8
4
100
AcDbBlockReference
  2
SUG-AR06
 10
3715.997119094747
 20
-78.47724166254088
 30
0.0
  0
TEXT
  5
ADA
330
1F
100
AcDbEntity
  8
S
 62
     6
100
AcDbText
 10
3511.471806911723
 20
-148.0648098462839
 30
0.0
 40
3.0
  1

  7
SIMPLEX
100
AcDbText
  0
INSERT
  5
ADB
330
1F
100
AcDbEntity
  8
4
100
AcDbBlockReference
  2
SUG-AR06
 10
3431.751421987049
 20
-99.27976280144228
 30
0.0
  0
INSERT
  5
ADC
330
1F
100
AcDbEntity
  8
4
100
AcDbBlockReference
  2
SUG-AR06
 10
3471.283560530068
 20
3.166034048884256
 30
0.0
  0
INSERT
  5
ADD
330
1F
100
AcDbEntity
  8
4
100
AcDbBlockReference
  2
SUG-AR06
 10
3505.945275249727
 20
40.56664619981826
 30
0.0
  0
INSERT
  5
ADE
330
1F
100
AcDbEntity
  8
4
100
AcDbBlockReference
  2
SUG-AR06
 10
4186.211942992244
 20
0.5530193980394245
 30
0.0
  0
INSERT
  5
ADF
330
1F
100
AcDbEntity
  8
4
100
AcDbBlockReference
  2
SUG-AR06
 10
4186.211942992244
 20
0.5530193980394245
 30
0.0
 41
0.5
 42
0.5
 43
0.5
  0
INSERT
  5
AE0
330
1F
100
AcDbEntity
  8
4
100
AcDbBlockReference
  2
SUG-AR06
 10
4282.439627871815
 20
-41.94417606448328
 30
0.0
 41
0.5
 42
0.5
 43
0.5
  0
TEXT
  5
AE1
330
1F
100
AcDbEntity
  8
S
 62
     6
100
AcDbText
 10
4180.176971780302
 20
-76.73796015635483
 30
0.0
 40
1.5
  1

  7
SIMPLEX
100
AcDbText
  0
INSERT
  5
AE2
330
1F
100
AcDbEntity
  8
4
100
AcDbBlockReference
  2
SUG-AR06
 10
4342.943924369268
 20
124.1570903740474
 30
0.0
 41
0.5
 42
0.5
 43
0.5
  0
INSERT
  5
AE3
330
1F
100
AcDbEntity
  8
4
100
AcDbBlockReference
  2
SUG-AR06
 10
4378.411942992245
 20
134.2530193980394
 30
0.0
 41
0.5
 42
0.5
 43
0.5
  0
INSERT
  5
AE4
330
1F
100
AcDbEntity
  8
4
100
AcDbBlockReference
  2
SUG-AR06
 10
4167.927817927515
 20
195.5147332065928
 30
0.0
  0
INSERT
  5
AE5
330
1F
100
AcDbEntity
  8
4
100
AcDbBlockReference
  2
SUG-AR06
 10
4167.927817927515
 20
195.5147332065928
 30
0.0
  0
INSERT
  5
AE6
330
1F
100
AcDbEntity
  8
4
100
AcDbBlockReference
  2
SUG-AR06
 10
4360.383187686657
 20
110.5203422815474
 30
0.0
  0
TEXT
  5
AE7
330
1F
100
AcDbEntity
  8
S
 62
     6
100
AcDbText
 10
4155.857875503634
 20
40.93277409780431
 30
0.0
 40
3.0
  1

  7
SIMPLEX
100
AcDbText
  0
INSERT
  5
AE8
330
1F
100
AcDbEntity
  8
4
100
AcDbBlockReference
  2
SUG-AR06
 10
4100.504899109177
 20
144.50057539609
 30
0.0
  0
INSERT
  5
AE9
330
1F
100
AcDbEntity
  8
4
100
AcDbBlockReference
  2
SUG-AR06
 10
4292.960268868321
 20
59.50618447104462
 30
0.0
  0
TEXT
  5
AEA
330
1F
100
AcDbEntity
  8
S
 62
     6
100
AcDbText
 10
4088.434956685296
 20
-10.08138371269851
 30
0.0
 40
3.0
  1

  7
SIMPLEX
100
AcDbText
  0
INSERT
  5
AEB
330
1F
100
AcDbEntity
  8
4
100
AcDbBlockReference
  2
SUG-AR06
 10
4367.916179488886
 20
349.0648746737352
 30
0.0
  0
INSERT
  5
AEC
330
1F
100
AcDbEntity
  8
4
100
AcDbBlockReference
  2
SUG-AR06
 10
4444.127817927514
 20
367.5147332065927
 30
0.0
  0
INSERT
  5
AED
330
1F
100
AcDbEntity
  8
4
100
AcDbBlockReference
  2
SUG-AR06
 10
4474.694809776278
 20
230.039202875127
 30
0.0
  0
INSERT
  5
AEE
330
1F
100
AcDbEntity
  8
4
100
AcDbBlockReference
  2
SUG-AR06
 10
4474.694809776278
 20
230.039202875127
 30
0.0
 41
0.5
 42
0.5
 43
0.5
  0
INSERT
  5
AEF
330
1F
100
AcDbEntity
  8
4
100
AcDbBlockReference
  2
SUG-AR06
 10
4570.922494655848
 20
187.5420074126042
 30
0.0
 41
0.5
 42
0.5
 43
0.5
  0
TEXT
  5
AF0
330
1F
100
AcDbEntity
  8
S
 62
     6
100
AcDbText
 10
4468.659838564337
 20
152.7482233207327
 30
0.0
 40
1.5
  1

  7
SIMPLEX
100
AcDbText
  0
INSERT
  5
AF1
330
1F
100
AcDbEntity
  8
4
100
AcDbBlockReference
  2
SUG-AR06
 10
4631.426791153301
 20
353.6432738511349
 30
0.0
 41
0.5
 42
0.5
 43
0.5
  0
INSERT
  5
AF2
330
1F
100
AcDbEntity
  8
4
100
AcDbBlockReference
  2
SUG-AR06
 10
4666.894809776277
 20
363.7392028751269
 30
0.0
 41
0.5
 42
0.5
 43
0.5
  0
INSERT
  5
AF3
330
1F
100
AcDbEntity
  8
4
100
AcDbBlockReference
  2
SUG-AR06
 10
4200.432928730821
 20
130.5274955808491
 30
0.0
  0
INSERT
  5
AF4
330
1F
100
AcDbEntity
  8
4
100
AcDbBlockReference
  2
SUG-AR06
 10
4200.432928730821
 20
130.5274955808491
 30
0.0
 41
0.1999999999999886
 42
0.2000000000000028
 43
0.2
  0
INSERT
  5
AF5
330
1F
100
AcDbEntity
  8
4
100
AcDbBlockReference
  2
SUG-AR06
 10
4238.92400268265
 20
113.5286173958401
 30
0.0
 41
0.1999999999999886
 42
0.2000000000000028
 43
0.2
  0
TEXT
  5
AF6
330
1F
100
AcDbEntity
  8
S
 62
     6
100
AcDbText
 10
4198.018940246044
 20
99.6111037590915
 30
0.0
 40
0.6000000000000001
  1

  7
SIMPLEX
100
AcDbText
  0
INSERT
  5
AF7
330
1F
100
AcDbEntity
  8
4
100
AcDbBlockReference
  2
SUG-AR06
 10
4186.948344967152
 20
120.3246640187486
 30
0.0
 41
0.1999999999999886
 42
0.2000000000000028
 43
0.2
  0
INSERT
  5
AF8
330
1F
100
AcDbEntity
  8
4
100
AcDbBlockReference
  2
SUG-AR06
 10
4225.439418918981
 20
103.3257858337395
 30
0.0
 41
0.1999999999999886
 42
0.2000000000000028
 43
0.2
  0
TEXT
  5
AF9
330
1F
100
AcDbEntity
  8
S
 62
     6
100
AcDbText
 10
4184.534356482378
 20
89.40827219699091
 30
0.0
 40
0.6000000000000001
  1

  7
SIMPLEX
100
AcDbText
  0
INSERT
  5
AFA
330
1F
100
AcDbEntity
  8
4
100
AcDbBlockReference
  2
SUG-AR06
 10
4200.432928730821
 20
130.5274955808491
 30
0.0
 41
0.1999999999999886
 42
0.2000000000000028
 43
0.2
  0
INSERT
  5
AFB
330
1F
100
AcDbEntity
  8
4
100
AcDbBlockReference
  2
SUG-AR06
 10
4238.92400268265
 20
113.5286173958401
 30
0.0
 41
0.1999999999999886
 42
0.2000000000000028
 43
0.2
  0
TEXT
  5
AFC
330
1F
100
AcDbEntity
  8
S
 62
     6
100
AcDbText
 10
4198.018940246044
 20
99.6111037590915
 30
0.0
 40
0.6000000000000001
  1

  7
SIMPLEX
100
AcDbText
  0
INSERT
  5
AFD
330
1F
100
AcDbEntity
  8
4
100
AcDbBlockReference
  2
SUG-AR06
 10
4186.948344967152
 20
120.3246640187486
 30
0.0
 41
0.1999999999999886
 42
0.2000000000000028
 43
0.2
  0
INSERT
  5
AFE
330
1F
100
AcDbEntity
  8
4
100
AcDbBlockReference
  2
SUG-AR06
 10
4225.439418918981
 20
103.3257858337395
 30
0.0
 41
0.1999999999999886
 42
0.2000000000000028
 43
0.2
  0
TEXT
  5
AFF
330
1F
100
AcDbEntity
  8
S
 62
     6
100
AcDbText
 10
4184.534356482378
 20
89.40827219699091
 30
0.0
 40
0.6000000000000001
  1

  7
SIMPLEX
100
AcDbText
  0
INSERT
  5
B00
330
1F
100
AcDbEntity
  8
4
100
AcDbBlockReference
  2
SUG-AR06
 10
4241.910882351167
 20
161.2633976320446
 30
0.0
 41
0.1999999999999886
 42
0.2000000000000028
 43
0.2
  0
INSERT
  5
B01
330
1F
100
AcDbEntity
  8
4
100
AcDbBlockReference
  2
SUG-AR06
 10
4255.672928730823
 20
164.9274955808492
 30
0.0
 41
0.1999999999999886
 42
0.2000000000000028
 43
0.2
  0
INSERT
  5
B02
330
1F
100
AcDbEntity
  8
4
100
AcDbBlockReference
  2
SUG-AR06
 10
4535.641894594004
 20
126.4657929382019
 30
0.0
  0
INSERT
  5
B03
330
1F
100
AcDbEntity
  8
4
100
AcDbBlockReference
  2
SUG-AR06
 10
4535.641894594004
 20
126.4657929382019
 30
0.0
 41
0.5
 42
0.5
 43
0.5
  0
INSERT
  5
B04
330
1F
100
AcDbEntity
  8
4
100
AcDbBlockReference
  2
SUG-AR06
 10
4631.869579473575
 20
83.96859747567921
 30
0.0
 41
0.5
 42
0.5
 43
0.5
  0
TEXT
  5
B05
330
1F
100
AcDbEntity
  8
S
 62
     6
100
AcDbText
 10
4529.606923382064
 20
49.17481338380769
 30
0.0
 40
1.5
  1

  7
SIMPLEX
100
AcDbText
  0
INSERT
  5
B06
330
1F
100
AcDbEntity
  8
4
100
AcDbBlockReference
  2
SUG-AR06
 10
4501.930435184834
 20
100.9587140329505
 30
0.0
 41
0.5
 42
0.5
 43
0.5
  0
INSERT
  5
B07
330
1F
100
AcDbEntity
  8
4
100
AcDbBlockReference
  2
SUG-AR06
 10
4598.158120064407
 20
58.46151857042785
 30
0.0
 41
0.5
 42
0.5
 43
0.5
  0
TEXT
  5
B08
330
1F
100
AcDbEntity
  8
S
 62
     6
100
AcDbText
 10
4495.895463972894
 20
23.66773447855631
 30
0.0
 40
1.5
  1

  7
SIMPLEX
100
AcDbText
  0
INSERT
  5
B09
330
1F
100
AcDbEntity
  8
4
100
AcDbBlockReference
  2
SUG-AR06
 10
4636.788944187109
 20
201.7913147917438
 30
0.0
 41
0.5
 42
0.5
 43
0.5
  0
INSERT
  5
B0A
330
1F
100
AcDbEntity
  8
4
100
AcDbBlockReference
  2
SUG-AR06
 10
4673.891894594004
 20
212.5657929382019
 30
0.0
 41
0.5
 42
0.5
 43
0.5
  0
INSERT
  5
B0B
330
1F
100
AcDbEntity
  8
4
100
AcDbBlockReference
  2
SUG-AR06
 10
4124.723930319893
 20
142.9265631827457
 30
0.0
  0
INSERT
  5
B0C
330
1F
100
AcDbEntity
  8
4
100
AcDbBlockReference
  2
SUG-AR06
 10
4784.402418837526
 20
517.7102000707209
 30
0.0
  0
INSERT
  5
B0D
330
1F
100
AcDbEntity
  8
4
100
AcDbBlockReference
  2
SUG-AR06
 10
4730.308180801985
 20
421.20042312281
 30
0.0
 41
0.5
 42
0.5
 43
0.5
  0
INSERT
  5
B0E
330
1F
100
AcDbEntity
  8
4
100
AcDbBlockReference
  2
SUG-AR06
 10
4826.535865681557
 20
378.7032276602873
 30
0.0
 41
0.5
 42
0.5
 43
0.5
  0
TEXT
  5
B0F
330
1F
100
AcDbEntity
  8
S
 62
     6
100
AcDbText
 10
4724.273209590045
 20
343.9094435684158
 30
0.0
 40
1.5
  1

  7
SIMPLEX
100
AcDbText
  0
INSERT
  5
B10
330
1F
100
AcDbEntity
  8
4
100
AcDbBlockReference
  2
SUG-AR06
 10
4696.596721392816
 20
395.6933442175587
 30
0.0
 41
0.5
 42
0.5
 43
0.5
  0
INSERT
  5
B11
330
1F
100
AcDbEntity
  8
4
100
AcDbBlockReference
  2
SUG-AR06
 10
4792.824406272386
 20
353.196148755036
 30
0.0
 41
0.5
 42
0.5
 43
0.5
  0
TEXT
  5
B12
330
1F
100
AcDbEntity
  8
S
 62
     6
100
AcDbText
 10
4690.561750180875
 20
318.4023646631644
 30
0.0
 40
1.5
  1

  7
SIMPLEX
100
AcDbText
  0
INSERT
  5
B13
330
1F
100
AcDbEntity
  8
4
100
AcDbBlockReference
  2
SUG-AR06
 10
4702.936014680978
 20
421.9671606912654
 30
0.0
 41
0.5
 42
0.5
 43
0.5
  0
INSERT
  5
B14
330
1F
100
AcDbEntity
  8
4
100
AcDbBlockReference
  2
SUG-AR06
 10
4799.163699560547
 20
379.4699652287428
 30
0.0
 41
0.5
 42
0.5
 43
0.5
  0
TEXT
  5
B15
330
1F
100
AcDbEntity
  8
S
 62
     6
100
AcDbText
 10
4696.901043469037
 20
344.6761811368713
 30
0.0
 40
1.5
  1

  7
SIMPLEX
100
AcDbText
  0
INSERT
  5
B16
330
1F
100
AcDbEntity
  8
4
100
AcDbBlockReference
  2
SUG-AR06
 10
4669.224555271807
 20
396.4600817860142
 30
0.0
 41
0.5
 42
0.5
 43
0.5
  0
INSERT
  5
B17
330
1F
100
AcDbEntity
  8
4
100
AcDbBlockReference
  2
SUG-AR06
 10
4765.452240151378
 20
353.9628863234915
 30
0.0
 41
0.5
 42
0.5
 43
0.5
  0
TEXT
  5
B18
330
1F
100
AcDbEntity
  8
S
 62
     6
100
AcDbText
 10
4663.189584059868
 20
319.16910223162
 30
0.0
 40
1.5
  1

  7
SIMPLEX
100
AcDbText
  0
INSERT
  5
B19
330
1F
100
AcDbEntity
  8
4
100
AcDbBlockReference
  2
SUG-AR06
 10
4706.402418837526
 20
408.210200070721
 30
0.0
 41
0.25
 42
0.25
 43
0.25
  0
INSERT
  5
B1A
330
1F
100
AcDbEntity
  8
4
100
AcDbBlockReference
  2
SUG-AR06
 10
4754.516261277311
 20
386.9616023394596
 30
0.0
 41
0.25
 42
0.25
 43
0.25
  0
TEXT
  5
B1B
330
1F
100
AcDbEntity
  8
S
 62
     6
100
AcDbText
 10
4703.384933231554
 20
369.5647102935238
 30
0.0
 40
0.75
  1

  7
SIMPLEX
100
AcDbText
  0
INSERT
  5
B1C
330
1F
100
AcDbEntity
  8
4
100
AcDbBlockReference
  2
SUG-AR06
 10
4441.215008222316
 20
176.4384319474516
 30
0.0
  0
INSERT
  5
B1D
330
1F
100
AcDbEntity
  8
4
100
AcDbBlockReference
  2
SUG-AR06
 10
4633.670377981458
 20
91.44404102240621
 30
0.0
  0
TEXT
  5
B1E
330
1F
100
AcDbEntity
  8
S
 62
     6
100
AcDbText
 10
4429.145065798435
 20
21.85647283866313
 30
0.0
 40
3.0
  1

  7
SIMPLEX
100
AcDbText
  0
INSERT
  5
B1F
330
1F
100
AcDbEntity
  8
4
100
AcDbBlockReference
  2
SUG-AR06
 10
4373.792089403978
 20
125.4242741369488
 30
0.0
  0
INSERT
  5
B20
330
1F
100
AcDbEntity
  8
4
100
AcDbBlockReference
  2
SUG-AR06
 10
4566.24745916312
 20
40.42988321190345
 30
0.0
  0
TEXT
  5
B21
330
1F
100
AcDbEntity
  8
S
 62
     6
100
AcDbText
 10
4361.722146980097
 20
-29.15768497183965
 30
0.0
 40
3.0
  1

  7
SIMPLEX
100
AcDbText
  0
INSERT
  5
B22
330
1F
100
AcDbEntity
  8
4
100
AcDbBlockReference
  2
SUG-AR06
 10
4727.509669544652
 20
-97.76462638251921
 30
0.0
  0
INSERT
  5
B23
330
1F
100
AcDbEntity
  8
4
100
AcDbBlockReference
  2
SUG-AR06
 10
4919.965039303796
 20
-182.7590173075645
 30
0.0
  0
TEXT
  5
B24
330
1F
100
AcDbEntity
  8
S
 62
     6
100
AcDbText
 10
4715.439727120769
 20
-252.3465854913076
 30
0.0
 40
3.0
  1

  7
SIMPLEX
100
AcDbText
  0
INSERT
  5
B25
330
1F
100
AcDbEntity
  8
4
100
AcDbBlockReference
  2
SUG-AR06
 10
4660.086750726313
 20
-148.7787841930219
 30
0.0
  0
INSERT
  5
B26
330
1F
100
AcDbEntity
  8
4
100
AcDbBlockReference
  2
SUG-AR06
 10
4852.542120485457
 20
-233.7731751180673
 30
0.0
  0
TEXT
  5
B27
330
1F
100
AcDbEntity
  8
S
 62
     6
100
AcDbText
 10
4648.016808302433
 20
-303.3607433018104
 30
0.0
 40
3.0
  1

  7
SIMPLEX
100
AcDbText
  0
INSERT
  5
B28
330
1F
100
AcDbEntity
  8
4
100
AcDbBlockReference
  2
SUG-AR06
 10
5122.153542874503
 20
-150.5474647751379
 30
0.0
  0
INSERT
  5
B29
330
1F
100
AcDbEntity
  8
4
100
AcDbBlockReference
  2
SUG-AR06
 10
5314.608912633646
 20
-235.5418557001834
 30
0.0
  0
TEXT
  5
B2A
330
1F
100
AcDbEntity
  8
S
 62
     6
100
AcDbText
 10
5110.083600450622
 20
-305.1294238839265
 30
0.0
 40
3.0
  1

  7
SIMPLEX
100
AcDbText
  0
INSERT
  5
B2B
330
1F
100
AcDbEntity
  8
4
100
AcDbBlockReference
  2
SUG-AR06
 10
5054.730624056165
 20
-201.5616225856408
 30
0.0
  0
INSERT
  5
B2C
330
1F
100
AcDbEntity
  8
4
100
AcDbBlockReference
  2
SUG-AR06
 10
5247.185993815309
 20
-286.5560135106861
 30
0.0
  0
TEXT
  5
B2D
330
1F
100
AcDbEntity
  8
S
 62
     6
100
AcDbText
 10
5042.660681632284
 20
-356.1435816944292
 30
0.0
 40
3.0
  1

  7
SIMPLEX
100
AcDbText
  0
INSERT
  5
B2E
330
1F
100
AcDbEntity
  8
4
100
AcDbBlockReference
  2
SUG-AR06
 10
4124.723930319893
 20
142.9265631827457
 30
0.0
  0
INSERT
  5
B2F
330
1F
100
AcDbEntity
  8
4
100
AcDbBlockReference
  2
SUG-AR06
 10
4781.348384038682
 20
-221.7487575426666
 30
0.0
  0
INSERT
  5
B30
330
1F
100
AcDbEntity
  8
4
100
AcDbBlockReference
  2
SUG-AR06
 10
4973.803753797824
 20
-306.7431484677122
 30
0.0
  0
TEXT
  5
B31
330
1F
100
AcDbEntity
  8
S
 62
     6
100
AcDbText
 10
4769.2784416148
 20
-376.3307166514551
 30
0.0
 40
3.0
  1

  7
SIMPLEX
100
AcDbText
  0
INSERT
  5
B32
330
1F
100
AcDbEntity
  8
4
100
AcDbBlockReference
  2
SUG-AR06
 10
4713.925465220342
 20
-272.7629153531694
 30
0.0
  0
INSERT
  5
B33
330
1F
100
AcDbEntity
  8
4
100
AcDbBlockReference
  2
SUG-AR06
 10
4906.380834979487
 20
-357.7573062782148
 30
0.0
  0
TEXT
  5
B34
330
1F
100
AcDbEntity
  8
S
 62
     6
100
AcDbText
 10
4701.855522796463
 20
-427.3448744619577
 30
0.0
 40
3.0
  1

  7
SIMPLEX
100
AcDbText
  0
INSERT
  5
B35
330
1F
100
AcDbEntity
  8
4
100
AcDbBlockReference
  2
SUG-AR06
 10
4124.723930319893
 20
142.9265631827457
 30
0.0
  0
INSERT
  5
B36
330
1F
100
AcDbEntity
  8
4
100
AcDbBlockReference
  2
SUG-AR06
 10
4317.179300079035
 20
57.93217225770032
 30
0.0
  0
TEXT
  5
B37
330
1F
100
AcDbEntity
  8
S
 62
     6
100
AcDbText
 10
4112.653987896012
 20
-11.65539592604281
 30
0.0
 40
3.0
  1

  7
SIMPLEX
100
AcDbText
  0
INSERT
  5
B38
330
1F
100
AcDbEntity
  8
4
100
AcDbBlockReference
  2
SUG-AR06
 10
4057.301011501555
 20
91.91240537224294
 30
0.0
  0
INSERT
  5
B39
330
1F
100
AcDbEntity
  8
4
100
AcDbBlockReference
  2
SUG-AR06
 10
4249.756381260697
 20
6.918014447197522
 30
0.0
  0
TEXT
  5
B3A
330
1F
100
AcDbEntity
  8
S
 62
     6
100
AcDbText
 10
4045.231069077672
 20
-62.66955373654557
 30
0.0
 40
3.0
  1

  7
SIMPLEX
100
AcDbText
  0
INSERT
  5
B3B
330
1F
100
AcDbEntity
  8
4
100
AcDbBlockReference
  2
SUG-AR06
 10
4326.361458159651
 20
293.6974150151176
 30
0.0
  0
INSERT
  5
B3C
330
1F
100
AcDbEntity
  8
4
100
AcDbBlockReference
  2
SUG-AR06
 10
4401.223930319893
 20
315.1265631827457
 30
0.0
  0
INSERT
  5
B3D
330
1F
100
AcDbEntity
  8
4
100
AcDbBlockReference
  2
SUG-AR06
 10
4334.901553477227
 20
161.0145943830054
 30
0.0
  0
INSERT
  5
B3E
330
1F
100
AcDbEntity
  8
4
100
AcDbBlockReference
  2
SUG-AR06
 10
4527.356923236371
 20
76.02020345795995
 30
0.0
  0
TEXT
  5
B3F
330
1F
100
AcDbEntity
  8
S
 62
     6
100
AcDbText
 10
4322.831611053347
 20
6.432635274216893
 30
0.0
 40
3.0
  1

  7
SIMPLEX
100
AcDbText
  0
INSERT
  5
B40
330
1F
100
AcDbEntity
  8
4
100
AcDbBlockReference
  2
SUG-AR06
 10
4267.47863465889
 20
110.0004365725025
 30
0.0
  0
INSERT
  5
B41
330
1F
100
AcDbEntity
  8
4
100
AcDbBlockReference
  2
SUG-AR06
 10
4459.934004418033
 20
25.00604564745719
 30
0.0
  0
TEXT
  5
B42
330
1F
100
AcDbEntity
  8
S
 62
     6
100
AcDbText
 10
4255.408692235008
 20
-44.58152253628592
 30
0.0
 40
3.0
  1

  7
SIMPLEX
100
AcDbText
  0
INSERT
  5
B43
330
1F
100
AcDbEntity
  8
4
100
AcDbBlockReference
  2
SUG-AR06
 10
3187.24115987208
 20
322.6989236420463
 30
0.0
 41
0.1999999999999886
 42
0.2000000000000028
 43
0.2
  0
INSERT
  5
B44
330
1F
100
AcDbEntity
  8
4
100
AcDbBlockReference
  2
SUG-AR06
 10
3201.32115987208
 20
326.4989236420464
 30
0.0
 41
0.1999999999999886
 42
0.2000000000000028
 43
0.2
  0
INSERT
  5
B45
330
1F
100
AcDbEntity
  8
4
100
AcDbBlockReference
  2
SUG-AR06
 10
3146.081159872081
 20
292.0989236420463
 30
0.0
 41
0.1999999999999886
 42
0.2000000000000028
 43
0.2
  0
INSERT
  5
B46
330
1F
100
AcDbEntity
  8
4
100
AcDbBlockReference
  2
SUG-AR06
 10
3184.572233823908
 20
275.1000454570373
 30
0.0
 41
0.1999999999999886
 42
0.2000000000000028
 43
0.2
  0
TEXT
  5
B47
330
1F
100
AcDbEntity
  8
S
 62
     6
100
AcDbText
 10
3143.667171387305
 20
261.1825318202887
 30
0.0
 40
0.6000000000000001
  1

  7
SIMPLEX
100
AcDbText
  0
INSERT
  5
B48
330
1F
100
AcDbEntity
  8
4
100
AcDbBlockReference
  2
SUG-AR06
 10
3132.596576108412
 20
281.8960920799458
 30
0.0
 41
0.1999999999999886
 42
0.2000000000000028
 43
0.2
  0
INSERT
  5
B49
330
1F
100
AcDbEntity
  8
4
100
AcDbBlockReference
  2
SUG-AR06
 10
3171.08765006024
 20
264.8972138949367
 30
0.0
 41
0.1999999999999886
 42
0.2000000000000028
 43
0.2
  0
TEXT
  5
B4A
330
1F
100
AcDbEntity
  8
S
 62
     6
100
AcDbText
 10
3130.182587623636
 20
250.9797002581881
 30
0.0
 40
0.6000000000000001
  1

  7
SIMPLEX
100
AcDbText
  0
INSERT
  5
B4B
330
1F
100
AcDbEntity
  8
4
100
AcDbBlockReference
  2
SUG-AR06
 10
3212.955493192149
 20
342.8248364392238
 30
0.0
 41
0.3333333333333428
 42
0.3333333333333357
 43
0.333333333333333
  0
INSERT
  5
B4C
330
1F
100
AcDbEntity
  8
4
100
AcDbBlockReference
  2
SUG-AR06
 10
3146.081159872081
 20
292.0989236420463
 30
0.0
 41
0.3333333333333428
 42
0.3333333333333357
 43
0.333333333333333
  0
INSERT
  5
B4D
330
1F
100
AcDbEntity
  8
4
100
AcDbBlockReference
  2
SUG-AR06
 10
3210.232949791794
 20
263.7674600003645
 30
0.0
 41
0.3333333333333428
 42
0.3333333333333357
 43
0.333333333333333
  0
TEXT
  5
B4E
330
1F
100
AcDbEntity
  8
S
 62
     6
100
AcDbText
 10
3142.057845730786
 20
240.5716039391169
 30
0.0
 40
0.9999999999999992
  1

  7
SIMPLEX
100
AcDbText
  0
INSERT
  5
B4F
330
1F
100
AcDbEntity
  8
4
100
AcDbBlockReference
  2
SUG-AR06
 10
3123.606853599302
 20
275.0942043718787
 30
0.0
 41
0.3333333333333428
 42
0.3333333333333357
 43
0.333333333333333
  0
INSERT
  5
B50
330
1F
100
AcDbEntity
  8
4
100
AcDbBlockReference
  2
SUG-AR06
 10
3187.758643519015
 20
246.762740730197
 30
0.0
 41
0.3333333333333428
 42
0.3333333333333357
 43
0.333333333333333
  0
TEXT
  5
B51
330
1F
100
AcDbEntity
  8
S
 62
     6
100
AcDbText
 10
3119.583539458008
 20
223.5668846689494
 30
0.0
 40
0.9999999999999992
  1

  7
SIMPLEX
100
AcDbText
  0
TEXT
  5
B52
330
1F
100
AcDbEntity
  8
S
 62
     6
100
AcDbText
 10
3195.34115987208
 20
295.9322569753797
 30
0.0
 40
1.666666666666666
  1

  7
SIMPLEX
100
AcDbText
  0
INSERT
  5
B53
330
1F
100
AcDbEntity
  8
4
100
AcDbBlockReference
  2
SUG-AR06
 10
3349.514427534002
 20
444.1598920821745
 30
0.0
  0
INSERT
  5
B54
330
1F
100
AcDbEntity
  8
4
100
AcDbBlockReference
  2
SUG-AR06
 10
4224.749170027696
 20
-37.69800253905707
 30
0.0
  0
INSERT
  5
B55
330
1F
100
AcDbEntity
  8
4
100
AcDbBlockReference
  2
SUG-AR06
 10
4224.749170027696
 20
-37.69800253905707
 30
0.0
  0
INSERT
  5
B56
330
1F
100
AcDbEntity
  8
4
100
AcDbBlockReference
  2
SUG-AR06
 10
4884.42765854533
 20
337.0856343489182
 30
0.0
  0
INSERT
  5
B57
330
1F
100
AcDbEntity
  8
4
100
AcDbBlockReference
  2
SUG-AR06
 10
4830.333420509791
 20
240.5758574010073
 30
0.0
 41
0.5
 42
0.5
 43
0.5
  0
INSERT
  5
B58
330
1F
100
AcDbEntity
  8
4
100
AcDbBlockReference
  2
SUG-AR06
 10
4926.561105389363
 20
198.0786619384846
 30
0.0
 41
0.5
 42
0.5
 43
0.5
  0
TEXT
  5
B59
330
1F
100
AcDbEntity
  8
S
 62
     6
100
AcDbText
 10
4824.298449297852
 20
163.2848778466131
 30
0.0
 40
1.5
  1

  7
SIMPLEX
100
AcDbText
  0
INSERT
  5
B5A
330
1F
100
AcDbEntity
  8
4
100
AcDbBlockReference
  2
SUG-AR06
 10
4796.621961100622
 20
215.0687784957559
 30
0.0
 41
0.5
 42
0.5
 43
0.5
  0
INSERT
  5
B5B
330
1F
100
AcDbEntity
  8
4
100
AcDbBlockReference
  2
SUG-AR06
 10
4892.849645980192
 20
172.5715830332332
 30
0.0
 41
0.5
 42
0.5
 43
0.5
  0
TEXT
  5
B5C
330
1F
100
AcDbEntity
  8
S
 62
     6
100
AcDbText
 10
4790.586989888681
 20
137.7777989413617
 30
0.0
 40
1.5
  1

  7
SIMPLEX
100
AcDbText
  0
INSERT
  5
B5D
330
1F
100
AcDbEntity
  8
4
100
AcDbBlockReference
  2
SUG-AR06
 10
4802.961254388781
 20
241.3425949694628
 30
0.0
 41
0.5
 42
0.5
 43
0.5
  0
INSERT
  5
B5E
330
1F
100
AcDbEntity
  8
4
100
AcDbBlockReference
  2
SUG-AR06
 10
4899.188939268353
 20
198.8453995069401
 30
0.0
 41
0.5
 42
0.5
 43
0.5
  0
TEXT
  5
B5F
330
1F
100
AcDbEntity
  8
S
 62
     6
100
AcDbText
 10
4796.926283176841
 20
164.0516154150685
 30
0.0
 40
1.5
  1

  7
SIMPLEX
100
AcDbText
  0
INSERT
  5
B60
330
1F
100
AcDbEntity
  8
4
100
AcDbBlockReference
  2
SUG-AR06
 10
4769.249794979613
 20
215.8355160642114
 30
0.0
 41
0.5
 42
0.5
 43
0.5
  0
INSERT
  5
B61
330
1F
100
AcDbEntity
  8
4
100
AcDbBlockReference
  2
SUG-AR06
 10
4865.477479859184
 20
173.3383206016887
 30
0.0
 41
0.5
 42
0.5
 43
0.5
  0
TEXT
  5
B62
330
1F
100
AcDbEntity
  8
S
 62
     6
100
AcDbText
 10
4763.214823767672
 20
138.5445365098172
 30
0.0
 40
1.5
  1

  7
SIMPLEX
100
AcDbText
  0
INSERT
  5
B63
330
1F
100
AcDbEntity
  8
4
100
AcDbBlockReference
  2
SUG-AR06
 10
4806.42765854533
 20
227.5856343489182
 30
0.0
 41
0.25
 42
0.25
 43
0.25
  0
INSERT
  5
B64
330
1F
100
AcDbEntity
  8
4
100
AcDbBlockReference
  2
SUG-AR06
 10
4854.541500985117
 20
206.3370366176568
 30
0.0
 41
0.25
 42
0.25
 43
0.25
  0
TEXT
  5
B65
330
1F
100
AcDbEntity
  8
S
 62
     6
100
AcDbText
 10
4803.410172939361
 20
188.9401445717211
 30
0.0
 40
0.75
  1

  7
SIMPLEX
100
AcDbText
  0
INSERT
  5
B66
330
1F
100
AcDbEntity
  8
4
100
AcDbBlockReference
  2
SUG-AR06
 10
4541.24024793012
 20
-4.186133774351133
 30
0.0
  0
INSERT
  5
B67
330
1F
100
AcDbEntity
  8
4
100
AcDbBlockReference
  2
SUG-AR06
 10
4733.695617689263
 20
-89.18052469939656
 30
0.0
  0
TEXT
  5
B68
330
1F
100
AcDbEntity
  8
S
 62
     6
100
AcDbText
 10
4529.170305506239
 20
-158.7680928831395
 30
0.0
 40
3.0
  1

  7
SIMPLEX
100
AcDbText
  0
INSERT
  5
B69
330
1F
100
AcDbEntity
  8
4
100
AcDbBlockReference
  2
SUG-AR06
 10
4473.81732911178
 20
-55.20029158485393
 30
0.0
  0
INSERT
  5
B6A
330
1F
100
AcDbEntity
  8
4
100
AcDbBlockReference
  2
SUG-AR06
 10
4666.272698870925
 20
-140.1946825098993
 30
0.0
  0
TEXT
  5
B6B
330
1F
100
AcDbEntity
  8
S
 62
     6
100
AcDbText
 10
4461.747386687901
 20
-209.7822506936424
 30
0.0
 40
3.0
  1

  7
SIMPLEX
100
AcDbText
  0
INSERT
  5
B6C
330
1F
100
AcDbEntity
  8
4
100
AcDbBlockReference
  2
SUG-AR06
 10
4827.534909252458
 20
-278.3891921043219
 30
0.0
  0
INSERT
  5
B6D
330
1F
100
AcDbEntity
  8
4
100
AcDbBlockReference
  2
SUG-AR06
 10
5019.990279011601
 20
-363.3835830293672
 30
0.0
  0
TEXT
  5
B6E
330
1F
100
AcDbEntity
  8
S
 62
     6
100
AcDbText
 10
4815.464966828575
 20
-432.9711512131102
 30
0.0
 40
3.0
  1

  7
SIMPLEX
100
AcDbText
  0
INSERT
  5
B6F
330
1F
100
AcDbEntity
  8
4
100
AcDbBlockReference
  2
SUG-AR06
 10
4760.111990434119
 20
-329.4033499148249
 30
0.0
  0
INSERT
  5
B70
330
1F
100
AcDbEntity
  8
4
100
AcDbBlockReference
  2
SUG-AR06
 10
4952.567360193263
 20
-414.39774083987
 30
0.0
  0
TEXT
  5
B71
330
1F
100
AcDbEntity
  8
S
 62
     6
100
AcDbText
 10
4748.04204801024
 20
-483.9853090236131
 30
0.0
 40
3.0
  1

  7
SIMPLEX
100
AcDbText
  0
INSERT
  5
B72
330
1F
100
AcDbEntity
  8
4
100
AcDbBlockReference
  2
SUG-AR06
 10
5222.178782582307
 20
-331.1720304969406
 30
0.0
  0
INSERT
  5
B73
330
1F
100
AcDbEntity
  8
4
100
AcDbBlockReference
  2
SUG-AR06
 10
5414.63415234145
 20
-416.1664214219861
 30
0.0
  0
TEXT
  5
B74
330
1F
100
AcDbEntity
  8
S
 62
     6
100
AcDbText
 10
5210.108840158426
 20
-485.7539896057292
 30
0.0
 40
3.0
  1

  7
SIMPLEX
100
AcDbText
  0
INSERT
  5
B75
330
1F
100
AcDbEntity
  8
4
100
AcDbBlockReference
  2
SUG-AR06
 10
5154.75586376397
 20
-382.1861883074435
 30
0.0
  0
INSERT
  5
B76
330
1F
100
AcDbEntity
  8
4
100
AcDbBlockReference
  2
SUG-AR06
 10
5347.211233523112
 20
-467.1805792324887
 30
0.0
  0
TEXT
  5
B77
330
1F
100
AcDbEntity
  8
S
 62
     6
100
AcDbText
 10
5142.685921340087
 20
-536.7681474162318
 30
0.0
 40
3.0
  1

  7
SIMPLEX
100
AcDbText
  0
INSERT
  5
B78
330
1F
100
AcDbEntity
  8
4
100
AcDbBlockReference
  2
SUG-AR06
 10
4224.749170027696
 20
-37.69800253905707
 30
0.0
  0
INSERT
  5
B79
330
1F
100
AcDbEntity
  8
4
100
AcDbBlockReference
  2
SUG-AR06
 10
4881.373623746487
 20
-402.3733232644691
 30
0.0
  0
INSERT
  5
B7A
330
1F
100
AcDbEntity
  8
4
100
AcDbBlockReference
  2
SUG-AR06
 10
5073.828993505631
 20
-487.3677141895147
 30
0.0
  0
TEXT
  5
B7B
330
1F
100
AcDbEntity
  8
S
 62
     6
100
AcDbText
 10
4869.303681322606
 20
-556.9552823732577
 30
0.0
 40
3.0
  1

  7
SIMPLEX
100
AcDbText
  0
INSERT
  5
B7C
330
1F
100
AcDbEntity
  8
4
100
AcDbBlockReference
  2
SUG-AR06
 10
4813.950704928149
 20
-453.3874810749721
 30
0.0
  0
INSERT
  5
B7D
330
1F
100
AcDbEntity
  8
4
100
AcDbBlockReference
  2
SUG-AR06
 10
5006.406074687293
 20
-538.3818720000174
 30
0.0
  0
TEXT
  5
B7E
330
1F
100
AcDbEntity
  8
S
 62
     6
100
AcDbText
 10
4801.880762504268
 20
-607.9694401837605
 30
0.0
 40
3.0
  1

  7
SIMPLEX
100
AcDbText
  0
INSERT
  5
B7F
330
1F
100
AcDbEntity
  8
4
100
AcDbBlockReference
  2
SUG-AR06
 10
4224.749170027696
 20
-37.69800253905707
 30
0.0
  0
INSERT
  5
B80
330
1F
100
AcDbEntity
  8
4
100
AcDbBlockReference
  2
SUG-AR06
 10
4417.20453978684
 20
-122.6923934641024
 30
0.0
  0
TEXT
  5
B81
330
1F
100
AcDbEntity
  8
S
 62
     6
100
AcDbText
 10
4212.679227603816
 20
-192.2799616478455
 30
0.0
 40
3.0
  1

  7
SIMPLEX
100
AcDbText
  0
INSERT
  5
B82
330
1F
100
AcDbEntity
  8
4
100
AcDbBlockReference
  2
SUG-AR06
 10
4695.284254723516
 20
323.6664214228914
 30
0.0
  0
INSERT
  5
B83
330
1F
100
AcDbEntity
  8
4
100
AcDbBlockReference
  2
SUG-AR06
 10
4780.948842679143
 20
349.4020853969961
 30
0.0
  0
INSERT
  5
B84
330
1F
100
AcDbEntity
  8
4
100
AcDbBlockReference
  2
SUG-AR06
 10
4224.749170027696
 20
-37.69800253905707
 30
0.0
  0
INSERT
  5
B85
330
1F
100
AcDbEntity
  8
4
100
AcDbBlockReference
  2
SUG-AR06
 10
4417.20453978684
 20
-122.6923934641024
 30
0.0
  0
TEXT
  5
B86
330
1F
100
AcDbEntity
  8
S
 62
     6
100
AcDbText
 10
4212.679227603816
 20
-192.2799616478455
 30
0.0
 40
3.0
  1

  7
SIMPLEX
100
AcDbText
  0
INSERT
  5
B87
330
1F
100
AcDbEntity
  8
4
100
AcDbBlockReference
  2
SUG-AR06
 10
4132.958842679143
 20
-143.4949146030039
 30
0.0
  0
INSERT
  5
B88
330
1F
100
AcDbEntity
  8
4
100
AcDbBlockReference
  2
SUG-AR06
 10
4172.490981222163
 20
-41.04911775267734
 30
0.0
  0
INSERT
  5
B89
330
1F
100
AcDbEntity
  8
4
100
AcDbBlockReference
  2
SUG-AR06
 10
4207.152695941821
 20
-3.648505601743379
 30
0.0
  0
INSERT
  5
B8A
330
1F
100
AcDbEntity
  8
4
100
AcDbBlockReference
  2
SUG-AR06
 10
4887.419363684337
 20
-43.66213240352218
 30
0.0
  0
INSERT
  5
B8B
330
1F
100
AcDbEntity
  8
4
100
AcDbBlockReference
  2
SUG-AR06
 10
4887.419363684337
 20
-43.66213240352218
 30
0.0
 41
0.5
 42
0.5
 43
0.5
  0
INSERT
  5
B8C
330
1F
100
AcDbEntity
  8
4
100
AcDbBlockReference
  2
SUG-AR06
 10
4983.647048563909
 20
-86.15932786604489
 30
0.0
 41
0.5
 42
0.5
 43
0.5
  0
TEXT
  5
B8D
330
1F
100
AcDbEntity
  8
S
 62
     6
100
AcDbText
 10
4881.384392472397
 20
-120.9531119579164
 30
0.0
 40
1.5
  1

  7
SIMPLEX
100
AcDbText
  0
INSERT
  5
B8E
330
1F
100
AcDbEntity
  8
4
100
AcDbBlockReference
  2
SUG-AR06
 10
5044.151345061364
 20
79.94193857248578
 30
0.0
 41
0.5
 42
0.5
 43
0.5
  0
INSERT
  5
B8F
330
1F
100
AcDbEntity
  8
4
100
AcDbBlockReference
  2
SUG-AR06
 10
5079.619363684338
 20
90.03786759647779
 30
0.0
 41
0.5
 42
0.5
 43
0.5
  0
INSERT
  5
B90
330
1F
100
AcDbEntity
  8
4
100
AcDbBlockReference
  2
SUG-AR06
 10
4869.135238619612
 20
151.2995814050311
 30
0.0
  0
INSERT
  5
B91
330
1F
100
AcDbEntity
  8
4
100
AcDbBlockReference
  2
SUG-AR06
 10
4869.135238619612
 20
151.2995814050311
 30
0.0
  0
INSERT
  5
B92
330
1F
100
AcDbEntity
  8
4
100
AcDbBlockReference
  2
SUG-AR06
 10
5061.590608378752
 20
66.30519047998579
 30
0.0
  0
TEXT
  5
B93
330
1F
100
AcDbEntity
  8
S
 62
     6
100
AcDbText
 10
4857.065296195728
 20
-3.282377703757305
 30
0.0
 40
3.0
  1

  7
SIMPLEX
100
AcDbText
  0
INSERT
  5
B94
330
1F
100
AcDbEntity
  8
4
100
AcDbBlockReference
  2
SUG-AR06
 10
4801.712319801272
 20
100.2854235945284
 30
0.0
  0
INSERT
  5
B95
330
1F
100
AcDbEntity
  8
4
100
AcDbBlockReference
  2
SUG-AR06
 10
4994.167689560414
 20
15.29103266948304
 30
0.0
  0
TEXT
  5
B96
330
1F
100
AcDbEntity
  8
S
 62
     6
100
AcDbText
 10
4789.64237737739
 20
-54.29653551426007
 30
0.0
 40
3.0
  1

  7
SIMPLEX
100
AcDbText
  0
INSERT
  5
B97
330
1F
100
AcDbEntity
  8
4
100
AcDbBlockReference
  2
SUG-AR06
 10
5069.123600180983
 20
304.8497228721736
 30
0.0
  0
INSERT
  5
B98
330
1F
100
AcDbEntity
  8
4
100
AcDbBlockReference
  2
SUG-AR06
 10
5145.335238619608
 20
323.2995814050312
 30
0.0
  0
INSERT
  5
B99
330
1F
100
AcDbEntity
  8
4
100
AcDbBlockReference
  2
SUG-AR06
 10
5175.902230468371
 20
185.8240510735653
 30
0.0
  0
INSERT
  5
B9A
330
1F
100
AcDbEntity
  8
4
100
AcDbBlockReference
  2
SUG-AR06
 10
5175.902230468371
 20
185.8240510735653
 30
0.0
 41
0.5
 42
0.5
 43
0.5
  0
INSERT
  5
B9B
330
1F
100
AcDbEntity
  8
4
100
AcDbBlockReference
  2
SUG-AR06
 10
5272.129915347943
 20
143.3268556110427
 30
0.0
 41
0.5
 42
0.5
 43
0.5
  0
TEXT
  5
B9C
330
1F
100
AcDbEntity
  8
S
 62
     6
100
AcDbText
 10
5169.867259256432
 20
108.5330715191711
 30
0.0
 40
1.5
  1

  7
SIMPLEX
100
AcDbText
  0
INSERT
  5
B9D
330
1F
100
AcDbEntity
  8
4
100
AcDbBlockReference
  2
SUG-AR06
 10
5332.634211845395
 20
309.4281220495734
 30
0.0
 41
0.5
 42
0.5
 43
0.5
  0
INSERT
  5
B9E
330
1F
100
AcDbEntity
  8
4
100
AcDbBlockReference
  2
SUG-AR06
 10
5368.102230468372
 20
319.5240510735654
 30
0.0
 41
0.5
 42
0.5
 43
0.5
  0
INSERT
  5
B9F
330
1F
100
AcDbEntity
  8
4
100
AcDbBlockReference
  2
SUG-AR06
 10
4901.640349422916
 20
86.31234377928757
 30
0.0
  0
INSERT
  5
BA0
330
1F
100
AcDbEntity
  8
4
100
AcDbBlockReference
  2
SUG-AR06
 10
4901.640349422916
 20
86.31234377928757
 30
0.0
 41
0.1999999999999886
 42
0.2000000000000028
 43
0.2
  0
INSERT
  5
BA1
330
1F
100
AcDbEntity
  8
4
100
AcDbBlockReference
  2
SUG-AR06
 10
4940.131423374745
 20
69.3134655942785
 30
0.0
 41
0.1999999999999886
 42
0.2000000000000028
 43
0.2
  0
TEXT
  5
BA2
330
1F
100
AcDbEntity
  8
S
 62
     6
100
AcDbText
 10
4899.226360938139
 20
55.3959519575299
 30
0.0
 40
0.6000000000000001
  1

  7
SIMPLEX
100
AcDbText
  0
INSERT
  5
BA3
330
1F
100
AcDbEntity
  8
4
100
AcDbBlockReference
  2
SUG-AR06
 10
4888.15576565925
 20
76.10951221718703
 30
0.0
 41
0.1999999999999886
 42
0.2000000000000028
 43
0.2
  0
INSERT
  5
BA4
330
1F
100
AcDbEntity
  8
4
100
AcDbBlockReference
  2
SUG-AR06
 10
4926.646839611078
 20
59.11063403217797
 30
0.0
 41
0.1999999999999886
 42
0.2000000000000028
 43
0.2
  0
TEXT
  5
BA5
330
1F
100
AcDbEntity
  8
S
 62
     6
100
AcDbText
 10
4885.74177717447
 20
45.19312039542931
 30
0.0
 40
0.6000000000000001
  1

  7
SIMPLEX
100
AcDbText
  0
INSERT
  5
BA6
330
1F
100
AcDbEntity
  8
4
100
AcDbBlockReference
  2
SUG-AR06
 10
4901.640349422916
 20
86.31234377928757
 30
0.0
 41
0.1999999999999886
 42
0.2000000000000028
 43
0.2
  0
INSERT
  5
BA7
330
1F
100
AcDbEntity
  8
4
100
AcDbBlockReference
  2
SUG-AR06
 10
4940.131423374745
 20
69.3134655942785
 30
0.0
 41
0.1999999999999886
 42
0.2000000000000028
 43
0.2
  0
TEXT
  5
BA8
330
1F
100
AcDbEntity
  8
S
 62
     6
100
AcDbText
 10
4899.226360938139
 20
55.3959519575299
 30
0.0
 40
0.6000000000000001
  1

  7
SIMPLEX
100
AcDbText
  0
INSERT
  5
BA9
330
1F
100
AcDbEntity
  8
4
100
AcDbBlockReference
  2
SUG-AR06
 10
4888.15576565925
 20
76.10951221718703
 30
0.0
 41
0.1999999999999886
 42
0.2000000000000028
 43
0.2
  0
INSERT
  5
BAA
330
1F
100
AcDbEntity
  8
4
100
AcDbBlockReference
  2
SUG-AR06
 10
4926.646839611078
 20
59.11063403217797
 30
0.0
 41
0.1999999999999886
 42
0.2000000000000028
 43
0.2
  0
TEXT
  5
BAB
330
1F
100
AcDbEntity
  8
S
 62
     6
100
AcDbText
 10
4885.74177717447
 20
45.19312039542931
 30
0.0
 40
0.6000000000000001
  1

  7
SIMPLEX
100
AcDbText
  0
INSERT
  5
BAC
330
1F
100
AcDbEntity
  8
4
100
AcDbBlockReference
  2
SUG-AR06
 10
4943.118303043262
 20
117.048245830483
 30
0.0
 41
0.1999999999999886
 42
0.2000000000000028
 43
0.2
  0
INSERT
  5
BAD
330
1F
100
AcDbEntity
  8
4
100
AcDbBlockReference
  2
SUG-AR06
 10
4956.880349422916
 20
120.7123437792876
 30
0.0
 41
0.1999999999999886
 42
0.2000000000000028
 43
0.2
  0
INSERT
  5
BAE
330
1F
100
AcDbEntity
  8
4
100
AcDbBlockReference
  2
SUG-AR06
 10
5236.849315286097
 20
82.2506411366403
 30
0.0
  0
INSERT
  5
BAF
330
1F
100
AcDbEntity
  8
4
100
AcDbBlockReference
  2
SUG-AR06
 10
5236.849315286097
 20
82.2506411366403
 30
0.0
 41
0.5
 42
0.5
 43
0.5
  0
INSERT
  5
BB0
330
1F
100
AcDbEntity
  8
4
100
AcDbBlockReference
  2
SUG-AR06
 10
5333.077000165669
 20
39.75344567411763
 30
0.0
 41
0.5
 42
0.5
 43
0.5
  0
TEXT
  5
BB1
330
1F
100
AcDbEntity
  8
S
 62
     6
100
AcDbText
 10
5230.814344074157
 20
4.95966158224607
 30
0.0
 40
1.5
  1

  7
SIMPLEX
100
AcDbText
  0
INSERT
  5
BB2
330
1F
100
AcDbEntity
  8
4
100
AcDbBlockReference
  2
SUG-AR06
 10
5203.137855876928
 20
56.74356223138893
 30
0.0
 41
0.5
 42
0.5
 43
0.5
  0
INSERT
  5
BB3
330
1F
100
AcDbEntity
  8
4
100
AcDbBlockReference
  2
SUG-AR06
 10
5299.3655407565
 20
14.24636676886625
 30
0.0
 41
0.5
 42
0.5
 43
0.5
  0
TEXT
  5
BB4
330
1F
100
AcDbEntity
  8
S
 62
     6
100
AcDbText
 10
5197.102884664988
 20
-20.54741732300531
 30
0.0
 40
1.5
  1

  7
SIMPLEX
100
AcDbText
  0
INSERT
  5
BB5
330
1F
100
AcDbEntity
  8
4
100
AcDbBlockReference
  2
SUG-AR06
 10
5337.996364879202
 20
157.5761629901822
 30
0.0
 41
0.5
 42
0.5
 43
0.5
  0
INSERT
  5
BB6
330
1F
100
AcDbEntity
  8
4
100
AcDbBlockReference
  2
SUG-AR06
 10
5375.099315286099
 20
168.3506411366403
 30
0.0
 41
0.5
 42
0.5
 43
0.5
  0
INSERT
  5
BB7
330
1F
100
AcDbEntity
  8
4
100
AcDbBlockReference
  2
SUG-AR06
 10
4825.931351011988
 20
98.7114113811841
 30
0.0
  0
INSERT
  5
BB8
330
1F
100
AcDbEntity
  8
4
100
AcDbBlockReference
  2
SUG-AR06
 10
5485.609839529619
 20
473.4950482691593
 30
0.0
  0
INSERT
  5
BB9
330
1F
100
AcDbEntity
  8
4
100
AcDbBlockReference
  2
SUG-AR06
 10
5431.51560149408
 20
376.9852713212484
 30
0.0
 41
0.5
 42
0.5
 43
0.5
  0
INSERT
  5
BBA
330
1F
100
AcDbEntity
  8
4
100
AcDbBlockReference
  2
SUG-AR06
 10
5527.743286373652
 20
334.4880758587259
 30
0.0
 41
0.5
 42
0.5
 43
0.5
  0
TEXT
  5
BBB
330
1F
100
AcDbEntity
  8
S
 62
     6
100
AcDbText
 10
5425.48063028214
 20
299.6942917668542
 30
0.0
 40
1.5
  1

  7
SIMPLEX
100
AcDbText
  0
INSERT
  5
BBC
330
1F
100
AcDbEntity
  8
4
100
AcDbBlockReference
  2
SUG-AR06
 10
5397.804142084911
 20
351.4781924159972
 30
0.0
 41
0.5
 42
0.5
 43
0.5
  0
INSERT
  5
BBD
330
1F
100
AcDbEntity
  8
4
100
AcDbBlockReference
  2
SUG-AR06
 10
5494.031826964484
 20
308.9809969534743
 30
0.0
 41
0.5
 42
0.5
 43
0.5
  0
TEXT
  5
BBE
330
1F
100
AcDbEntity
  8
S
 62
     6
100
AcDbText
 10
5391.76917087297
 20
274.1872128616028
 30
0.0
 40
1.5
  1

  7
SIMPLEX
100
AcDbText
  0
INSERT
  5
BBF
330
1F
100
AcDbEntity
  8
4
100
AcDbBlockReference
  2
SUG-AR06
 10
5404.143435373072
 20
377.7520088897039
 30
0.0
 41
0.5
 42
0.5
 43
0.5
  0
INSERT
  5
BC0
330
1F
100
AcDbEntity
  8
4
100
AcDbBlockReference
  2
SUG-AR06
 10
5500.371120252643
 20
335.2548134271813
 30
0.0
 41
0.5
 42
0.5
 43
0.5
  0
TEXT
  5
BC1
330
1F
100
AcDbEntity
  8
S
 62
     6
100
AcDbText
 10
5398.108464161129
 20
300.4610293353096
 30
0.0
 40
1.5
  1

  7
SIMPLEX
100
AcDbText
  0
INSERT
  5
BC2
330
1F
100
AcDbEntity
  8
4
100
AcDbBlockReference
  2
SUG-AR06
 10
5370.431975963902
 20
352.2449299844526
 30
0.0
 41
0.5
 42
0.5
 43
0.5
  0
INSERT
  5
BC3
330
1F
100
AcDbEntity
  8
4
100
AcDbBlockReference
  2
SUG-AR06
 10
5466.659660843474
 20
309.7477345219298
 30
0.0
 41
0.5
 42
0.5
 43
0.5
  0
TEXT
  5
BC4
330
1F
100
AcDbEntity
  8
S
 62
     6
100
AcDbText
 10
5364.397004751961
 20
274.9539504300583
 30
0.0
 40
1.5
  1

  7
SIMPLEX
100
AcDbText
  0
INSERT
  5
BC5
330
1F
100
AcDbEntity
  8
4
100
AcDbBlockReference
  2
SUG-AR06
 10
5407.609839529619
 20
363.9950482691594
 30
0.0
 41
0.25
 42
0.25
 43
0.25
  0
INSERT
  5
BC6
330
1F
100
AcDbEntity
  8
4
100
AcDbBlockReference
  2
SUG-AR06
 10
5455.723681969406
 20
342.746450537898
 30
0.0
 41
0.25
 42
0.25
 43
0.25
  0
TEXT
  5
BC7
330
1F
100
AcDbEntity
  8
S
 62
     6
100
AcDbText
 10
5404.59235392365
 20
325.3495584919623
 30
0.0
 40
0.75
  1

  7
SIMPLEX
100
AcDbText
  0
INSERT
  5
BC8
330
1F
100
AcDbEntity
  8
4
100
AcDbBlockReference
  2
SUG-AR06
 10
5142.422428914409
 20
132.22328014589
 30
0.0
  0
INSERT
  5
BC9
330
1F
100
AcDbEntity
  8
4
100
AcDbBlockReference
  2
SUG-AR06
 10
5334.877798673553
 20
47.22888922084464
 30
0.0
  0
TEXT
  5
BCA
330
1F
100
AcDbEntity
  8
S
 62
     6
100
AcDbText
 10
5130.352486490528
 20
-22.35867896289844
 30
0.0
 40
3.0
  1

  7
SIMPLEX
100
AcDbText
  0
INSERT
  5
BCB
330
1F
100
AcDbEntity
  8
4
100
AcDbBlockReference
  2
SUG-AR06
 10
5074.999510096072
 20
81.20912233538721
 30
0.0
  0
INSERT
  5
BCC
330
1F
100
AcDbEntity
  8
4
100
AcDbBlockReference
  2
SUG-AR06
 10
5267.454879855215
 20
-3.785268589658158
 30
0.0
  0
TEXT
  5
BCD
330
1F
100
AcDbEntity
  8
S
 62
     6
100
AcDbText
 10
5062.92956767219
 20
-73.37283677340123
 30
0.0
 40
3.0
  1

  7
SIMPLEX
100
AcDbText
  0
INSERT
  5
BCE
330
1F
100
AcDbEntity
  8
4
100
AcDbBlockReference
  2
SUG-AR06
 10
5428.717090236747
 20
-141.9797781840808
 30
0.0
  0
INSERT
  5
BCF
330
1F
100
AcDbEntity
  8
4
100
AcDbBlockReference
  2
SUG-AR06
 10
5621.172459995889
 20
-226.9741691091261
 30
0.0
  0
TEXT
  5
BD0
330
1F
100
AcDbEntity
  8
S
 62
     6
100
AcDbText
 10
5416.647147812867
 20
-296.5617372928692
 30
0.0
 40
3.0
  1

  7
SIMPLEX
100
AcDbText
  0
INSERT
  5
BD1
330
1F
100
AcDbEntity
  8
4
100
AcDbBlockReference
  2
SUG-AR06
 10
5361.294171418409
 20
-192.9939359945836
 30
0.0
  0
INSERT
  5
BD2
330
1F
100
AcDbEntity
  8
4
100
AcDbBlockReference
  2
SUG-AR06
 10
5553.749541177552
 20
-277.988326919629
 30
0.0
  0
TEXT
  5
BD3
330
1F
100
AcDbEntity
  8
S
 62
     6
100
AcDbText
 10
5349.224228994528
 20
-347.5758951033721
 30
0.0
 40
3.0
  1

  7
SIMPLEX
100
AcDbText
  0
INSERT
  5
BD4
330
1F
100
AcDbEntity
  8
4
100
AcDbBlockReference
  2
SUG-AR06
 10
5823.360963566596
 20
-194.7626165766996
 30
0.0
  0
INSERT
  5
BD5
330
1F
100
AcDbEntity
  8
4
100
AcDbBlockReference
  2
SUG-AR06
 10
6015.81633332574
 20
-279.757007501745
 30
0.0
  0
TEXT
  5
BD6
330
1F
100
AcDbEntity
  8
S
 62
     6
100
AcDbText
 10
5811.291021142715
 20
-349.3445756854881
 30
0.0
 40
3.0
  1

  7
SIMPLEX
100
AcDbText
  0
INSERT
  5
BD7
330
1F
100
AcDbEntity
  8
4
100
AcDbBlockReference
  2
SUG-AR06
 10
5755.938044748258
 20
-245.7767743872024
 30
0.0
  0
INSERT
  5
BD8
330
1F
100
AcDbEntity
  8
4
100
AcDbBlockReference
  2
SUG-AR06
 10
5948.393414507401
 20
-330.7711653122477
 30
0.0
  0
TEXT
  5
BD9
330
1F
100
AcDbEntity
  8
S
 62
     6
100
AcDbText
 10
5743.868102324377
 20
-400.3587334959907
 30
0.0
 40
3.0
  1

  7
SIMPLEX
100
AcDbText
  0
INSERT
  5
BDA
330
1F
100
AcDbEntity
  8
4
100
AcDbBlockReference
  2
SUG-AR06
 10
4825.931351011988
 20
98.7114113811841
 30
0.0
  0
INSERT
  5
BDB
330
1F
100
AcDbEntity
  8
4
100
AcDbBlockReference
  2
SUG-AR06
 10
5482.555804730775
 20
-265.9639093442282
 30
0.0
  0
INSERT
  5
BDC
330
1F
100
AcDbEntity
  8
4
100
AcDbBlockReference
  2
SUG-AR06
 10
5675.01117448992
 20
-350.9583002692737
 30
0.0
  0
TEXT
  5
BDD
330
1F
100
AcDbEntity
  8
S
 62
     6
100
AcDbText
 10
5470.485862306896
 20
-420.5458684530166
 30
0.0
 40
3.0
  1

  7
SIMPLEX
100
AcDbText
  0
INSERT
  5
BDE
330
1F
100
AcDbEntity
  8
4
100
AcDbBlockReference
  2
SUG-AR06
 10
5415.132885912439
 20
-316.978067154731
 30
0.0
  0
INSERT
  5
BDF
330
1F
100
AcDbEntity
  8
4
100
AcDbBlockReference
  2
SUG-AR06
 10
5607.588255671583
 20
-401.9724580797761
 30
0.0
  0
TEXT
  5
BE0
330
1F
100
AcDbEntity
  8
S
 62
     6
100
AcDbText
 10
5403.062943488556
 20
-471.5600262635192
 30
0.0
 40
3.0
  1

  7
SIMPLEX
100
AcDbText
  0
INSERT
  5
BE1
330
1F
100
AcDbEntity
  8
4
100
AcDbBlockReference
  2
SUG-AR06
 10
4825.931351011988
 20
98.7114113811841
 30
0.0
  0
INSERT
  5
BE2
330
1F
100
AcDbEntity
  8
4
100
AcDbBlockReference
  2
SUG-AR06
 10
5018.38672077113
 20
13.71702045613872
 30
0.0
  0
TEXT
  5
BE3
330
1F
100
AcDbEntity
  8
S
 62
     6
100
AcDbText
 10
4813.861408588104
 20
-55.87054772760436
 30
0.0
 40
3.0
  1

  7
SIMPLEX
100
AcDbText
  0
INSERT
  5
BE4
330
1F
100
AcDbEntity
  8
4
100
AcDbBlockReference
  2
SUG-AR06
 10
4758.508432193648
 20
47.69725357068132
 30
0.0
  0
INSERT
  5
BE5
330
1F
100
AcDbEntity
  8
4
100
AcDbBlockReference
  2
SUG-AR06
 10
4950.963801952791
 20
-37.29713735436408
 30
0.0
  0
TEXT
  5
BE6
330
1F
100
AcDbEntity
  8
S
 62
     6
100
AcDbText
 10
4746.438489769768
 20
-106.8847055381072
 30
0.0
 40
3.0
  1

  7
SIMPLEX
100
AcDbText
  0
INSERT
  5
BE7
330
1F
100
AcDbEntity
  8
4
100
AcDbBlockReference
  2
SUG-AR06
 10
5027.568878851742
 20
249.482263213556
 30
0.0
  0
INSERT
  5
BE8
330
1F
100
AcDbEntity
  8
4
100
AcDbBlockReference
  2
SUG-AR06
 10
5102.431351011986
 20
270.911411381184
 30
0.0
  0
INSERT
  5
BE9
330
1F
100
AcDbEntity
  8
4
100
AcDbBlockReference
  2
SUG-AR06
 10
5036.108974169323
 20
116.7994425814437
 30
0.0
  0
INSERT
  5
BEA
330
1F
100
AcDbEntity
  8
4
100
AcDbBlockReference
  2
SUG-AR06
 10
5228.564343928464
 20
31.80505165639833
 30
0.0
  0
TEXT
  5
BEB
330
1F
100
AcDbEntity
  8
S
 62
     6
100
AcDbText
 10
5024.039031745441
 20
-37.78251652734478
 30
0.0
 40
3.0
  1

  7
SIMPLEX
100
AcDbText
  0
INSERT
  5
BEC
330
1F
100
AcDbEntity
  8
4
100
AcDbBlockReference
  2
SUG-AR06
 10
4968.686055350985
 20
65.78528477094097
 30
0.0
  0
INSERT
  5
BED
330
1F
100
AcDbEntity
  8
4
100
AcDbBlockReference
  2
SUG-AR06
 10
5161.141425110127
 20
-19.20910615410443
 30
0.0
  0
TEXT
  5
BEE
330
1F
100
AcDbEntity
  8
S
 62
     6
100
AcDbText
 10
4956.616112927104
 20
-88.79667433784751
 30
0.0
 40
3.0
  1

  7
SIMPLEX
100
AcDbText
  0
INSERT
  5
BEF
330
1F
100
AcDbEntity
  8
4
100
AcDbBlockReference
  2
SUG-AR06
 10
4628.907271315833
 20
463.1045771862204
 30
0.0
  0
INSERT
  5
BF0
330
1F
100
AcDbEntity
  8
4
100
AcDbBlockReference
  2
SUG-AR06
 10
4821.362641074976
 20
378.1101862611752
 30
0.0
  0
TEXT
  5
BF1
330
1F
100
AcDbEntity
  8
S
 62
     6
100
AcDbText
 10
4616.837328891952
 20
308.5226180774321
 30
0.0
 40
3.0
  1

  7
SIMPLEX
100
AcDbText
  0
INSERT
  5
BF2
330
1F
100
AcDbEntity
  8
4
100
AcDbBlockReference
  2
SUG-AR06
 10
4561.484352497495
 20
412.0904193757176
 30
0.0
  0
INSERT
  5
BF3
330
1F
100
AcDbEntity
  8
4
100
AcDbBlockReference
  2
SUG-AR06
 10
4753.939722256638
 20
327.0960284506724
 30
0.0
  0
TEXT
  5
BF4
330
1F
100
AcDbEntity
  8
S
 62
     6
100
AcDbText
 10
4549.414410073614
 20
257.5084602669293
 30
0.0
 40
3.0
  1

  7
SIMPLEX
100
AcDbText
  0
INSERT
  5
BF5
330
1F
100
AcDbEntity
  8
4
100
AcDbBlockReference
  2
SUG-AR06
 10
3912.624758748076
 20
37.08595881385672
 30
0.0
  0
INSERT
  5
BF6
330
1F
100
AcDbEntity
  8
4
100
AcDbBlockReference
  2
SUG-AR06
 10
4202.04486215048
 20
114.1706598466889
 30
0.0
  0
INSERT
  5
BF7
330
1F
100
AcDbEntity
  8
4
100
AcDbBlockReference
  2
SUG-AR06
 10
4089.608600767832
 20
74.80325271533783
 30
0.0
  0
INSERT
  5
BF8
330
1F
100
AcDbEntity
  8
4
100
AcDbBlockReference
  2
SUG-AR06
 10
4202.04486215048
 20
114.1706598466889
 30
0.0
 41
0.5
 42
0.5
 43
0.5
  0
INSERT
  5
BF9
330
1F
100
AcDbEntity
  8
4
100
AcDbBlockReference
  2
SUG-AR06
 10
4298.272547030052
 20
71.67346438416618
 30
0.0
 41
0.5
 42
0.5
 43
0.5
  0
TEXT
  5
BFA
330
1F
100
AcDbEntity
  8
S
 62
     6
100
AcDbText
 10
4196.009890938539
 20
36.87968029229465
 30
0.0
 40
1.5
  1

  7
SIMPLEX
100
AcDbText
  0
INSERT
  5
BFB
330
1F
100
AcDbEntity
  8
4
100
AcDbBlockReference
  2
SUG-AR06
 10
4205.838939116262
 20
235.8561746522346
 30
0.0
 41
0.5
 42
0.5
 43
0.5
  0
INSERT
  5
BFC
330
1F
100
AcDbEntity
  8
4
100
AcDbBlockReference
  2
SUG-AR06
 10
4394.144862150479
 20
247.7706598466889
 30
0.0
 41
0.5
 42
0.5
 43
0.5
  0
INSERT
  5
BFD
330
1F
100
AcDbEntity
  8
4
100
AcDbBlockReference
  2
SUG-AR06
 10
4381.873388883898
 20
-292.5032228717143
 30
0.0
  0
INSERT
  5
BFE
330
1F
100
AcDbEntity
  8
4
100
AcDbBlockReference
  2
SUG-AR06
 10
4326.262782600479
 20
-169.366295518079
 30
0.0
  0
INSERT
  5
BFF
330
1F
100
AcDbEntity
  8
4
100
AcDbBlockReference
  2
SUG-AR06
 10
4326.262782600479
 20
-169.366295518079
 30
0.0
 41
0.5
 42
0.5
 43
0.5
  0
INSERT
  5
C00
330
1F
100
AcDbEntity
  8
4
100
AcDbBlockReference
  2
SUG-AR06
 10
4422.490467480049
 20
-211.8634909806015
 30
0.0
 41
0.5
 42
0.5
 43
0.5
  0
TEXT
  5
C01
330
1F
100
AcDbEntity
  8
S
 62
     6
100
AcDbText
 10
4320.227811388538
 20
-246.6572750724732
 30
0.0
 40
1.5
  1

  7
SIMPLEX
100
AcDbText
  0
INSERT
  5
C02
330
1F
100
AcDbEntity
  8
4
100
AcDbBlockReference
  2
SUG-AR06
 10
4482.994763977504
 20
-45.76222454207104
 30
0.0
 41
0.5
 42
0.5
 43
0.5
  0
INSERT
  5
C03
330
1F
100
AcDbEntity
  8
4
100
AcDbBlockReference
  2
SUG-AR06
 10
4518.462782600478
 20
-35.66629551807896
 30
0.0
 41
0.5
 42
0.5
 43
0.5
  0
INSERT
  5
C04
330
1F
100
AcDbEntity
  8
4
100
AcDbBlockReference
  2
SUG-AR06
 10
4563.320200783992
 20
-187.1610594663095
 30
0.0
  0
INSERT
  5
C05
330
1F
100
AcDbEntity
  8
4
100
AcDbBlockReference
  2
SUG-AR06
 10
4450.883939401345
 20
-226.5284665976605
 30
0.0
  0
INSERT
  5
C06
330
1F
100
AcDbEntity
  8
4
100
AcDbBlockReference
  2
SUG-AR06
 10
4563.320200783992
 20
-187.1610594663095
 30
0.0
 41
0.5
 42
0.5
 43
0.5
  0
INSERT
  5
C07
330
1F
100
AcDbEntity
  8
4
100
AcDbBlockReference
  2
SUG-AR06
 10
4659.547885663563
 20
-229.6582549288321
 30
0.0
 41
0.5
 42
0.5
 43
0.5
  0
TEXT
  5
C08
330
1F
100
AcDbEntity
  8
S
 62
     6
100
AcDbText
 10
4557.28522957205
 20
-264.4520390207037
 30
0.0
 40
1.5
  1

  7
SIMPLEX
100
AcDbText
  0
INSERT
  5
C09
330
1F
100
AcDbEntity
  8
4
100
AcDbBlockReference
  2
SUG-AR06
 10
4567.114277749776
 20
-65.4755446607638
 30
0.0
 41
0.5
 42
0.5
 43
0.5
  0
INSERT
  5
C0A
330
1F
100
AcDbEntity
  8
4
100
AcDbBlockReference
  2
SUG-AR06
 10
4755.420200783991
 20
-53.5610594663095
 30
0.0
 41
0.5
 42
0.5
 43
0.5
  0
INSERT
  5
C0B
330
1F
100
AcDbEntity
  8
4
100
AcDbBlockReference
  2
SUG-AR06
 10
4447.630253140727
 20
-225.4707605865052
 30
0.0
  0
INSERT
  5
C0C
330
1F
100
AcDbEntity
  8
4
100
AcDbBlockReference
  2
SUG-AR06
 10
4447.630253140727
 20
-225.4707605865052
 30
0.0
 41
0.1999999999999886
 42
0.2000000000000028
 43
0.2
  0
INSERT
  5
C0D
330
1F
100
AcDbEntity
  8
4
100
AcDbBlockReference
  2
SUG-AR06
 10
4486.121327092553
 20
-242.4696387715142
 30
0.0
 41
0.1999999999999886
 42
0.2000000000000028
 43
0.2
  0
TEXT
  5
C0E
330
1F
100
AcDbEntity
  8
S
 62
     6
100
AcDbText
 10
4445.216264655949
 20
-256.3871524082628
 30
0.0
 40
0.6000000000000001
  1

  7
SIMPLEX
100
AcDbText
  0
INSERT
  5
C0F
330
1F
100
AcDbEntity
  8
4
100
AcDbBlockReference
  2
SUG-AR06
 10
4434.145669377058
 20
-235.6735921486057
 30
0.0
 41
0.1999999999999886
 42
0.2000000000000028
 43
0.2
  0
INSERT
  5
C10
330
1F
100
AcDbEntity
  8
4
100
AcDbBlockReference
  2
SUG-AR06
 10
4472.636743328886
 20
-252.6724703336147
 30
0.0
 41
0.1999999999999886
 42
0.2000000000000028
 43
0.2
  0
TEXT
  5
C11
330
1F
100
AcDbEntity
  8
S
 62
     6
100
AcDbText
 10
4431.731680892283
 20
-266.5899839703633
 30
0.0
 40
0.6000000000000001
  1

  7
SIMPLEX
100
AcDbText
  0
TEXT
  5
C12
330
1F
100
AcDbEntity
  8
W
 62
     6
100
AcDbText
 10
4484.530253140727
 20
-221.1907605865051
 30
0.0
 40
0.6000000000000001
  1
　
 41
0.7
  7
SIMPLEX
100
AcDbText
  0
TEXT
  5
C13
330
1F
100
AcDbEntity
  8
W
 62
     6
100
AcDbText
 10
4484.530253140727
 20
-221.9707605865052
 30
0.0
 40
0.6000000000000001
  1

 41
0.7
  7
SIMPLEX
100
AcDbText
  0
INSERT
  5
C14
330
1F
100
AcDbEntity
  8
4
100
AcDbBlockReference
  2
SUG-AR06
 10
4487.830253140725
 20
-195.1707605865051
 30
0.0
 41
0.1999999999999886
 42
0.2000000000000028
 43
0.2
  0
INSERT
  5
C15
330
1F
100
AcDbEntity
  8
4
100
AcDbBlockReference
  2
SUG-AR06
 10
4502.870253140725
 20
-191.0307605865051
 30
0.0
 41
0.1999999999999886
 42
0.2000000000000028
 43
0.2
  0
INSERT
  5
C16
330
1F
100
AcDbEntity
  8
4
100
AcDbBlockReference
  2
SUG-AR06
 10
4517.611103520112
 20
-253.6493367214871
 30
0.0
  0
INSERT
  5
C17
330
1F
100
AcDbEntity
  8
4
100
AcDbBlockReference
  2
SUG-AR06
 10
4517.611103520112
 20
-253.6493367214871
 30
0.0
 41
0.1999999999999886
 42
0.2000000000000028
 43
0.2
  0
INSERT
  5
C18
330
1F
100
AcDbEntity
  8
4
100
AcDbBlockReference
  2
SUG-AR06
 10
4556.102177471939
 20
-270.6482149064962
 30
0.0
 41
0.1999999999999886
 42
0.2000000000000028
 43
0.2
  0
TEXT
  5
C19
330
1F
100
AcDbEntity
  8
S
 62
     6
100
AcDbText
 10
4515.197115035333
 20
-284.5657285432448
 30
0.0
 40
0.6000000000000001
  1

  7
SIMPLEX
100
AcDbText
  0
INSERT
  5
C1A
330
1F
100
AcDbEntity
  8
4
100
AcDbBlockReference
  2
SUG-AR06
 10
4504.126519756444
 20
-263.8521682835877
 30
0.0
 41
0.1999999999999886
 42
0.2000000000000028
 43
0.2
  0
INSERT
  5
C1B
330
1F
100
AcDbEntity
  8
4
100
AcDbBlockReference
  2
SUG-AR06
 10
4542.61759370827
 20
-280.8510464685968
 30
0.0
 41
0.1999999999999886
 42
0.2000000000000028
 43
0.2
  0
TEXT
  5
C1C
330
1F
100
AcDbEntity
  8
S
 62
     6
100
AcDbText
 10
4501.712531271667
 20
-294.7685601053454
 30
0.0
 40
0.6000000000000001
  1

  7
SIMPLEX
100
AcDbText
  0
INSERT
  5
C1D
330
1F
100
AcDbEntity
  8
4
100
AcDbBlockReference
  2
SUG-AR06
 10
4558.242803744619
 20
-223.1032517041565
 30
0.0
 41
0.1999999999999886
 42
0.2000000000000028
 43
0.2
  0
INSERT
  5
C1E
330
1F
100
AcDbEntity
  8
4
100
AcDbBlockReference
  2
SUG-AR06
 10
4572.611103520112
 20
-219.2493367214872
 30
0.0
 41
0.1999999999999886
 42
0.2000000000000028
 43
0.2
  0
INSERT
  5
C1F
330
1F
100
AcDbEntity
  8
4
100
AcDbBlockReference
  2
SUG-AR06
 10
4604.894653692706
 20
-266.715652808863
 30
0.0
  0
INSERT
  5
C20
330
1F
100
AcDbEntity
  8
4
100
AcDbBlockReference
  2
SUG-AR06
 10
4475.823823844112
 20
-380.0598731206079
 30
0.0
  0
INSERT
  5
C21
330
1F
100
AcDbEntity
  8
4
100
AcDbBlockReference
  2
SUG-AR06
 10
5135.502312361745
 20
-5.27623623263284
 30
0.0
  0
INSERT
  5
C22
330
1F
100
AcDbEntity
  8
4
100
AcDbBlockReference
  2
SUG-AR06
 10
5081.408074326206
 20
-101.7860131805436
 30
0.0
 41
0.5
 42
0.5
 43
0.5
  0
INSERT
  5
C23
330
1F
100
AcDbEntity
  8
4
100
AcDbBlockReference
  2
SUG-AR06
 10
5177.635759205776
 20
-144.2832086430664
 30
0.0
 41
0.5
 42
0.5
 43
0.5
  0
TEXT
  5
C24
330
1F
100
AcDbEntity
  8
S
 62
     6
100
AcDbText
 10
5075.373103114265
 20
-179.0769927349379
 30
0.0
 40
1.5
  1

  7
SIMPLEX
100
AcDbText
  0
INSERT
  5
C25
330
1F
100
AcDbEntity
  8
4
100
AcDbBlockReference
  2
SUG-AR06
 10
5047.696614917036
 20
-127.2930920857951
 30
0.0
 41
0.5
 42
0.5
 43
0.5
  0
INSERT
  5
C26
330
1F
100
AcDbEntity
  8
4
100
AcDbBlockReference
  2
SUG-AR06
 10
5143.924299796609
 20
-169.7902875483177
 30
0.0
 41
0.5
 42
0.5
 43
0.5
  0
TEXT
  5
C27
330
1F
100
AcDbEntity
  8
S
 62
     6
100
AcDbText
 10
5041.661643705096
 20
-204.5840716401893
 30
0.0
 40
1.5
  1

  7
SIMPLEX
100
AcDbText
  0
INSERT
  5
C28
330
1F
100
AcDbEntity
  8
4
100
AcDbBlockReference
  2
SUG-AR06
 10
5054.035908205197
 20
-101.0192756120882
 30
0.0
 41
0.5
 42
0.5
 43
0.5
  0
INSERT
  5
C29
330
1F
100
AcDbEntity
  8
4
100
AcDbBlockReference
  2
SUG-AR06
 10
5150.263593084768
 20
-143.5164710746109
 30
0.0
 41
0.5
 42
0.5
 43
0.5
  0
TEXT
  5
C2A
330
1F
100
AcDbEntity
  8
S
 62
     6
100
AcDbText
 10
5048.000936993256
 20
-178.3102551664825
 30
0.0
 40
1.5
  1

  7
SIMPLEX
100
AcDbText
  0
INSERT
  5
C2B
330
1F
100
AcDbEntity
  8
4
100
AcDbBlockReference
  2
SUG-AR06
 10
5020.324448796028
 20
-126.5263545173396
 30
0.0
 41
0.5
 42
0.5
 43
0.5
  0
INSERT
  5
C2C
330
1F
100
AcDbEntity
  8
4
100
AcDbBlockReference
  2
SUG-AR06
 10
5116.552133675599
 20
-169.0235499798622
 30
0.0
 41
0.5
 42
0.5
 43
0.5
  0
TEXT
  5
C2D
330
1F
100
AcDbEntity
  8
S
 62
     6
100
AcDbText
 10
5014.289477584087
 20
-203.8173340717338
 30
0.0
 40
1.5
  1

  7
SIMPLEX
100
AcDbText
  0
INSERT
  5
C2E
330
1F
100
AcDbEntity
  8
4
100
AcDbBlockReference
  2
SUG-AR06
 10
5057.502312361744
 20
-114.7762362326328
 30
0.0
 41
0.25
 42
0.25
 43
0.25
  0
INSERT
  5
C2F
330
1F
100
AcDbEntity
  8
4
100
AcDbBlockReference
  2
SUG-AR06
 10
5105.61615480153
 20
-136.0248339638941
 30
0.0
 41
0.25
 42
0.25
 43
0.25
  0
TEXT
  5
C30
330
1F
100
AcDbEntity
  8
S
 62
     6
100
AcDbText
 10
5054.484826755775
 20
-153.4217260098299
 30
0.0
 40
0.75
  1

  7
SIMPLEX
100
AcDbText
  0
INSERT
  5
C31
330
1F
100
AcDbEntity
  8
4
100
AcDbBlockReference
  2
SUG-AR06
 10
4792.314901746535
 20
-346.5480043559022
 30
0.0
  0
INSERT
  5
C32
330
1F
100
AcDbEntity
  8
4
100
AcDbBlockReference
  2
SUG-AR06
 10
4984.770271505678
 20
-431.5423952809473
 30
0.0
  0
TEXT
  5
C33
330
1F
100
AcDbEntity
  8
S
 62
     6
100
AcDbText
 10
4780.244959322653
 20
-501.1299634646904
 30
0.0
 40
3.0
  1

  7
SIMPLEX
100
AcDbText
  0
INSERT
  5
C34
330
1F
100
AcDbEntity
  8
4
100
AcDbBlockReference
  2
SUG-AR06
 10
4724.891982928197
 20
-397.5621621664048
 30
0.0
  0
INSERT
  5
C35
330
1F
100
AcDbEntity
  8
4
100
AcDbBlockReference
  2
SUG-AR06
 10
4917.347352687341
 20
-482.5565530914501
 30
0.0
  0
TEXT
  5
C36
330
1F
100
AcDbEntity
  8
S
 62
     6
100
AcDbText
 10
4712.822040504316
 20
-552.1441212751933
 30
0.0
 40
3.0
  1

  7
SIMPLEX
100
AcDbText
  0
INSERT
  5
C37
330
1F
100
AcDbEntity
  8
4
100
AcDbBlockReference
  2
SUG-AR06
 10
5078.609563068873
 20
-620.7510626858727
 30
0.0
  0
INSERT
  5
C38
330
1F
100
AcDbEntity
  8
4
100
AcDbBlockReference
  2
SUG-AR06
 10
5271.064932828016
 20
-705.7454536109182
 30
0.0
  0
TEXT
  5
C39
330
1F
100
AcDbEntity
  8
S
 62
     6
100
AcDbText
 10
5066.539620644991
 20
-775.3330217946612
 30
0.0
 40
3.0
  1

  7
SIMPLEX
100
AcDbText
  0
INSERT
  5
C3A
330
1F
100
AcDbEntity
  8
4
100
AcDbBlockReference
  2
SUG-AR06
 10
5011.186644250535
 20
-671.7652204963756
 30
0.0
  0
INSERT
  5
C3B
330
1F
100
AcDbEntity
  8
4
100
AcDbBlockReference
  2
SUG-AR06
 10
5203.642014009677
 20
-756.759611421421
 30
0.0
  0
TEXT
  5
C3C
330
1F
100
AcDbEntity
  8
S
 62
     6
100
AcDbText
 10
4999.116701826654
 20
-826.3471796051639
 30
0.0
 40
3.0
  1

  7
SIMPLEX
100
AcDbText
  0
INSERT
  5
C3D
330
1F
100
AcDbEntity
  8
4
100
AcDbBlockReference
  2
SUG-AR06
 10
5473.253436398721
 20
-673.5339010784915
 30
0.0
  0
INSERT
  5
C3E
330
1F
100
AcDbEntity
  8
4
100
AcDbBlockReference
  2
SUG-AR06
 10
5665.708806157866
 20
-758.5282920035369
 30
0.0
  0
TEXT
  5
C3F
330
1F
100
AcDbEntity
  8
S
 62
     6
100
AcDbText
 10
5461.18349397484
 20
-828.11586018728
 30
0.0
 40
3.0
  1

  7
SIMPLEX
100
AcDbText
  0
INSERT
  5
C40
330
1F
100
AcDbEntity
  8
4
100
AcDbBlockReference
  2
SUG-AR06
 10
5405.830517580383
 20
-724.5480588889944
 30
0.0
  0
INSERT
  5
C41
330
1F
100
AcDbEntity
  8
4
100
AcDbBlockReference
  2
SUG-AR06
 10
5598.285887339528
 20
-809.5424498140395
 30
0.0
  0
TEXT
  5
C42
330
1F
100
AcDbEntity
  8
S
 62
     6
100
AcDbText
 10
5393.760575156502
 20
-879.1300179977829
 30
0.0
 40
3.0
  1

  7
SIMPLEX
100
AcDbText
  0
INSERT
  5
C43
330
1F
100
AcDbEntity
  8
4
100
AcDbBlockReference
  2
SUG-AR06
 10
4475.823823844112
 20
-380.0598731206079
 30
0.0
  0
INSERT
  5
C44
330
1F
100
AcDbEntity
  8
4
100
AcDbBlockReference
  2
SUG-AR06
 10
5132.448277562902
 20
-744.7351938460204
 30
0.0
  0
INSERT
  5
C45
330
1F
100
AcDbEntity
  8
4
100
AcDbBlockReference
  2
SUG-AR06
 10
5324.903647322045
 20
-829.7295847710657
 30
0.0
  0
TEXT
  5
C46
330
1F
100
AcDbEntity
  8
S
 62
     6
100
AcDbText
 10
5120.378335139021
 20
-899.317152954809
 30
0.0
 40
3.0
  1

  7
SIMPLEX
100
AcDbText
  0
INSERT
  5
C47
330
1F
100
AcDbEntity
  8
4
100
AcDbBlockReference
  2
SUG-AR06
 10
5065.025358744564
 20
-795.7493516565232
 30
0.0
  0
INSERT
  5
C48
330
1F
100
AcDbEntity
  8
4
100
AcDbBlockReference
  2
SUG-AR06
 10
5257.480728503706
 20
-880.7437425815683
 30
0.0
  0
TEXT
  5
C49
330
1F
100
AcDbEntity
  8
S
 62
     6
100
AcDbText
 10
5052.955416320683
 20
-950.3313107653116
 30
0.0
 40
3.0
  1

  7
SIMPLEX
100
AcDbText
  0
INSERT
  5
C4A
330
1F
100
AcDbEntity
  8
4
100
AcDbBlockReference
  2
SUG-AR06
 10
4475.823823844112
 20
-380.0598731206079
 30
0.0
  0
INSERT
  5
C4B
330
1F
100
AcDbEntity
  8
4
100
AcDbBlockReference
  2
SUG-AR06
 10
4668.279193603257
 20
-465.0542640456533
 30
0.0
  0
TEXT
  5
C4C
330
1F
100
AcDbEntity
  8
S
 62
     6
100
AcDbText
 10
4463.75388142023
 20
-534.6418322293962
 30
0.0
 40
3.0
  1

  7
SIMPLEX
100
AcDbText
  0
INSERT
  5
C4D
330
1F
100
AcDbEntity
  8
4
100
AcDbBlockReference
  2
SUG-AR06
 10
4408.400905025774
 20
-431.0740309311107
 30
0.0
  0
INSERT
  5
C4E
330
1F
100
AcDbEntity
  8
4
100
AcDbBlockReference
  2
SUG-AR06
 10
4600.856274784917
 20
-516.0684218561562
 30
0.0
  0
TEXT
  5
C4F
330
1F
100
AcDbEntity
  8
S
 62
     6
100
AcDbText
 10
4396.330962601893
 20
-585.6559900398991
 30
0.0
 40
3.0
  1

  7
SIMPLEX
100
AcDbText
  0
INSERT
  5
C50
330
1F
100
AcDbEntity
  8
4
100
AcDbBlockReference
  2
SUG-AR06
 10
4204.055275755918
 20
-332.9328087906725
 30
0.0
  0
INSERT
  5
C51
330
1F
100
AcDbEntity
  8
4
100
AcDbBlockReference
  2
SUG-AR06
 10
4091.619014373271
 20
-372.3002159220234
 30
0.0
  0
INSERT
  5
C52
330
1F
100
AcDbEntity
  8
4
100
AcDbBlockReference
  2
SUG-AR06
 10
4204.055275755918
 20
-332.9328087906725
 30
0.0
 41
0.5
 42
0.5
 43
0.5
  0
INSERT
  5
C53
330
1F
100
AcDbEntity
  8
4
100
AcDbBlockReference
  2
SUG-AR06
 10
4300.28296063549
 20
-375.4300042531952
 30
0.0
 41
0.5
 42
0.5
 43
0.5
  0
TEXT
  5
C54
330
1F
100
AcDbEntity
  8
S
 62
     6
100
AcDbText
 10
4198.020304543979
 20
-410.2237883450666
 30
0.0
 40
1.5
  1

  7
SIMPLEX
100
AcDbText
  0
INSERT
  5
C55
330
1F
100
AcDbEntity
  8
4
100
AcDbBlockReference
  2
SUG-AR06
 10
4170.343816346749
 20
-358.4398876959239
 30
0.0
 41
0.5
 42
0.5
 43
0.5
  0
INSERT
  5
C56
330
1F
100
AcDbEntity
  8
4
100
AcDbBlockReference
  2
SUG-AR06
 10
4266.571501226319
 20
-400.9370831584463
 30
0.0
 41
0.5
 42
0.5
 43
0.5
  0
TEXT
  5
C57
330
1F
100
AcDbEntity
  8
S
 62
     6
100
AcDbText
 10
4164.308845134807
 20
-435.7308672503179
 30
0.0
 40
1.5
  1

  7
SIMPLEX
100
AcDbText
  0
INSERT
  5
C58
330
1F
100
AcDbEntity
  8
4
100
AcDbBlockReference
  2
SUG-AR06
 10
4204.055275755918
 20
-332.9328087906725
 30
0.0
 41
0.5
 42
0.5
 43
0.5
  0
INSERT
  5
C59
330
1F
100
AcDbEntity
  8
4
100
AcDbBlockReference
  2
SUG-AR06
 10
4300.28296063549
 20
-375.4300042531952
 30
0.0
 41
0.5
 42
0.5
 43
0.5
  0
TEXT
  5
C5A
330
1F
100
AcDbEntity
  8
S
 62
     6
100
AcDbText
 10
4198.020304543979
 20
-410.2237883450666
 30
0.0
 40
1.5
  1

  7
SIMPLEX
100
AcDbText
  0
INSERT
  5
C5B
330
1F
100
AcDbEntity
  8
4
100
AcDbBlockReference
  2
SUG-AR06
 10
4170.343816346749
 20
-358.4398876959239
 30
0.0
 41
0.5
 42
0.5
 43
0.5
  0
INSERT
  5
C5C
330
1F
100
AcDbEntity
  8
4
100
AcDbBlockReference
  2
SUG-AR06
 10
4266.571501226319
 20
-400.9370831584463
 30
0.0
 41
0.5
 42
0.5
 43
0.5
  0
TEXT
  5
C5D
330
1F
100
AcDbEntity
  8
S
 62
     6
100
AcDbText
 10
4164.308845134807
 20
-435.7308672503179
 30
0.0
 40
1.5
  1

  7
SIMPLEX
100
AcDbText
  0
INSERT
  5
C5E
330
1F
100
AcDbEntity
  8
4
100
AcDbBlockReference
  2
SUG-AR06
 10
4483.103425972912
 20
-215.8606583238737
 30
0.0
 41
0.5
 42
0.5
 43
0.5
  0
INSERT
  5
C5F
330
1F
100
AcDbEntity
  8
4
100
AcDbBlockReference
  2
SUG-AR06
 10
4347.473388883897
 20
-103.0032228717144
 30
0.0
 41
0.5
 42
0.5
 43
0.5
  0
INSERT
  5
C60
330
1F
100
AcDbEntity
  8
4
100
AcDbBlockReference
  2
SUG-AR06
 10
4414.215194700175
 20
109.3826176001659
 30
0.0
  0
INSERT
  5
C61
330
1F
100
AcDbEntity
  8
4
100
AcDbBlockReference
  2
SUG-AR06
 10
4414.215194700175
 20
109.3826176001659
 30
0.0
 41
0.5
 42
0.5
 43
0.5
  0
INSERT
  5
C62
330
1F
100
AcDbEntity
  8
4
100
AcDbBlockReference
  2
SUG-AR06
 10
4510.442879579747
 20
66.8854221376432
 30
0.0
 41
0.5
 42
0.5
 43
0.5
  0
TEXT
  5
C63
330
1F
100
AcDbEntity
  8
S
 62
     6
100
AcDbText
 10
4408.180223488236
 20
32.09163804577166
 30
0.0
 40
1.5
  1

  7
SIMPLEX
100
AcDbText
  0
INSERT
  5
C64
330
1F
100
AcDbEntity
  8
4
100
AcDbBlockReference
  2
SUG-AR06
 10
4570.947176077203
 20
232.9866885761739
 30
0.0
 41
0.5
 42
0.5
 43
0.5
  0
INSERT
  5
C65
330
1F
100
AcDbEntity
  8
4
100
AcDbBlockReference
  2
SUG-AR06
 10
4606.415194700177
 20
243.0826176001659
 30
0.0
 41
0.5
 42
0.5
 43
0.5
  0
INSERT
  5
C66
330
1F
100
AcDbEntity
  8
4
100
AcDbBlockReference
  2
SUG-AR06
 10
4300.01523034815
 20
113.4132047582255
 30
0.0
 41
0.7910290991654563
 42
0.7910290991654492
 43
0.7910290991654499
  0
INSERT
  5
C67
330
1F
100
AcDbEntity
  8
4
100
AcDbBlockReference
  2
SUG-AR06
 10
4316.42586428262
 20
-7.985563877296129
 30
0.0
  0
INSERT
  5
C68
330
1F
100
AcDbEntity
  8
4
100
AcDbBlockReference
  2
SUG-AR06
 10
4316.42586428262
 20
-7.985563877296129
 30
0.0
 41
0.1999999999999886
 42
0.2000000000000028
 43
0.2
  0
INSERT
  5
C69
330
1F
100
AcDbEntity
  8
4
100
AcDbBlockReference
  2
SUG-AR06
 10
4354.91693823445
 20
-24.98444206230519
 30
0.0
 41
0.1999999999999886
 42
0.2000000000000028
 43
0.2
  0
TEXT
  5
C6A
330
1F
100
AcDbEntity
  8
S
 62
     6
100
AcDbText
 10
4314.011875797845
 20
-38.9019556990539
 30
0.0
 40
0.6000000000000001
  1

  7
SIMPLEX
100
AcDbText
  0
INSERT
  5
C6B
330
1F
100
AcDbEntity
  8
4
100
AcDbBlockReference
  2
SUG-AR06
 10
4302.941280518953
 20
-18.18839543939666
 30
0.0
 41
0.1999999999999886
 42
0.2000000000000028
 43
0.2
  0
INSERT
  5
C6C
330
1F
100
AcDbEntity
  8
4
100
AcDbBlockReference
  2
SUG-AR06
 10
4341.432354470781
 20
-35.18727362440583
 30
0.0
 41
0.1999999999999886
 42
0.2000000000000028
 43
0.2
  0
TEXT
  5
C6D
330
1F
100
AcDbEntity
  8
S
 62
     6
100
AcDbText
 10
4300.527292034177
 20
-49.10478726115442
 30
0.0
 40
0.6000000000000001
  1

  7
SIMPLEX
100
AcDbText
  0
INSERT
  5
C6E
330
1F
100
AcDbEntity
  8
4
100
AcDbBlockReference
  2
SUG-AR06
 10
4357.057564507129
 20
22.56052114003448
 30
0.0
 41
0.1999999999999886
 42
0.2000000000000028
 43
0.2
  0
INSERT
  5
C6F
330
1F
100
AcDbEntity
  8
4
100
AcDbBlockReference
  2
SUG-AR06
 10
4371.42586428262
 20
26.41443612270386
 30
0.0
 41
0.1999999999999886
 42
0.2000000000000028
 43
0.2
  0
INSERT
  5
C70
330
1F
100
AcDbEntity
  8
4
100
AcDbBlockReference
  2
SUG-AR06
 10
4333.719025694487
 20
-8.31591433366745
 30
0.0
 41
0.3034390948507166
 42
0.3034390948507095
 43
0.3034390948507116
  0
INSERT
  5
C71
330
1F
100
AcDbEntity
  8
4
100
AcDbBlockReference
  2
SUG-AR06
 10
4421.079089701303
 20
-164.8926993162726
 30
0.0
  0
INSERT
  5
C72
330
1F
100
AcDbEntity
  8
4
100
AcDbBlockReference
  2
SUG-AR06
 10
4421.079089701303
 20
-164.8926993162726
 30
0.0
 41
0.1999999999999886
 42
0.2000000000000028
 43
0.2
  0
INSERT
  5
C73
330
1F
100
AcDbEntity
  8
4
100
AcDbBlockReference
  2
SUG-AR06
 10
4459.570163653132
 20
-181.8915775012817
 30
0.0
 41
0.1999999999999886
 42
0.2000000000000028
 43
0.2
  0
TEXT
  5
C74
330
1F
100
AcDbEntity
  8
S
 62
     6
100
AcDbText
 10
4418.665101216528
 20
-195.8090911380304
 30
0.0
 40
0.6000000000000001
  1

  7
SIMPLEX
100
AcDbText
  0
INSERT
  5
C75
330
1F
100
AcDbEntity
  8
4
100
AcDbBlockReference
  2
SUG-AR06
 10
4481.946239889226
 20
-115.952419283984
 30
0.0
 41
0.1999999999999886
 42
0.2000000000000028
 43
0.2
  0
INSERT
  5
C76
330
1F
100
AcDbEntity
  8
4
100
AcDbBlockReference
  2
SUG-AR06
 10
4497.919089701303
 20
-111.4526993162727
 30
0.0
 41
0.1999999999999886
 42
0.2000000000000028
 43
0.2
  0
INSERT
  5
C77
330
1F
100
AcDbEntity
  8
4
100
AcDbBlockReference
  2
SUG-AR06
 10
4421.079089701303
 20
-164.8926993162726
 30
0.0
 41
0.1999999999999886
 42
0.2000000000000028
 43
0.2
  0
INSERT
  5
C78
330
1F
100
AcDbEntity
  8
4
100
AcDbBlockReference
  2
SUG-AR06
 10
4459.570163653132
 20
-181.8915775012817
 30
0.0
 41
0.1999999999999886
 42
0.2000000000000028
 43
0.2
  0
TEXT
  5
C79
330
1F
100
AcDbEntity
  8
S
 62
     6
100
AcDbText
 10
4418.665101216528
 20
-195.8090911380304
 30
0.0
 40
0.6000000000000001
  1

  7
SIMPLEX
100
AcDbText
  0
INSERT
  5
C7A
330
1F
100
AcDbEntity
  8
4
100
AcDbBlockReference
  2
SUG-AR06
 10
4407.594505937634
 20
-175.0955308783731
 30
0.0
 41
0.1999999999999886
 42
0.2000000000000028
 43
0.2
  0
INSERT
  5
C7B
330
1F
100
AcDbEntity
  8
4
100
AcDbBlockReference
  2
SUG-AR06
 10
4446.085579889465
 20
-192.0944090633823
 30
0.0
 41
0.1999999999999886
 42
0.2000000000000028
 43
0.2
  0
TEXT
  5
C7C
330
1F
100
AcDbEntity
  8
S
 62
     6
100
AcDbText
 10
4405.18051745286
 20
-206.0119227001309
 30
0.0
 40
0.6000000000000001
  1

  7
SIMPLEX
100
AcDbText
  0
INSERT
  5
C7D
330
1F
100
AcDbEntity
  8
4
100
AcDbBlockReference
  2
SUG-AR06
 10
4423.214921924993
 20
-156.9188127481977
 30
0.0
 41
0.1999999999999886
 42
0.2000000000000028
 43
0.2
  0
INSERT
  5
C7E
330
1F
100
AcDbEntity
  8
4
100
AcDbBlockReference
  2
SUG-AR06
 10
4476.319089701301
 20
-130.4526993162727
 30
0.0
 41
0.1999999999999886
 42
0.2000000000000028
 43
0.2
  0
INSERT
  5
C7F
330
1F
100
AcDbEntity
  8
4
100
AcDbBlockReference
  2
SUG-AR06
 10
4532.292691490641
 20
-40.11247814128315
 30
0.0
  0
INSERT
  5
C80
330
1F
100
AcDbEntity
  8
4
100
AcDbBlockReference
  2
SUG-AR06
 10
4426.501226086715
 20
55.72762857961104
 30
0.0
  0
INSERT
  5
C81
330
1F
100
AcDbEntity
  8
4
100
AcDbBlockReference
  2
SUG-AR06
 10
4426.501226086715
 20
55.72762857961104
 30
0.0
 41
0.1999999999999886
 42
0.2000000000000028
 43
0.2
  0
INSERT
  5
C82
330
1F
100
AcDbEntity
  8
4
100
AcDbBlockReference
  2
SUG-AR06
 10
4464.992300038543
 20
38.72875039460196
 30
0.0
 41
0.1999999999999886
 42
0.2000000000000028
 43
0.2
  0
TEXT
  5
C83
330
1F
100
AcDbEntity
  8
S
 62
     6
100
AcDbText
 10
4424.08723760194
 20
24.81123675785334
 30
0.0
 40
0.6000000000000001
  1

  7
SIMPLEX
100
AcDbText
  0
INSERT
  5
C84
330
1F
100
AcDbEntity
  8
4
100
AcDbBlockReference
  2
SUG-AR06
 10
4413.016642323047
 20
45.52479701751045
 30
0.0
 41
0.1999999999999886
 42
0.2000000000000028
 43
0.2
  0
INSERT
  5
C85
330
1F
100
AcDbEntity
  8
4
100
AcDbBlockReference
  2
SUG-AR06
 10
4451.507716274877
 20
28.5259188325014
 30
0.0
 41
0.1999999999999886
 42
0.2000000000000028
 43
0.2
  0
TEXT
  5
C86
330
1F
100
AcDbEntity
  8
S
 62
     6
100
AcDbText
 10
4410.602653838272
 20
14.60840519575281
 30
0.0
 40
0.6000000000000001
  1

  7
SIMPLEX
100
AcDbText
  0
TEXT
  5
C87
330
1F
100
AcDbEntity
  8
W
 62
     6
100
AcDbText
 10
4463.401226086715
 20
60.00762857961102
 30
0.0
 40
0.6000000000000001
  1
　
 41
0.7
  7
SIMPLEX
100
AcDbText
  0
TEXT
  5
C88
330
1F
100
AcDbEntity
  8
W
 62
     6
100
AcDbText
 10
4463.401226086715
 20
59.22762857961104
 30
0.0
 40
0.6000000000000001
  1

 41
0.7
  7
SIMPLEX
100
AcDbText
  0
INSERT
  5
C89
330
1F
100
AcDbEntity
  8
4
100
AcDbBlockReference
  2
SUG-AR06
 10
4466.701226086716
 20
86.02762857961101
 30
0.0
 41
0.1999999999999886
 42
0.2000000000000028
 43
0.2
  0
INSERT
  5
C8A
330
1F
100
AcDbEntity
  8
4
100
AcDbBlockReference
  2
SUG-AR06
 10
4481.741226086715
 20
90.16762857961102
 30
0.0
 41
0.1999999999999886
 42
0.2000000000000028
 43
0.2
  0
INSERT
  5
C8B
330
1F
100
AcDbEntity
  8
4
100
AcDbBlockReference
  2
SUG-AR06
 10
4443.963178776487
 20
55.7505191683456
 30
0.0
 41
0.2765862390336053
 42
0.2765862390335911
 43
0.276586239033594
  0
INSERT
  5
C8C
330
1F
100
AcDbEntity
  8
4
100
AcDbBlockReference
  2
SUG-AR06
 10
4791.049377878607
 20
-11.80600046715253
 30
0.0
  0
INSERT
  5
C8D
330
1F
100
AcDbEntity
  8
4
100
AcDbBlockReference
  2
SUG-AR06
 10
3157.797275690602
 20
-302.6337942559479
 30
0.0
  0
INSERT
  5
C8E
330
1F
100
AcDbEntity
  8
4
100
AcDbBlockReference
  2
SUG-AR06
 10
3350.252645449745
 20
-387.6281851809932
 30
0.0
  0
TEXT
  5
C8F
330
1F
100
AcDbEntity
  8
S
 62
     6
100
AcDbText
 10
3145.727333266722
 20
-457.2157533647363
 30
0.0
 40
3.0
  1

  7
SIMPLEX
100
AcDbText
  0
INSERT
  5
C90
330
1F
100
AcDbEntity
  8
4
100
AcDbBlockReference
  2
SUG-AR06
 10
3456.839745258137
 20
542.3848690812888
 30
0.0
  0
INSERT
  5
C91
330
1F
100
AcDbEntity
  8
4
100
AcDbBlockReference
  2
SUG-AR06
 10
3146.081159872081
 20
292.0989236420463
 30
0.0
  0
INSERT
  5
C92
330
1F
100
AcDbEntity
  8
4
100
AcDbBlockReference
  2
SUG-AR06
 10
3338.536529631222
 20
207.1045327170009
 30
0.0
  0
TEXT
  5
C93
330
1F
100
AcDbEntity
  8
S
 62
     6
100
AcDbText
 10
3134.011217448199
 20
137.5169645332578
 30
0.0
 40
3.0
  1

  7
SIMPLEX
100
AcDbText
  0
INSERT
  5
C94
330
1F
100
AcDbEntity
  8
4
100
AcDbBlockReference
  2
SUG-AR06
 10
3530.28115987208
 20
559.2989236420463
 30
0.0
  0
INSERT
  5
C95
330
1F
100
AcDbEntity
  8
4
100
AcDbBlockReference
  2
SUG-AR06
 10
3146.081159872081
 20
292.0989236420463
 30
0.0
  0
INSERT
  5
C96
330
1F
100
AcDbEntity
  8
4
100
AcDbBlockReference
  2
SUG-AR06
 10
3338.536529631222
 20
207.1045327170009
 30
0.0
  0
TEXT
  5
C97
330
1F
100
AcDbEntity
  8
S
 62
     6
100
AcDbText
 10
3134.011217448199
 20
137.5169645332578
 30
0.0
 40
3.0
  1

  7
SIMPLEX
100
AcDbText
  0
INSERT
  5
C98
330
1F
100
AcDbEntity
  8
4
100
AcDbBlockReference
  2
SUG-AR06
 10
3054.290832523526
 20
186.3020115780995
 30
0.0
  0
INSERT
  5
C99
330
1F
100
AcDbEntity
  8
4
100
AcDbBlockReference
  2
SUG-AR06
 10
3093.822971066545
 20
288.747808428426
 30
0.0
  0
INSERT
  5
C9A
330
1F
100
AcDbEntity
  8
4
100
AcDbBlockReference
  2
SUG-AR06
 10
3128.484685786203
 20
326.1484205793601
 30
0.0
  0
INSERT
  5
C9B
330
1F
100
AcDbEntity
  8
4
100
AcDbBlockReference
  2
SUG-AR06
 10
3625.941777803979
 20
661.6250602464158
 30
0.0
  0
INSERT
  5
C9C
330
1F
100
AcDbEntity
  8
4
100
AcDbBlockReference
  2
SUG-AR06
 10
3702.280832523526
 20
679.1990115780995
 30
0.0
  0
INSERT
  5
C9D
330
1F
100
AcDbEntity
  8
4
100
AcDbBlockReference
  2
SUG-AR06
 10
3146.081159872081
 20
292.0989236420463
 30
0.0
  0
INSERT
  5
C9E
330
1F
100
AcDbEntity
  8
4
100
AcDbBlockReference
  2
SUG-AR06
 10
3338.536529631222
 20
207.1045327170009
 30
0.0
  0
TEXT
  5
C9F
330
1F
100
AcDbEntity
  8
S
 62
     6
100
AcDbText
 10
3134.011217448199
 20
137.5169645332578
 30
0.0
 40
3.0
  1

  7
SIMPLEX
100
AcDbText
  0
INSERT
  5
CA0
330
1F
100
AcDbEntity
  8
4
100
AcDbBlockReference
  2
SUG-AR06
 10
3452.104289448689
 20
539.7914437158858
 30
0.0
  0
INSERT
  5
CA1
330
1F
100
AcDbEntity
  8
4
100
AcDbBlockReference
  2
SUG-AR06
 10
3530.28115987208
 20
559.2989236420463
 30
0.0
  0
INSERT
  5
CA2
330
1F
100
AcDbEntity
  8
4
100
AcDbBlockReference
  2
SUG-AR06
 10
3146.081159872081
 20
292.0989236420463
 30
0.0
  0
INSERT
  5
CA3
330
1F
100
AcDbEntity
  8
4
100
AcDbBlockReference
  2
SUG-AR06
 10
3338.536529631222
 20
207.1045327170009
 30
0.0
  0
TEXT
  5
CA4
330
1F
100
AcDbEntity
  8
S
 62
     6
100
AcDbText
 10
3134.011217448199
 20
137.5169645332578
 30
0.0
 40
3.0
  1

  7
SIMPLEX
100
AcDbText
  0
INSERT
  5
CA5
330
1F
100
AcDbEntity
  8
4
100
AcDbBlockReference
  2
SUG-AR06
 10
1807.966425629163
 20
514.0053534879149
 30
0.0
  0
INSERT
  5
CA6
330
1F
100
AcDbEntity
  8
4
100
AcDbBlockReference
  2
SUG-AR06
 10
1863.173935932408
 20
532.3686158910114
 30
0.0
  0
INSERT
  5
CA7
330
1F
100
AcDbEntity
  8
4
100
AcDbBlockReference
  2
SUG-AR06
 10
1919.652368168511
 20
406.1910999877177
 30
0.0
  0
LINE
  5
CA8
330
1F
100
AcDbEntity
  8
0
100
AcDbLine
 10
20.9087811723943
 20
135.385850888377
 30
0.0
 11
20.9087811723943
 21
133.385850888377
 31
0.0
  0
LINE
  5
CA9
330
1F
100
AcDbEntity
  8
0
100
AcDbLine
 10
20.9087811723943
 20
125.385850888377
 30
0.0
 11
37.90878117239429
 21
125.385850888377
 31
0.0
  0
LINE
  5
CAA
330
1F
100
AcDbEntity
  8
0
100
AcDbLine
 10
20.9087811723943
 20
135.385850888377
 30
0.0
 11
37.90878117239429
 21
135.385850888377
 31
0.0
  0
LINE
  5
CAB
330
1F
100
AcDbEntity
  8
0
100
AcDbLine
 10
37.90878117239429
 20
135.385850888377
 30
0.0
 11
37.90878117239429
 21
125.385850888377
 31
0.0
  0
LINE
  5
CAC
330
1F
100
AcDbEntity
  8
0
100
AcDbLine
 10
23.4087811723943
 20
132.885850888377
 30
0.0
 11
23.4087811723943
 21
127.885850888377
 31
0.0
  0
LINE
  5
CAD
330
1F
100
AcDbEntity
  8
0
100
AcDbLine
 10
20.9087811723943
 20
127.385850888377
 30
0.0
 11
22.9087811723943
 21
127.385850888377
 31
0.0
  0
LINE
  5
CAE
330
1F
100
AcDbEntity
  8
0
100
AcDbLine
 10
20.9087811723943
 20
133.385850888377
 30
0.0
 11
22.9087811723943
 21
133.385850888377
 31
0.0
  0
ARC
  5
CAF
330
1F
100
AcDbEntity
  8
0
100
AcDbCircle
 10
22.9087811723943
 20
132.885850888377
 30
0.0
 40
0.5
100
AcDbArc
 50
0.0
 51
90.0
  0
ARC
  5
CB0
330
1F
100
AcDbEntity
  8
0
100
AcDbCircle
 10
22.9087811723943
 20
127.885850888377
 30
0.0
 40
0.5
100
AcDbArc
 50
270.0
 51
0.0000000000004071
  0
LINE
  5
CB1
330
1F
100
AcDbEntity
  8
0
100
AcDbLine
 10
20.9087811723943
 20
127.385850888377
 30
0.0
 11
20.9087811723943
 21
125.385850888377
 31
0.0
  0
INSERT
  5
1248
330
1F
100
AcDbEntity
  8
4
100
AcDbBlockReference
  2
SUG-AR06
 10
1840.948071917617
 20
325.6455600934115
 30
0.0
  0
INSERT
  5
1249
330
1F
100
AcDbEntity
  8
4
100
AcDbBlockReference
  2
SUG-AR06
 10
1840.948071917617
 20
325.6455600934115
 30
0.0
  0
INSERT
  5
134C
330
1F
100
AcDbEntity
  8
4
100
AcDbBlockReference
  2
SUG-AR06
 10
2276.720562405959
 20
322.7840481021893
 30
0.0
  0
INSERT
  5
134D
330
1F
100
AcDbEntity
  8
4
100
AcDbBlockReference
  2
SUG-AR06
 10
2276.720562405959
 20
322.7840481021893
 30
0.0
  0
INSERT
  5
134E
330
1F
100
AcDbEntity
  8
4
100
AcDbBlockReference
  2
SUG-AR06
 10
2291.005910560249
 20
325.3902175466464
 30
0.0
  0
INSERT
  5
134F
330
1F
100
AcDbEntity
  8
4
100
AcDbBlockReference
  2
SUG-AR06
 10
2291.005910560249
 20
325.3902175466464
 30
0.0
  0
INSERT
  5
1350
330
1F
100
AcDbEntity
  8
4
100
AcDbBlockReference
  2
SUG-AR06
 10
2315.659078320412
 20
327.3572658042135
 30
0.0
  0
INSERT
  5
1351
330
1F
100
AcDbEntity
  8
4
100
AcDbBlockReference
  2
SUG-AR06
 10
2315.659078320412
 20
327.3572658042135
 30
0.0
  0
LINE
  5
13BC
330
1F
100
AcDbEntity
  8
0
100
AcDbLine
 10
27.65878117239437
 20
125.585850888377
 30
0.0
 11
27.65878117239424
 21
135.1858508883769
 31
0.0
  0
LINE
  5
13BD
330
1F
100
AcDbEntity
  8
0
100
AcDbLine
 10
37.80878117239422
 20
134.6858508883769
 30
0.0
 11
37.80878117239422
 21
133.6858508883769
 31
0.0
  0
LINE
  5
13BE
330
1F
100
AcDbEntity
  8
0
100
AcDbLine
 10
25.90878117239436
 20
133.6858508883769
 30
0.0
 11
25.90878117239447
 21
127.085850888377
 31
0.0
  0
LINE
  5
13BF
330
1F
100
AcDbEntity
  8
0
100
AcDbLine
 10
32.90878117239437
 20
133.6858508883769
 30
0.0
 11
32.90878117239425
 21
127.085850888377
 31
0.0
  0
LINE
  5
13C0
330
1F
100
AcDbEntity
  8
0
100
AcDbLine
 10
37.80878117239434
 20
127.085850888377
 30
0.0
 11
28.65900200409374
 21
127.085850888377
 31
0.0
  0
LINE
  5
13C1
330
1F
100
AcDbEntity
  8
0
100
AcDbLine
 10
28.65900200409374
 20
133.685850888377
 30
0.0
 11
37.80878117239434
 21
133.6858508883769
 31
0.0
  0
LINE
  5
13C2
330
1F
100
AcDbEntity
  8
0
100
AcDbLine
 10
37.80878117239422
 20
127.085850888377
 30
0.0
 11
37.80878117239422
 21
126.085850888377
 31
0.0
  0
LINE
  5
13C3
330
1F
100
AcDbEntity
  8
0
100
AcDbLine
 10
34.90878117239436
 20
133.6858508883769
 30
0.0
 11
34.90878117239424
 21
127.085850888377
 31
0.0
  0
ARC
  5
13C4
330
1F
100
AcDbEntity
  8
0
100
AcDbCircle
 10
37.30878117239422
 20
134.6858508883769
 30
0.0
 40
0.5
100
AcDbArc
 50
359.9999999999955
 51
90.0
  0
ARC
  5
13C5
330
1F
100
AcDbEntity
  8
0
100
AcDbCircle
 10
37.30878117239422
 20
126.085850888377
 30
0.0
 40
0.5
100
AcDbArc
 50
270.0
 51
0.0000000000044782
  0
LINE
  5
13C6
330
1F
100
AcDbEntity
  8
0
100
AcDbLine
 10
26.65900200409374
 20
133.6858508883769
 30
0.0
 11
26.65900200409374
 21
127.085850888377
 31
0.0
  0
LINE
  5
13C7
330
1F
100
AcDbEntity
  8
0
100
AcDbLine
 10
28.65900200409374
 20
133.685850888377
 30
0.0
 11
28.65900200409374
 21
127.085850888377
 31
0.0
  0
LINE
  5
13C8
330
1F
100
AcDbEntity
  8
0
100
AcDbLine
 10
21.00878117239438
 20
133.6858508883769
 30
0.0
 11
26.65900200409374
 21
133.6858508883769
 31
0.0
  0
LINE
  5
13C9
330
1F
100
AcDbEntity
  8
0
100
AcDbLine
 10
26.65900200409374
 20
127.085850888377
 30
0.0
 11
21.00878117239438
 21
127.085850888377
 31
0.0
  0
LINE
  5
13CA
330
1F
100
AcDbEntity
  8
0
100
AcDbLine
 10
23.90878117239436
 20
133.6858508883769
 30
0.0
 11
23.90878117239447
 21
127.085850888377
 31
0.0
  0
LINE
  5
13CB
330
1F
100
AcDbEntity
  8
0
100
AcDbLine
 10
37.30878117239422
 20
125.585850888377
 30
0.0
 11
21.50878117239438
 21
125.585850888377
 31
0.0
  0
LINE
  5
13CC
330
1F
100
AcDbEntity
  8
0
100
AcDbLine
 10
21.50878117239438
 20
135.1858508883769
 30
0.0
 11
37.30878117239422
 21
135.1858508883769
 31
0.0
  0
LINE
  5
13CD
330
1F
100
AcDbEntity
  8
0
100
AcDbLine
 10
21.00878117239438
 20
133.6858508883769
 30
0.0
 11
21.00878117239438
 21
134.6858508883769
 31
0.0
  0
ARC
  5
13CE
330
1F
100
AcDbEntity
  8
0
100
AcDbCircle
 10
21.50878117239438
 20
134.6858508883769
 30
0.0
 40
0.5
100
AcDbArc
 50
90.0
 51
180.0
  0
LINE
  5
13CF
330
1F
100
AcDbEntity
  8
0
100
AcDbLine
 10
21.00878117239438
 20
126.085850888377
 30
0.0
 11
21.00878117239438
 21
127.085850888377
 31
0.0
  0
ARC
  5
13D0
330
1F
100
AcDbEntity
  8
0
100
AcDbCircle
 10
21.50878117239438
 20
126.085850888377
 30
0.0
 40
0.5
100
AcDbArc
 50
180.0
 51
270.0
  0
LINE
  5
1439
330
1F
100
AcDbEntity
  8
0
100
AcDbLine
 10
148.1935259981623
 20
260.274339115373
 30
0.0
 11
142.4721065847786
 21
260.2743391153729
 31
0.0
  0
ARC
  5
143A
330
1F
100
AcDbEntity
  8
0
100
AcDbCircle
 10
142.4293707138281
 20
259.2743391153728
 30
0.0
 40
1.0
100
AcDbArc
 50
90.0
 51
121.5963621978353
  0
ARC
  5
143B
330
1F
100
AcDbEntity
  8
0
100
AcDbCircle
 10
151.3362117794004
 20
244.7944156959403
 30
0.0
 40
18.0
100
AcDbArc
 50
121.5963621978353
 51
149.9165595450011
  0
LINE
  5
143C
330
1F
100
AcDbEntity
  8
0
100
AcDbLine
 10
148.8135259981625
 20
260.274339115373
 30
0.0
 11
142.4293707138281
 21
260.2743391153729
 31
0.0
  0
ARC
  5
143D
330
1F
100
AcDbEntity
  8
0
100
AcDbCircle
 10
136.1935259981624
 20
253.5664774450783
 30
0.0
 40
0.5
100
AcDbArc
 50
149.9165595450011
 51
197.912679586926
  0
ARC
  5
143E
330
1F
100
AcDbEntity
  8
0
100
AcDbCircle
 10
152.8452373400391
 20
258.9489034210499
 30
0.0
 40
18.0
100
AcDbArc
 50
197.912679586926
 51
238.3691806261435
  0
LINE
  5
143F
330
1F
100
AcDbEntity
  8
0
100
AcDbLine
 10
148.1935259981623
 20
243.4743391153729
 30
0.0
 11
143.9724256584934
 21
243.4743391153729
 31
0.0
  0
ARC
  5
1440
330
1F
100
AcDbEntity
  8
0
100
AcDbCircle
 10
143.9296897875428
 20
244.4743391153729
 30
0.0
 40
1.0
100
AcDbArc
 50
238.3691806261396
 51
270.0
  0
LINE
  5
1441
330
1F
100
AcDbEntity
  8
0
100
AcDbLine
 10
148.1935259981623
 20
243.4743391153729
 30
0.0
 11
143.9296897875428
 21
243.4743391153729
 31
0.0
  0
ENDSEC
  0
SECTION
  2
OBJECTS
  0
DICTIONARY
  5
C
330
0
100
AcDbDictionary
281
     1
  3
ACAD_COLOR
350
73
  3
ACAD_GROUP
350
D
  3
ACAD_LAYOUT
350
1A
  3
ACAD_MATERIAL
350
72
  3
ACAD_MLINESTYLE
350
17
  3
ACAD_PLOTSETTINGS
350
19
  3
ACAD_PLOTSTYLENAME
350
E
  3
ACDBHEADERROUNDTRIPXREC
350
1555
  3
AcDbVariableDictionary
350
66
  0
DICTIONARY
  5
9F
330
2
100
AcDbDictionary
280
     1
281
     1
  3
ACAD_LAYERFILTERS
360
AC
  3
ACAD_LAYERSTATES
360
A0
  0
DICTIONARY
  5
73
102
{ACAD_REACTORS
330
C
102
}
330
C
100
AcDbDictionary
281
     1
  0
DICTIONARY
  5
D
102
{ACAD_REACTORS
330
C
102
}
330
C
100
AcDbDictionary
281
     1
  0
DICTIONARY
  5
1A
102
{ACAD_REACTORS
330
C
102
}
330
C
100
AcDbDictionary
281
     1
  3
Model
350
22
  3
レイアウト1
350
59
  0
DICTIONARY
  5
72
102
{ACAD_REACTORS
330
C
102
}
330
C
100
AcDbDictionary
281
     1
  0
DICTIONARY
  5
17
102
{ACAD_REACTORS
330
C
102
}
330
C
100
AcDbDictionary
281
     1
  3
Standard
350
18
  0
DICTIONARY
  5
19
102
{ACAD_REACTORS
330
C
102
}
330
C
100
AcDbDictionary
281
     1
  0
ACDBDICTIONARYWDFLT
  5
E
102
{ACAD_REACTORS
330
C
102
}
330
C
100
AcDbDictionary
281
     1
  3
Normal
350
F
100
AcDbDictionaryWithDefault
340
F
  0
DICTIONARY
  5
1555
102
{ACAD_REACTORS
330
C
102
}
330
C
100
AcDbDictionary
281
     1
  3
COLORDICT
350
1557
  3
MATERIALDICT
350
1556
  0
DICTIONARY
  5
66
102
{ACAD_REACTORS
330
C
102
}
330
C
100
AcDbDictionary
281
     1
  3
DIMASSOC
350
67
  3
HIDETEXT
350
6B
  3
PROJECTNAME
350
1544
  3
SORTENTS
350
1543
  0
DICTIONARY
  5
AC
102
{ACAD_REACTORS
330
9F
102
}
330
9F
100
AcDbDictionary
281
     1
  0
DICTIONARY
  5
A0
102
{ACAD_REACTORS
330
9F
102
}
330
9F
100
AcDbDictionary
281
     1
  3
OPNUS
350
A1
  0
LAYOUT
  5
22
102
{ACAD_XDICTIONARY
360
1558
102
}
102
{ACAD_REACTORS
330
1A
102
}
330
1A
100
AcDbPlotSettings
  1

  2
Adobe PDF
  4
A4
  6

 40
3.174999952316283
 41
3.174999952316283
 42
3.175003051757812
 43
3.17498779296875
 44
209.9098358154297
 45
297.0318298339844
 46
0.0
 47
1.77
 48
0.0330826352731037
 49
-0.0634053486810444
140
391.8577917567163
141
277.7041519047775
142
1.0
143
1.364549938056164
 70
 11956
 72
     1
 73
     1
 74
     4
  7
monochrome.ctb
 75
     0
147
0.7328423622403477
148
-0.0330826352731037
149
0.0634053486810444
100
AcDbLayout
  1
Model
 70
     1
 71
     0
 10
0.0
 20
0.0
 11
12.0
 21
9.0
 12
0.0
 22
0.0
 32
0.0
 14
0.0
 24
0.0
 34
0.0
 15
0.0
 25
0.0
 35
0.0
146
0.0
 13
0.0
 23
0.0
 33
0.0
 16
1.0
 26
0.0
 36
0.0
 17
0.0
 27
1.0
 37
0.0
 76
     0
330
1F
  0
LAYOUT
  5
59
102
{ACAD_XDICTIONARY
360
155A
102
}
102
{ACAD_REACTORS
330
1A
102
}
330
1A
100
AcDbPlotSettings
  1

  2
None
  4

  6

 40
0.0
 41
0.0
 42
0.0
 43
0.0
 44
0.0
 45
0.0
 46
0.0
 47
0.0
 48
0.0
 49
0.0
140
0.0
141
0.0
142
1.0
143
1.0
 70
   688
 72
     0
 73
     0
 74
     5
  7
monochrome.ctb
 75
    16
147
1.0
148
0.0
149
0.0
100
AcDbLayout
  1
レイアウト1
 70
     1
 71
     1
 10
0.0
 20
0.0
 11
12.0
 21
9.0
 12
0.0
 22
0.0
 32
0.0
 14
0.0
 24
0.0
 34
0.0
 15
0.0
 25
0.0
 35
0.0
146
0.0
 13
0.0
 23
0.0
 33
0.0
 16
1.0
 26
0.0
 36
0.0
 17
0.0
 27
1.0
 37
0.0
 76
     0
330
58
  0
MLINESTYLE
  5
18
102
{ACAD_REACTORS
330
17
102
}
330
17
100
AcDbMlineStyle
  2
STANDARD
 70
     0
  3

 62
   256
 51
90.0
 52
90.0
 71
     2
 49
0.5
 62
   256
  6
BYLAYER
 49
-0.5
 62
   256
  6
BYLAYER
  0
ACDBPLACEHOLDER
  5
F
102
{ACAD_REACTORS
330
E
102
}
330
E
  0
XRECORD
  5
1557
102
{ACAD_REACTORS
330
1555
102
}
330
1555
100
AcDbXrecord
280
     1
340
73
  0
XRECORD
  5
1556
102
{ACAD_REACTORS
330
1555
102
}
330
1555
100
AcDbXrecord
280
     1
340
72
  0
DICTIONARYVAR
  5
67
102
{ACAD_REACTORS
330
66
102
}
330
66
100
DictionaryVariables
280
     0
  1
2
  0
DICTIONARYVAR
  5
6B
102
{ACAD_REACTORS
330
66
102
}
330
66
100
DictionaryVariables
280
     0
  1
1
  0
DICTIONARYVAR
  5
1544
102
{ACAD_REACTORS
330
66
102
}
330
66
100
DictionaryVariables
280
     0
  1

  0
DICTIONARYVAR
  5
1543
102
{ACAD_REACTORS
330
66
102
}
330
66
100
DictionaryVariables
280
     0
  1
97
  0
XRECORD
  5
A1
102
{ACAD_REACTORS
330
A0
102
}
330
A0
100
AcDbXrecord
280
     1
 91
       16
330
95
 90
        8
 62
     7
370
    15
331
16
  1
色_7
330
94
 90
        8
 62
     6
370
    15
331
16
  1
色_6
330
93
 90
        8
 62
     5
370
    15
331
16
  1
色_5
330
92
 90
        8
 62
     4
370
    30
331
16
  1
色_4
330
91
 90
        8
 62
     3
370
    30
331
16
  1
色_3
330
90
 90
        8
 62
     2
370
    30
331
16
  1
色_2
330
8F
 90
        8
 62
     1
370
    30
331
16
  1
色_1
330
10
 90
        8
 62
     7
370
    30
331
16
  1
色_7
  0
DICTIONARY
  5
1558
330
22
100
AcDbDictionary
280
     1
281
     1
  3
ACAD_XREC_ROUNDTRIP
360
1559
  0
DICTIONARY
  5
155A
330
59
100
AcDbDictionary
280
     1
281
     1
  3
ACAD_XREC_ROUNDTRIP
360
155B
  0
XRECORD
  5
1559
102
{ACAD_REACTORS
330
1558
102
}
330
1558
100
AcDbXrecord
280
     1
102
SHADEPLOT
 70
     0
102
SHADEPLOTRESLEVEL
 70
     2
102
SHADEPLOTCUSTOMDPI
 70
   300
  0
XRECORD
  5
155B
102
{ACAD_REACTORS
330
155A
102
}
330
155A
100
AcDbXrecord
280
     1
102
SHADEPLOT
 70
     0
102
SHADEPLOTRESLEVEL
 70
     2
102
SHADEPLOTCUSTOMDPI
 70
   300
  0
ENDSEC
  0
EOF
