  0
SECTION
  2
HEADER
  9
$ACADVER
  1
AC1015
  9
$ACADMAINTVER
 70
    20
  9
$DWGCODEPAGE
  3
ANSI_932
  9
$INSBASE
 10
0.0
 20
0.0
 30
0.0
  9
$EXTMIN
 10
-1908.314908149696
 20
-663.0556958471474
 30
-0.0000000000112498
  9
$EXTMAX
 10
-1287.132836977935
 20
-227.094759795104
 30
0.0000000000002956
  9
$LIMMIN
 10
0.0
 20
0.0
  9
$LIMMAX
 10
285.0
 20
198.0
  9
$ORTHOMODE
 70
     0
  9
$REGENMODE
 70
     1
  9
$FILLMODE
 70
     1
  9
$QTEXTMODE
 70
     0
  9
$MIRRTEXT
 70
     0
  9
$LTSCALE
 40
0.7
  9
$ATTMODE
 70
     1
  9
$TEXTSIZE
 40
3.0
  9
$TRACEWID
 40
0.05
  9
$TEXTSTYLE
  7
OPNUS
  9
$CLAYER
  8
0
  9
$CELTYPE
  6
ByLayer
  9
$CECOLOR
 62
   256
  9
$CELTSCALE
 40
0.7
  9
$DISPSILH
 70
     0
  9
$DIMSCALE
 40
1.0
  9
$DIMASZ
 40
3.0
  9
$DIMEXO
 40
1.0
  9
$DIMDLI
 40
6.0
  9
$DIMRND
 40
0.0
  9
$DIMDLE
 40
0.0
  9
$DIMEXE
 40
1.0
  9
$DIMTP
 40
0.0
  9
$DIMTM
 40
0.000000001
  9
$DIMTXT
 40
3.0
  9
$DIMCEN
 40
0.0
  9
$DIMTSZ
 40
0.0
  9
$DIMTOL
 70
     0
  9
$DIMLIM
 70
     0
  9
$DIMTIH
 70
     0
  9
$DIMTOH
 70
     0
  9
$DIMSE1
 70
     0
  9
$DIMSE2
 70
     0
  9
$DIMTAD
 70
     1
  9
$DIMZIN
 70
     8
  9
$DIMBLK
  1

  9
$DIMASO
 70
     1
  9
$DIMSHO
 70
     1
  9
$DIMPOST
  1

  9
$DIMAPOST
  1

  9
$DIMALT
 70
     0
  9
$DIMALTD
 70
     2
  9
$DIMALTF
 40
25.4
  9
$DIMLFAC
 40
1.0
  9
$DIMTOFL
 70
     1
  9
$DIMTVP
 40
0.0
  9
$DIMTIX
 70
     0
  9
$DIMSOXD
 70
     0
  9
$DIMSAH
 70
     0
  9
$DIMBLK1
  1

  9
$DIMBLK2
  1

  9
$DIMSTYLE
  2
OPNUS
  9
$DIMCLRD
 70
     6
  9
$DIMCLRE
 70
     6
  9
$DIMCLRT
 70
     2
  9
$DIMTFAC
 40
1.0
  9
$DIMGAP
 40
0.5
  9
$DIMJUST
 70
     0
  9
$DIMSD1
 70
     0
  9
$DIMSD2
 70
     0
  9
$DIMTOLJ
 70
     1
  9
$DIMTZIN
 70
     8
  9
$DIMALTZ
 70
     0
  9
$DIMALTTZ
 70
     0
  9
$DIMUPT
 70
     0
  9
$DIMDEC
 70
     8
  9
$DIMTDEC
 70
     8
  9
$DIMALTU
 70
     2
  9
$DIMALTTD
 70
     2
  9
$DIMTXSTY
  7
OPNUS
  9
$DIMAUNIT
 70
     0
  9
$DIMADEC
 70
     2
  9
$DIMALTRND
 40
0.0
  9
$DIMAZIN
 70
     2
  9
$DIMDSEP
 70
    46
  9
$DIMATFIT
 70
     3
  9
$DIMFRAC
 70
     0
  9
$DIMLDRBLK
  1

  9
$DIMLUNIT
 70
     2
  9
$DIMLWD
 70
    15
  9
$DIMLWE
 70
    15
  9
$DIMTMOVE
 70
     0
  9
$LUNITS
 70
     2
  9
$LUPREC
 70
     3
  9
$SKETCHINC
 40
0.1
  9
$FILLETRAD
 40
0.0
  9
$AUNITS
 70
     0
  9
$AUPREC
 70
     2
  9
$MENU
  1
.
  9
$ELEVATION
 40
0.0
  9
$PELEVATION
 40
0.0
  9
$THICKNESS
 40
0.0
  9
$LIMCHECK
 70
     0
  9
$CHAMFERA
 40
0.0
  9
$CHAMFERB
 40
0.0
  9
$CHAMFERC
 40
0.0
  9
$CHAMFERD
 40
0.0
  9
$SKPOLY
 70
     0
  9
$TDCREATE
 40
2455040.349441007
  9
$TDUCREATE
 40
2455039.974441007
  9
$TDUPDATE
 40
2455140.721346748
  9
$TDUUPDATE
 40
2455140.346346748
  9
$TDINDWG
 40
0.0216040856
  9
$TDUSRTIMER
 40
0.0216039005
  9
$USRTIMER
 70
     1
  9
$ANGBASE
 50
0.0
  9
$ANGDIR
 70
     0
  9
$PDMODE
 70
     0
  9
$PDSIZE
 40
0.0
  9
$PLINEWID
 40
0.0
  9
$SPLFRAME
 70
     0
  9
$SPLINETYPE
 70
     6
  9
$SPLINESEGS
 70
     8
  9
$HANDSEED
  5
E6A
  9
$SURFTAB1
 70
     6
  9
$SURFTAB2
 70
     6
  9
$SURFTYPE
 70
     6
  9
$SURFU
 70
     6
  9
$SURFV
 70
     6
  9
$UCSBASE
  2

  9
$UCSNAME
  2

  9
$UCSORG
 10
0.0
 20
0.0
 30
0.0
  9
$UCSXDIR
 10
1.0
 20
0.0
 30
0.0
  9
$UCSYDIR
 10
0.0
 20
1.0
 30
0.0
  9
$UCSORTHOREF
  2

  9
$UCSORTHOVIEW
 70
     0
  9
$UCSORGTOP
 10
0.0
 20
0.0
 30
0.0
  9
$UCSORGBOTTOM
 10
0.0
 20
0.0
 30
0.0
  9
$UCSORGLEFT
 10
0.0
 20
0.0
 30
0.0
  9
$UCSORGRIGHT
 10
0.0
 20
0.0
 30
0.0
  9
$UCSORGFRONT
 10
0.0
 20
0.0
 30
0.0
  9
$UCSORGBACK
 10
0.0
 20
0.0
 30
0.0
  9
$PUCSBASE
  2

  9
$PUCSNAME
  2

  9
$PUCSORG
 10
0.0
 20
0.0
 30
0.0
  9
$PUCSXDIR
 10
1.0
 20
0.0
 30
0.0
  9
$PUCSYDIR
 10
0.0
 20
1.0
 30
0.0
  9
$PUCSORTHOREF
  2

  9
$PUCSORTHOVIEW
 70
     0
  9
$PUCSORGTOP
 10
0.0
 20
0.0
 30
0.0
  9
$PUCSORGBOTTOM
 10
0.0
 20
0.0
 30
0.0
  9
$PUCSORGLEFT
 10
0.0
 20
0.0
 30
0.0
  9
$PUCSORGRIGHT
 10
0.0
 20
0.0
 30
0.0
  9
$PUCSORGFRONT
 10
0.0
 20
0.0
 30
0.0
  9
$PUCSORGBACK
 10
0.0
 20
0.0
 30
0.0
  9
$USERI1
 70
     1
  9
$USERI2
 70
     6
  9
$USERI3
 70
     0
  9
$USERI4
 70
     0
  9
$USERI5
 70
     0
  9
$USERR1
 40
2.0
  9
$USERR2
 40
1.5
  9
$USERR3
 40
0.0
  9
$USERR4
 40
5.0
  9
$USERR5
 40
1.0
  9
$WORLDVIEW
 70
     1
  9
$SHADEDGE
 70
     3
  9
$SHADEDIF
 70
    70
  9
$TILEMODE
 70
     1
  9
$MAXACTVP
 70
    64
  9
$PINSBASE
 10
0.0
 20
0.0
 30
0.0
  9
$PLIMCHECK
 70
     0
  9
$PEXTMIN
 10
1.000000000000000E+20
 20
1.000000000000000E+20
 30
1.000000000000000E+20
  9
$PEXTMAX
 10
-1.000000000000000E+20
 20
-1.000000000000000E+20
 30
-1.000000000000000E+20
  9
$PLIMMIN
 10
0.0
 20
0.0
  9
$PLIMMAX
 10
12.0
 20
9.0
  9
$UNITMODE
 70
     0
  9
$VISRETAIN
 70
     1
  9
$PLINEGEN
 70
     0
  9
$PSLTSCALE
 70
     1
  9
$TREEDEPTH
 70
  3020
  9
$CMLSTYLE
  2
Standard
  9
$CMLJUST
 70
     0
  9
$CMLSCALE
 40
1.0
  9
$PROXYGRAPHICS
 70
     1
  9
$MEASUREMENT
 70
     1
  9
$CELWEIGHT
370
    -1
  9
$ENDCAPS
280
     0
  9
$JOINSTYLE
280
     0
  9
$LWDISPLAY
290
     0
  9
$INSUNITS
 70
     1
  9
$HYPERLINKBASE
  1

  9
$STYLESHEET
  1
monochrome.ctb
  9
$XEDIT
290
     1
  9
$CEPSNTYPE
380
     0
  9
$PSTYLEMODE
290
     1
  9
$FINGERPRINTGUID
  2
{FDEAD576-A652-11D2-9A35-0060089B3A3F}
  9
$VERSIONGUID
  2
{0071FCA4-94D5-4B0F-9F9F-FDCF79AA5EB7}
  9
$EXTNAMES
290
     1
  9
$PSVPSCALE
 40
0.0
  9
$OLESTARTUP
290
     0
  0
ENDSEC
  0
SECTION
  2
CLASSES
  0
CLASS
  1
ACDBDICTIONARYWDFLT
  2
AcDbDictionaryWithDefault
  3
ObjectDBX Classes
 90
        0
280
     0
281
     0
  0
CLASS
  1
ACDBPLACEHOLDER
  2
AcDbPlaceHolder
  3
ObjectDBX Classes
 90
        0
280
     0
281
     0
  0
CLASS
  1
LAYOUT
  2
AcDbLayout
  3
ObjectDBX Classes
 90
        0
280
     0
281
     0
  0
CLASS
  1
DICTIONARYVAR
  2
AcDbDictionaryVar
  3
ObjectDBX Classes
 90
        0
280
     0
281
     0
  0
CLASS
  1
SORTENTSTABLE
  2
AcDbSortentsTable
  3
ObjectDBX Classes
 90
        0
280
     0
281
     0
  0
CLASS
  1
DIMASSOC
  2
AcDbDimAssoc
  3
"AcDbDimAssoc|Product Desc:     AcDim ARX App For Dimension|Company:          Autodesk, Inc.|WEB Address:      www.autodesk.com"
 90
        0
280
     0
281
     0
  0
ENDSEC
  0
SECTION
  2
TABLES
  0
TABLE
  2
VPORT
  5
8
330
0
100
AcDbSymbolTable
 70
     4
  0
VPORT
  5
E5F
330
8
100
AcDbSymbolTableRecord
100
AcDbViewportTableRecord
  2
*Active
 70
     0
 10
0.0
 20
0.0
 11
1.0
 21
1.0
 12
-1482.413905094729
 22
-450.4439782404563
 13
0.0
 23
0.0
 14
0.5
 24
0.5
 15
0.5
 25
0.5
 16
0.0
 26
0.0
 36
1.0
 17
0.0
 27
0.0
 37
0.0
 40
682.3071077213572
 41
2.050420168067226
 42
50.0
 43
0.0
 44
0.0
 50
0.0
 51
0.0
 71
     0
 72
  1000
 73
     1
 74
     3
 75
     0
 76
     0
 77
     0
 78
     0
281
     0
 65
     1
110
0.0
120
0.0
130
0.0
111
1.0
121
0.0
131
0.0
112
0.0
122
1.0
132
0.0
 79
     0
146
0.0
  0
ENDTAB
  0
TABLE
  2
LTYPE
  5
5
330
0
100
AcDbSymbolTable
 70
     6
  0
LTYPE
  5
14
330
5
100
AcDbSymbolTableRecord
100
AcDbLinetypeTableRecord
  2
ByBlock
 70
     0
  3

 72
    65
 73
     0
 40
0.0
  0
LTYPE
  5
15
330
5
100
AcDbSymbolTableRecord
100
AcDbLinetypeTableRecord
  2
ByLayer
 70
     0
  3

 72
    65
 73
     0
 40
0.0
  0
LTYPE
  5
16
330
5
100
AcDbSymbolTableRecord
100
AcDbLinetypeTableRecord
  2
Continuous
 70
     0
  3
Solid line
 72
    65
 73
     0
 40
0.0
  0
LTYPE
  5
10C
330
5
100
AcDbSymbolTableRecord
100
AcDbLinetypeTableRecord
  2
CENTER2
 70
     0
  3
Center (.5x) ___ _ ___ _ ___ _ ___ _ ___ _ ___
 72
    65
 73
     4
 40
28.575
 49
19.05
 74
     0
 49
-3.174999999999999
 74
     0
 49
3.174999999999999
 74
     0
 49
-3.174999999999999
 74
     0
  0
ENDTAB
  0
TABLE
  2
LAYER
  5
2
102
{ACAD_XDICTIONARY
360
9F
102
}
330
0
100
AcDbSymbolTable
 70
    24
  0
LAYER
  5
10
330
2
100
AcDbSymbolTableRecord
100
AcDbLayerTableRecord
  2
0
 70
     0
 62
     7
  6
Continuous
370
    15
390
F
  0
LAYER
  5
B2
330
2
100
AcDbSymbolTableRecord
100
AcDbLayerTableRecord
  2
W
 70
     0
 62
     7
  6
Continuous
370
    15
390
F
  0
LAYER
  5
E0
330
2
100
AcDbSymbolTableRecord
100
AcDbLayerTableRecord
  2
Defpoints
 70
     0
 62
     7
  6
Continuous
290
     0
370
    -3
390
F
  0
ENDTAB
  0
TABLE
  2
STYLE
  5
3
330
0
100
AcDbSymbolTable
 70
     5
  0
STYLE
  5
11
330
3
100
AcDbSymbolTableRecord
100
AcDbTextStyleTableRecord
  2
Standard
 70
     0
 40
0.0
 41
1.0
 50
0.0
 71
     0
 42
0.2
  3
MS Mincho.ttf
  4

1001
ACAD
1000
MS Mincho
1071
    32785
  0
STYLE
  5
BC
330
3
100
AcDbSymbolTableRecord
100
AcDbTextStyleTableRecord
  2
OPNUS
 70
     0
 40
0.0
 41
1.0
 50
0.0
 71
     0
 42
3.0
  3
MS PGothic.ttf
  4

1001
ACAD
1000
MS PGothic
1071
    32818
  0
STYLE
  5
EF
330
3
100
AcDbSymbolTableRecord
100
AcDbTextStyleTableRecord
  2
DIMENSION
 70
     0
 40
0.0
 41
1.0
 50
0.0
 71
     0
 42
3.0
  3
MS PGothic.ttf
  4

1001
ACAD
1000
MS PGothic
1071
    32818
  0
STYLE
  5
2FA
330
3
100
AcDbSymbolTableRecord
100
AcDbTextStyleTableRecord
  2
SIMPLEX
 70
     0
 40
0.0
 41
1.0
 50
0.0
 71
     0
 42
4.4
  3
T:SIMPLEX
  4
T:SUG-BIG1
  0
STYLE
  5
2FB
330
3
100
AcDbSymbolTableRecord
100
AcDbTextStyleTableRecord
  2
スタイル1
 70
     0
 40
0.0
 41
1.0
 50
0.0
 71
     0
 42
2.5
  3
@HGPSoeiKakugothicUB.ttf
  4

1001
ACAD
1000
@HGPSoeiKakugothicUB
1071
    32818
  0
ENDTAB
  0
TABLE
  2
VIEW
  5
6
330
0
100
AcDbSymbolTable
 70
     0
  0
ENDTAB
  0
TABLE
  2
UCS
  5
7
330
0
100
AcDbSymbolTable
 70
     0
  0
ENDTAB
  0
TABLE
  2
APPID
  5
9
330
0
100
AcDbSymbolTable
 70
     1
  0
APPID
  5
12
330
9
100
AcDbSymbolTableRecord
100
AcDbRegAppTableRecord
  2
ACAD
 70
     0
  0
ENDTAB
  0
TABLE
  2
DIMSTYLE
  5
A
330
0
100
AcDbSymbolTable
 70
     2
100
AcDbDimStyleTable
 71
     2
340
BB
340
27
  0
DIMSTYLE
105
27
330
A
100
AcDbSymbolTableRecord
100
AcDbDimStyleTableRecord
  2
Standard
 70
     0
340
11
  0
DIMSTYLE
105
BB
330
A
100
AcDbSymbolTableRecord
100
AcDbDimStyleTableRecord
  2
OPNUS
 70
     0
 41
3.0
 42
1.0
 43
6.0
 44
1.0
 48
0.000000001
 73
     0
 74
     0
 77
     1
 78
     8
 79
     2
140
3.0
141
0.0
147
0.5
172
     1
176
     6
177
     6
178
     2
179
     2
271
     8
272
     8
284
     8
340
BC
371
    15
372
    15
  0
ENDTAB
  0
TABLE
  2
BLOCK_RECORD
  5
1
330
0
100
AcDbSymbolTable
 70
    15
  0
BLOCK_RECORD
  5
1F
102
{ACAD_XDICTIONARY
360
234
102
}
330
1
100
AcDbSymbolTableRecord
100
AcDbBlockTableRecord
  2
*Model_Space
340
22
  0
BLOCK_RECORD
  5
58
330
1
100
AcDbSymbolTableRecord
100
AcDbBlockTableRecord
  2
*Paper_Space
340
59
  0
BLOCK_RECORD
  5
258
330
1
100
AcDbSymbolTableRecord
100
AcDbBlockTableRecord
  2
SUG-AR04
340
0
102
{BLKREFS
331
881
102
}
  0
ENDTAB
  0
ENDSEC
  0
SECTION
  2
BLOCKS
  0
BLOCK
  5
20
330
1F
100
AcDbEntity
  8
0
100
AcDbBlockBegin
  2
*Model_Space
 70
     0
 10
0.0
 20
0.0
 30
0.0
  3
*Model_Space
  1

  0
ENDBLK
  5
21
330
1F
100
AcDbEntity
  8
0
100
AcDbBlockEnd
  0
BLOCK
  5
5A
330
58
100
AcDbEntity
 67
     1
  8
0
100
AcDbBlockBegin
  2
*Paper_Space
 70
     0
 10
0.0
 20
0.0
 30
0.0
  3
*Paper_Space
  1

  0
ENDBLK
  5
5B
330
58
100
AcDbEntity
 67
     1
  8
0
100
AcDbBlockEnd
  0
BLOCK
  5
259
330
258
100
AcDbEntity
  8
0
100
AcDbBlockBegin
  2
SUG-AR04
 70
     0
 10
0.0
 20
0.0
 30
0.0
  3
SUG-AR04
  1

  0
CIRCLE
  5
25A
330
258
100
AcDbEntity
  8
0
100
AcDbCircle
 10
0.0
 20
0.0
 30
0.0
 40
0.75
  0
ENDBLK
  5
25B
330
258
100
AcDbEntity
  8
0
100
AcDbBlockEnd
  0
ENDSEC
  0
SECTION
  2
ENTITIES
  0
LINE
  5
7B1
330
1F
100
AcDbEntity
  8
0
100
AcDbLine
 10
-1712.363859798635
 20
-561.4759028487956
 30
0.0
 11
-1712.363859798635
 21
-583.4759028487956
 31
0.0
  0
LINE
  5
7B2
330
1F
100
AcDbEntity
  8
0
100
AcDbLine
 10
-1714.06385979863
 20
-561.475902848796
 30
0.0
 11
-1714.063859798636
 21
-583.4759028487956
 31
0.0
  0
LINE
  5
7B3
330
1F
100
AcDbEntity
  8
0
100
AcDbLine
 10
-1713.563859798636
 20
-561.475902848796
 30
0.0
 11
-1713.563859798636
 21
-583.4759028487956
 31
0.0
  0
LINE
  5
7B4
330
1F
100
AcDbEntity
  8
0
100
AcDbLine
 10
-1711.563859798635
 20
-561.4759028487956
 30
0.0
 11
-1711.563859798635
 21
-583.4759028487956
 31
0.0
  0
LINE
  5
7B5
330
1F
100
AcDbEntity
  8
0
100
AcDbLine
 10
-1709.563859798636
 20
-561.7759028487958
 30
0.0
 11
-1709.563859798636
 21
-583.1759028487958
 31
0.0
  0
LINE
  5
7B6
330
1F
100
AcDbEntity
  8
0
100
AcDbLine
 10
-1709.863859798636
 20
-561.4759028487956
 30
0.0
 11
-1709.863859798636
 21
-583.4759028487956
 31
0.0
  0
LINE
  5
7B7
330
1F
100
AcDbEntity
  8
0
100
AcDbLine
 10
-1712.313859798635
 20
-582.2900073152973
 30
0.0
 11
-1712.313859798635
 21
-563.0759028487959
 31
0.0
  0
LINE
  5
7B8
330
1F
100
AcDbEntity
  8
0
100
AcDbLine
 10
-1711.613859798635
 20
-563.0759028487959
 30
0.0
 11
-1711.613859798635
 21
-582.2900073152973
 31
0.0
  0
CIRCLE
  5
7B9
330
1F
100
AcDbEntity
  8
0
100
AcDbCircle
 10
-1744.245159052702
 20
-572.4759028487956
 30
0.0
 40
11.0
  0
CIRCLE
  5
7BA
330
1F
100
AcDbEntity
  8
0
100
AcDbCircle
 10
-1744.245159052702
 20
-572.4759028487956
 30
0.0
 40
10.8
  0
CIRCLE
  5
7BB
330
1F
100
AcDbEntity
  8
0
100
AcDbCircle
 10
-1744.245159052702
 20
-572.4759028487956
 30
0.0
 40
9.0
  0
CIRCLE
  5
7BC
330
1F
100
AcDbEntity
  8
0
100
AcDbCircle
 10
-1744.245159052702
 20
-572.4759028487956
 30
0.0
 40
9.3
  0
LINE
  5
7BD
330
1F
100
AcDbEntity
  8
0
100
AcDbLine
 10
-1721.763859798636
 20
-583.4759028487956
 30
0.0
 11
-1721.763859798636
 21
-561.475902848796
 31
0.0
  0
LINE
  5
7BE
330
1F
100
AcDbEntity
  8
0
100
AcDbLine
 10
-1722.063859798636
 20
-561.7759028487958
 30
0.0
 11
-1722.063859798636
 21
-581.7759028487958
 31
0.0
  0
LINE
  5
7BF
330
1F
100
AcDbEntity
  8
0
100
AcDbLine
 10
-1716.06385979863
 20
-561.4759028487956
 30
0.0
 11
-1716.063859798636
 21
-583.4759028487956
 31
0.0
  0
LINE
  5
7C0
330
1F
100
AcDbEntity
  8
0
100
AcDbLine
 10
-1715.563859798636
 20
-561.475902848796
 30
0.0
 11
-1715.563859798636
 21
-583.4759028487956
 31
0.0
  0
LINE
  5
7C1
330
1F
100
AcDbEntity
  8
0
100
AcDbLine
 10
-1715.563859798636
 20
-583.4759028487956
 30
0.0
 11
-1714.063859798636
 21
-583.4759028487956
 31
0.0
  0
LINE
  5
7C2
330
1F
100
AcDbEntity
  8
0
100
AcDbLine
 10
-1721.763859798636
 20
-583.4759028487956
 30
0.0
 11
-1716.063859798636
 21
-583.4759028487956
 31
0.0
  0
LINE
  5
7C3
330
1F
100
AcDbEntity
  8
0
100
AcDbLine
 10
-1722.063859798636
 20
-583.1759028487958
 30
0.0
 11
-1721.763859798636
 21
-583.4759028487956
 31
0.0
  0
LINE
  5
7C4
330
1F
100
AcDbEntity
  8
0
100
AcDbLine
 10
-1716.063859798636
 20
-583.2759028487958
 30
0.0
 11
-1715.563859798636
 21
-583.2759028487958
 31
0.0
  0
LINE
  5
7C5
330
1F
100
AcDbEntity
  8
0
100
AcDbLine
 10
-1722.063859798636
 20
-572.4759028487956
 30
0.0
 11
-1722.063859798636
 21
-583.1759028487958
 31
0.0
  0
LINE
  5
7C6
330
1F
100
AcDbEntity
  8
0
100
AcDbLine
 10
-1713.563859798636
 20
-583.4759028487956
 30
0.0
 11
-1712.363859798635
 21
-583.4759028487956
 31
0.0
  0
LINE
  5
7C7
330
1F
100
AcDbEntity
  8
0
100
AcDbLine
 10
-1714.063859798636
 20
-583.2759028487958
 30
0.0
 11
-1713.563859798636
 21
-583.2759028487958
 31
0.0
  0
LINE
  5
7C8
330
1F
100
AcDbEntity
  8
0
100
AcDbLine
 10
-1711.563859798635
 20
-583.4759028487956
 30
0.0
 11
-1709.863859798636
 21
-583.4759028487956
 31
0.0
  0
LINE
  5
7C9
330
1F
100
AcDbEntity
  8
0
100
AcDbLine
 10
-1709.863859798636
 20
-583.4759028487956
 30
0.0
 11
-1709.563859798636
 21
-583.1759028487958
 31
0.0
  0
LINE
  5
7CA
330
1F
100
AcDbEntity
  8
0
100
AcDbLine
 10
-1712.363859798635
 20
-582.7759028487958
 30
0.0
 11
-1711.563859798635
 21
-582.7759028487958
 31
0.0
  0
LWPOLYLINE
  5
7CB
330
1F
100
AcDbEntity
  8
0
100
AcDbPolyline
 90
        9
 70
     0
 43
0.0
 10
-1712.313859798635
 20
-582.2900073152973
 42
0.1060025015004334
 10
-1712.287675820224
 20
-582.4121259491881
 42
0.1012917740069362
 10
-1712.211347172051
 20
-582.5180699384746
 42
0.0952716417645432
 10
-1712.099098238941
 20
-582.5876034246735
 42
0.0914118821427163
 10
-1711.963859798636
 20
-582.612536570065
 42
0.091411882142626
 10
-1711.82862135833
 20
-582.5876034246735
 42
0.0952716417645421
 10
-1711.71637242522
 20
-582.5180699384746
 42
0.1012917740071256
 10
-1711.640043777047
 20
-582.4121259491875
 42
0.1060025015001668
 10
-1711.613859798635
 20
-582.2900073152973
 42
0.1060025015001417
  0
LINE
  5
7CC
330
1F
100
AcDbEntity
  8
0
100
AcDbLine
 10
-1715.563859798636
 20
-561.475902848796
 30
0.0
 11
-1714.063859798636
 21
-561.475902848796
 31
0.0
  0
LINE
  5
7CD
330
1F
100
AcDbEntity
  8
0
100
AcDbLine
 10
-1746.416731927956
 20
-564.4759028487956
 30
0.0
 11
-1742.073586177449
 21
-564.4759028487956
 31
0.0
  0
LINE
  5
7CE
330
1F
100
AcDbEntity
  8
0
100
AcDbLine
 10
-1746.416731927956
 20
-563.7759028487957
 30
0.0
 11
-1742.073586177449
 21
-563.7759028487957
 31
0.0
  0
ARC
  5
7CF
330
1F
100
AcDbEntity
  8
0
100
AcDbCircle
 10
-1746.416731927956
 20
-562.4759028487956
 30
0.0
 40
1.3
100
AcDbArc
 50
264.97645816893
 51
270.0
  0
ARC
  5
7D0
330
1F
100
AcDbEntity
  8
0
100
AcDbCircle
 10
-1746.416731927956
 20
-562.4759028487956
 30
0.0
 40
2.0
100
AcDbArc
 50
234.8703253168956
 51
270.0
  0
ARC
  5
7D1
330
1F
100
AcDbEntity
  8
0
100
AcDbCircle
 10
-1742.073586177449
 20
-562.4759028487956
 30
0.0
 40
2.0
100
AcDbArc
 50
270.0
 51
305.1296746831044
  0
ARC
  5
7D2
330
1F
100
AcDbEntity
  8
0
100
AcDbCircle
 10
-1742.073586177449
 20
-562.4759028487956
 30
0.0
 40
1.3
100
AcDbArc
 50
270.0
 51
275.02354183107
  0
LINE
  5
7D3
330
1F
100
AcDbEntity
  8
0
100
AcDbLine
 10
-1721.763859798636
 20
-561.475902848796
 30
0.0
 11
-1716.063859798636
 21
-561.475902848796
 31
0.0
  0
LINE
  5
7D4
330
1F
100
AcDbEntity
  8
0
100
AcDbLine
 10
-1722.063859798636
 20
-561.7759028487958
 30
0.0
 11
-1721.763859798636
 21
-561.475902848796
 31
0.0
  0
LINE
  5
7D5
330
1F
100
AcDbEntity
  8
0
100
AcDbLine
 10
-1716.063859798636
 20
-561.6759028487963
 30
0.0
 11
-1715.563859798636
 21
-561.6759028487963
 31
0.0
  0
LINE
  5
7D6
330
1F
100
AcDbEntity
  8
0
100
AcDbLine
 10
-1713.563859798636
 20
-561.475902848796
 30
0.0
 11
-1712.363859798635
 21
-561.475902848796
 31
0.0
  0
LINE
  5
7D7
330
1F
100
AcDbEntity
  8
0
100
AcDbLine
 10
-1714.063859798636
 20
-561.6759028487963
 30
0.0
 11
-1713.563859798636
 21
-561.6759028487963
 31
0.0
  0
ARC
  5
7D8
330
1F
100
AcDbEntity
  8
0
100
AcDbCircle
 10
-1711.963859798636
 20
-563.0759028487959
 30
0.0
 40
0.35
100
AcDbArc
 50
0.0
 51
180.0
  0
LINE
  5
7D9
330
1F
100
AcDbEntity
  8
0
100
AcDbLine
 10
-1712.363859798635
 20
-564.1759028487959
 30
0.0
 11
-1712.313859798635
 21
-564.1759028487959
 31
0.0
  0
LINE
  5
7DA
330
1F
100
AcDbEntity
  8
0
100
AcDbLine
 10
-1711.563859798635
 20
-561.4759028487956
 30
0.0
 11
-1709.863859798636
 21
-561.4759028487956
 31
0.0
  0
LINE
  5
7DB
330
1F
100
AcDbEntity
  8
0
100
AcDbLine
 10
-1711.613859798635
 20
-564.1759028487959
 30
0.0
 11
-1711.563859798635
 21
-564.1759028487959
 31
0.0
  0
LINE
  5
7DC
330
1F
100
AcDbEntity
  8
0
100
AcDbLine
 10
-1709.563859798636
 20
-561.7759028487958
 30
0.0
 11
-1709.863859798636
 21
-561.4759028487956
 31
0.0
  0
ARC
  5
7DD
330
1F
100
AcDbEntity
  8
0
100
AcDbCircle
 10
-1644.956731302967
 20
-386.3669358613884
 30
0.0
 40
16.8
100
AcDbArc
 50
0.0
 51
14.77232490025356
  0
LINE
  5
7DE
330
1F
100
AcDbEntity
  8
0
100
AcDbLine
 10
-1644.156731302967
 20
-386.3669358613884
 30
0.0
 11
-1644.156731302967
 21
-398.0113452792768
 31
0.0
  0
LINE
  5
7DF
330
1F
100
AcDbEntity
  8
0
100
AcDbLine
 10
-1628.156731302967
 20
-386.3669358613884
 30
0.0
 11
-1628.156731302967
 21
-398.0113452792764
 31
0.0
  0
LINE
  5
7E0
330
1F
100
AcDbEntity
  8
0
100
AcDbLine
 10
-1628.156731302967
 20
-385.9169358613885
 30
0.0
 11
-1628.162759170086
 21
-385.9169358613885
 31
0.0
  0
LINE
  5
7E1
330
1F
100
AcDbEntity
  8
0
 48
0.7
100
AcDbLine
 10
-1644.159495864789
 20
-330.8165418379936
 30
0.0
 11
-1629.656731302963
 21
-330.8165418379937
 31
0.0
  0
LINE
  5
7E2
330
1F
100
AcDbEntity
  8
0
 48
0.7
100
AcDbLine
 10
-1643.771090656905
 20
-340.8165418379937
 30
0.0
 11
-1643.256035629065
 21
-340.8165418379938
 31
0.0
  0
LINE
  5
7E3
330
1F
100
AcDbEntity
  8
0
 48
0.7
100
AcDbLine
 10
-1629.656731302963
 20
-330.8165418379937
 30
0.0
 11
-1629.656731302963
 21
-340.8165418379937
 31
0.0
  0
ARC
  5
7E4
330
1F
100
AcDbEntity
  8
0
 48
0.7
100
AcDbCircle
 10
-1643.771090656905
 20
-352.0665418379937
 30
0.0
 40
11.25
100
AcDbArc
 50
90.0
 51
124.6877366740751
  0
ARC
  5
7E5
330
1F
100
AcDbEntity
  8
0
 48
0.7
100
AcDbCircle
 10
-1643.771090656905
 20
-352.0665418379937
 30
0.0
 40
21.25000000000017
100
AcDbArc
 50
90.0
 51
232.6715662576294
  0
LINE
  5
7E6
330
1F
100
AcDbEntity
  8
0
100
AcDbLine
 10
-1593.456731302963
 20
-331.8165418379937
 30
0.0
 11
-1593.456731302963
 21
-339.8165418379937
 31
0.0
  0
LINE
  5
7E7
330
1F
100
AcDbEntity
  8
0
100
AcDbLine
 10
-1625.271090656908
 20
-331.8165418379937
 30
0.0
 11
-1625.271090656908
 21
-339.8165418379937
 31
0.0
  0
LINE
  5
7E8
330
1F
100
AcDbEntity
  8
0
  6
Continuous
100
AcDbLine
 10
-1626.656731302963
 20
-339.8165418379937
 30
0.0
 11
-1625.271090656908
 21
-339.0165418379937
 31
0.0
  0
LINE
  5
7E9
330
1F
100
AcDbEntity
  8
0
  6
Continuous
100
AcDbLine
 10
-1625.271090656908
 20
-332.6165418379936
 30
0.0
 11
-1625.156731302963
 21
-332.6165418379935
 31
0.0
  0
LINE
  5
7EA
330
1F
100
AcDbEntity
  8
0
  6
Continuous
100
AcDbLine
 10
-1626.656731302963
 20
-331.8165418379937
 30
0.0
 11
-1625.271090656908
 21
-332.6165418379936
 31
0.0
  0
LINE
  5
7EB
330
1F
100
AcDbEntity
  8
0
100
AcDbLine
 10
-1592.656731302963
 20
-332.6165418379937
 30
0.0
 11
-1592.656731302963
 21
-339.0165418379937
 31
0.0
  0
LINE
  5
7EC
330
1F
100
AcDbEntity
  8
0
100
AcDbLine
 10
-1593.456731302963
 20
-339.8165418379937
 30
0.0
 11
-1592.656731302963
 21
-339.0165418379937
 31
0.0
  0
LINE
  5
7ED
330
1F
100
AcDbEntity
  8
0
100
AcDbLine
 10
-1629.656731302963
 20
-339.8165418379937
 30
0.0
 11
-1625.156731302963
 21
-339.8165418379938
 31
0.0
  0
LINE
  5
7EE
330
1F
100
AcDbEntity
  8
0
100
AcDbLine
 10
-1593.456731302963
 20
-331.8165418379937
 30
0.0
 11
-1592.656731302963
 21
-332.6165418379937
 31
0.0
  0
LINE
  5
7EF
330
1F
100
AcDbEntity
  8
0
100
AcDbLine
 10
-1629.656731302963
 20
-331.8165418379937
 30
0.0
 11
-1625.156731302963
 21
-331.8165418379938
 31
0.0
  0
LINE
  5
7F0
330
1F
100
AcDbEntity
  8
0
 48
0.7
100
AcDbLine
 10
-1629.656731302963
 20
-331.8165418379937
 30
0.0
 11
-1629.656731302963
 21
-339.8165418379937
 31
0.0
  0
LINE
  5
7F1
330
1F
100
AcDbEntity
  8
0
 48
0.7
100
AcDbLine
 10
-1751.440172155029
 20
-371.6367317454145
 30
0.0
 11
-1744.307382255016
 21
-371.9878844789537
 31
0.0
  0
ARC
  5
7F2
330
1F
100
AcDbEntity
  8
0
 48
0.7
100
AcDbCircle
 10
-1747.701677942293
 20
-368.3165418379936
 30
0.0
 40
5.0
100
AcDbArc
 50
312.7545562183459
 51
0.0
  0
LINE
  5
7F3
330
1F
100
AcDbEntity
  8
0
 48
0.7
100
AcDbLine
 10
-1751.097565180078
 20
-335.6099989166108
 30
0.0
 11
-1752.695629762565
 21
-368.0706857483801
 31
0.0
  0
LINE
  5
7F4
330
1F
100
AcDbEntity
  8
0
 48
0.7
100
AcDbLine
 10
-1741.109661539534
 20
-336.1017110958376
 30
0.0
 11
-1742.707726122021
 21
-368.562397927607
 31
0.0
  0
ARC
  5
7F5
330
1F
100
AcDbEntity
  8
0
 48
0.7
100
AcDbCircle
 10
-1743.701677942293
 20
-370.8165418379936
 30
0.0
 40
2.0
100
AcDbArc
 50
311.3925534668836
 51
0.0
  0
ARC
  5
7F6
330
1F
100
AcDbEntity
  8
0
 48
0.7
100
AcDbCircle
 10
-1751.701677942293
 20
-370.8165418379936
 30
0.0
 40
2.0
100
AcDbArc
 50
180.0
 51
228.6074465331164
  0
LINE
  5
7F7
330
1F
100
AcDbEntity
  8
0
 48
0.7
100
AcDbLine
 10
-1758.401677942293
 20
-343.8165418379937
 30
0.0
 11
-1758.401677942293
 21
-327.8165418379937
 31
0.0
  0
LINE
  5
7F8
330
1F
100
AcDbEntity
  8
0
 48
0.7
100
AcDbLine
 10
-1634.656731302963
 20
-346.8165418379935
 30
0.0
 11
-1617.156731302963
 21
-346.8165418379938
 31
0.0
  0
LINE
  5
7F9
330
1F
100
AcDbEntity
  8
0
 48
0.7
100
AcDbLine
 10
-1741.701677942293
 20
-370.8165418379936
 30
0.0
 11
-1741.701677942293
 21
-345.8165418379937
 31
0.0
  0
LINE
  5
7FA
330
1F
100
AcDbEntity
  8
0
 48
0.7
100
AcDbLine
 10
-1753.701677942293
 20
-370.8165418379936
 30
0.0
 11
-1753.701677942293
 21
-345.8165418379937
 31
0.0
  0
LINE
  5
7FB
330
1F
100
AcDbEntity
  8
0
 48
0.7
100
AcDbLine
 10
-1614.656731302963
 20
-346.8165418379938
 30
0.0
 11
-1614.656731302963
 21
-325.8165418379937
 31
0.0
  0
LINE
  5
7FC
330
1F
100
AcDbEntity
  8
0
 48
0.7
100
AcDbLine
 10
-1617.156731302963
 20
-346.8165418379938
 30
0.0
 11
-1617.156731302963
 21
-325.8165418379937
 31
0.0
  0
LINE
  5
7FD
330
1F
100
AcDbEntity
  8
0
 48
0.7
100
AcDbLine
 10
-1617.156731302963
 20
-325.8165418379937
 30
0.0
 11
-1614.656731302963
 21
-325.8165418379937
 31
0.0
  0
LINE
  5
7FE
330
1F
100
AcDbEntity
  8
0
 48
0.7
100
AcDbLine
 10
-1756.401677942293
 20
-345.8165418379937
 30
0.0
 11
-1753.701677942293
 21
-345.8165418379937
 31
0.0
  0
LINE
  5
7FF
330
1F
100
AcDbEntity
  8
0
 48
0.7
100
AcDbLine
 10
-1756.401677942293
 20
-325.8165418379937
 30
0.0
 11
-1700.301677942293
 21
-325.8165418379936
 31
0.0
  0
LINE
  5
800
330
1F
100
AcDbEntity
  8
0
 48
0.7
100
AcDbLine
 10
-1698.301677942293
 20
-361.3165418379935
 30
0.0
 11
-1698.301677942293
 21
-327.8165418379936
 31
0.0
  0
LINE
  5
801
330
1F
100
AcDbEntity
  8
0
 48
0.7
100
AcDbLine
 10
-1751.649271908515
 20
-346.8165418379935
 30
0.0
 11
-1753.701677942293
 21
-346.8165418379935
 31
0.0
  0
LINE
  5
802
330
1F
100
AcDbEntity
  8
0
 48
0.7
100
AcDbLine
 10
-1741.701677942293
 20
-345.8165418379937
 30
0.0
 11
-1736.656731302962
 21
-345.8165418379937
 31
0.0
  0
LINE
  5
803
330
1F
100
AcDbEntity
  8
0
 48
0.7
100
AcDbLine
 10
-1634.656731302963
 20
-363.3165418379937
 30
0.0
 11
-1634.656731302963
 21
-349.3165418379935
 31
0.0
  0
LINE
  5
804
330
1F
100
AcDbEntity
  8
0
 48
0.7
100
AcDbLine
 10
-1637.156731302963
 20
-363.3165418379937
 30
0.0
 11
-1637.156731302963
 21
-349.3165418379935
 31
0.0
  0
LINE
  5
805
330
1F
100
AcDbEntity
  8
0
 48
0.7
100
AcDbLine
 10
-1721.301677942293
 20
-361.3165418379935
 30
0.0
 11
-1721.301677942293
 21
-345.8165418379937
 31
0.0
  0
LINE
  5
806
330
1F
100
AcDbEntity
  8
0
 48
0.7
100
AcDbLine
 10
-1721.301677942293
 20
-346.8165418379935
 30
0.0
 11
-1698.301677942293
 21
-346.8165418379935
 31
0.0
  0
LINE
  5
807
330
1F
100
AcDbEntity
  8
0
 48
0.7
100
AcDbLine
 10
-1634.656731302963
 20
-349.3165418379937
 30
0.0
 11
-1617.156731302963
 21
-349.3165418379938
 31
0.0
  0
ARC
  5
808
330
1F
100
AcDbEntity
  8
0
 48
0.7
100
AcDbCircle
 10
-1617.156731302963
 20
-346.8165418379938
 30
0.0
 40
2.5
100
AcDbArc
 50
270.0
 51
0.0
  0
ARC
  5
809
330
1F
100
AcDbEntity
  8
0
 48
0.7
100
AcDbCircle
 10
-1634.656731302963
 20
-349.3165418379935
 30
0.0
 40
2.5
100
AcDbArc
 50
90.0
 51
180.0
  0
LINE
  5
80A
330
1F
100
AcDbEntity
  8
0
 48
0.7
100
AcDbLine
 10
-1700.301677942293
 20
-363.3165418379936
 30
0.0
 11
-1719.301677942293
 21
-363.3165418379936
 31
0.0
  0
ARC
  5
80B
330
1F
100
AcDbEntity
  8
0
 48
0.7
100
AcDbCircle
 10
-1719.301677942293
 20
-361.3165418379935
 30
0.0
 40
2.0
100
AcDbArc
 50
180.0
 51
270.0
  0
ARC
  5
80C
330
1F
100
AcDbEntity
  8
0
 48
0.7
100
AcDbCircle
 10
-1700.301677942293
 20
-361.3165418379935
 30
0.0
 40
2.0
100
AcDbArc
 50
270.0
 51
0.0
  0
ARC
  5
80D
330
1F
100
AcDbEntity
  8
0
 48
0.7
100
AcDbCircle
 10
-1700.301677942293
 20
-327.8165418379936
 30
0.0
 40
2.0
100
AcDbArc
 50
0.0
 51
90.0
  0
ARC
  5
80E
330
1F
100
AcDbEntity
  8
0
 48
0.7
100
AcDbCircle
 10
-1756.401677942293
 20
-327.8165418379937
 30
0.0
 40
2.0
100
AcDbArc
 50
90.0
 51
180.0
  0
ARC
  5
80F
330
1F
100
AcDbEntity
  8
0
 48
0.7
100
AcDbCircle
 10
-1756.401677942293
 20
-343.8165418379937
 30
0.0
 40
2.0
100
AcDbArc
 50
180.0
 51
270.0
  0
LINE
  5
810
330
1F
100
AcDbEntity
  8
0
 48
0.7
100
AcDbLine
 10
-1637.156731302963
 20
-363.3165418379937
 30
0.0
 11
-1634.656731302963
 21
-363.3165418379937
 31
0.0
  0
ARC
  5
811
330
1F
100
AcDbEntity
  8
0
 48
0.7
100
AcDbCircle
 10
-1747.701677942293
 20
-368.3165418379936
 30
0.0
 40
5.0
100
AcDbArc
 50
177.1815602191529
 51
221.6085642199575
  0
ARC
  5
812
330
1F
100
AcDbEntity
  8
0
 48
0.7
100
AcDbCircle
 10
-1746.103613359806
 20
-335.8558550062241
 30
0.0
 40
5.0
100
AcDbArc
 50
357.181560219153
 51
179.5494996344061
  0
LINE
  5
813
330
1F
100
AcDbEntity
  8
0
100
AcDbLine
 10
-1752.603613359806
 20
-339.6086317559567
 30
0.0
 11
-1751.330604196567
 21
-340.343603939034
 31
0.0
  0
LINE
  5
814
330
1F
100
AcDbEntity
  8
0
100
AcDbLine
 10
-1752.603613359806
 20
-332.1030782564916
 30
0.0
 11
-1752.603613359806
 21
-339.6086317559567
 31
0.0
  0
LINE
  5
815
330
1F
100
AcDbEntity
  8
0
100
AcDbLine
 10
-1746.103613359806
 20
-328.350301506759
 30
0.0
 11
-1752.603613359806
 21
-332.1030782564916
 31
0.0
  0
LINE
  5
816
330
1F
100
AcDbEntity
  8
0
100
AcDbLine
 10
-1739.603613359806
 20
-332.1030782564916
 30
0.0
 11
-1746.103613359806
 21
-328.350301506759
 31
0.0
  0
LINE
  5
817
330
1F
100
AcDbEntity
  8
0
100
AcDbLine
 10
-1739.603613359806
 20
-339.6086317559567
 30
0.0
 11
-1739.603613359806
 21
-332.1030782564916
 31
0.0
  0
ARC
  5
818
330
1F
100
AcDbEntity
  8
0
 48
0.7
100
AcDbCircle
 10
-1746.103613359806
 20
-335.8558550062241
 30
0.0
 40
8.75
100
AcDbArc
 50
302.031464798199
 51
232.3316556401039
  0
CIRCLE
  5
819
330
1F
100
AcDbEntity
  8
0
 48
0.7
100
AcDbCircle
 10
-1710.601677942293
 20
-335.8558550062241
 30
0.0
 40
9.0
  0
ARC
  5
81A
330
1F
100
AcDbEntity
  8
0
 48
0.7
100
AcDbCircle
 10
-1500.780937608842
 20
-370.1720179607644
 30
0.0
 40
2.0
100
AcDbArc
 50
180.0
 51
270.0
  0
ARC
  5
81B
330
1F
100
AcDbEntity
  8
0
 48
0.7
100
AcDbCircle
 10
-1492.780937608842
 20
-370.1720179607644
 30
0.0
 40
2.0
100
AcDbArc
 50
270.0
 51
0.0
  0
LINE
  5
81C
330
1F
100
AcDbEntity
  8
0
 48
0.7
100
AcDbLine
 10
-1486.080937608842
 20
-343.1720179607646
 30
0.0
 11
-1486.080937608842
 21
-327.1720179607646
 31
0.0
  0
LINE
  5
81D
330
1F
100
AcDbEntity
  8
0
 48
0.7
100
AcDbLine
 10
-1502.780937608842
 20
-370.1720179607644
 30
0.0
 11
-1502.780937608842
 21
-345.1720179607646
 31
0.0
  0
LINE
  5
81E
330
1F
100
AcDbEntity
  8
0
 48
0.7
100
AcDbLine
 10
-1490.780937608842
 20
-370.1720179607644
 30
0.0
 11
-1490.780937608842
 21
-345.1720179607646
 31
0.0
  0
LINE
  5
81F
330
1F
100
AcDbEntity
  8
0
 48
0.7
100
AcDbLine
 10
-1488.080937608842
 20
-345.1720179607646
 30
0.0
 11
-1490.780937608842
 21
-345.1720179607646
 31
0.0
  0
LINE
  5
820
330
1F
100
AcDbEntity
  8
0
 48
0.7
100
AcDbLine
 10
-1488.080937608842
 20
-325.1720179607646
 30
0.0
 11
-1544.180937608842
 21
-325.1720179607645
 31
0.0
  0
LINE
  5
821
330
1F
100
AcDbEntity
  8
0
 48
0.7
100
AcDbLine
 10
-1546.180937608842
 20
-360.6720179607645
 30
0.0
 11
-1546.180937608842
 21
-327.1720179607645
 31
0.0
  0
LINE
  5
822
330
1F
100
AcDbEntity
  8
0
 48
0.7
100
AcDbLine
 10
-1502.780937608842
 20
-345.1720179607645
 30
0.0
 11
-1523.180937608842
 21
-345.1720179607645
 31
0.0
  0
LINE
  5
823
330
1F
100
AcDbEntity
  8
0
 48
0.7
100
AcDbLine
 10
-1523.180937608842
 20
-360.6720179607645
 30
0.0
 11
-1523.180937608842
 21
-345.1720179607645
 31
0.0
  0
LINE
  5
824
330
1F
100
AcDbEntity
  8
0
 48
0.7
100
AcDbLine
 10
-1500.780937608842
 20
-372.1720179607644
 30
0.0
 11
-1497.824424617688
 21
-372.1720179607644
 31
0.0
  0
LINE
  5
825
330
1F
100
AcDbEntity
  8
0
 48
0.7
100
AcDbLine
 10
-1544.180937608842
 20
-362.6720179607645
 30
0.0
 11
-1525.180937608842
 21
-362.6720179607645
 31
0.0
  0
ARC
  5
826
330
1F
100
AcDbEntity
  8
0
 48
0.7
100
AcDbCircle
 10
-1525.180937608842
 20
-360.6720179607645
 30
0.0
 40
2.0
100
AcDbArc
 50
270.0
 51
0.0
  0
ARC
  5
827
330
1F
100
AcDbEntity
  8
0
 48
0.7
100
AcDbCircle
 10
-1544.180937608842
 20
-360.6720179607645
 30
0.0
 40
2.0
100
AcDbArc
 50
180.0
 51
270.0
  0
ARC
  5
828
330
1F
100
AcDbEntity
  8
0
 48
0.7
100
AcDbCircle
 10
-1544.180937608842
 20
-327.1720179607645
 30
0.0
 40
2.0
100
AcDbArc
 50
90.0
 51
180.0
  0
ARC
  5
829
330
1F
100
AcDbEntity
  8
0
 48
0.7
100
AcDbCircle
 10
-1488.080937608842
 20
-327.1720179607646
 30
0.0
 40
2.0
100
AcDbArc
 50
0.0
 51
90.0
  0
ARC
  5
82A
330
1F
100
AcDbEntity
  8
0
 48
0.7
100
AcDbCircle
 10
-1488.080937608842
 20
-343.1720179607646
 30
0.0
 40
2.0
100
AcDbArc
 50
270.0
 51
0.0
  0
LINE
  5
82B
330
1F
100
AcDbEntity
  8
0
100
AcDbLine
 10
-1491.879002191329
 20
-338.9641078787275
 30
0.0
 11
-1498.379002191329
 21
-342.7168846284602
 31
0.0
  0
LINE
  5
82C
330
1F
100
AcDbEntity
  8
0
100
AcDbLine
 10
-1491.879002191329
 20
-331.4585543792624
 30
0.0
 11
-1491.879002191329
 21
-338.9641078787275
 31
0.0
  0
LINE
  5
82D
330
1F
100
AcDbEntity
  8
0
100
AcDbLine
 10
-1498.379002191329
 20
-327.70577762953
 30
0.0
 11
-1491.879002191329
 21
-331.4585543792624
 31
0.0
  0
LINE
  5
82E
330
1F
100
AcDbEntity
  8
0
100
AcDbLine
 10
-1504.879002191329
 20
-331.4585543792625
 30
0.0
 11
-1498.379002191329
 21
-327.70577762953
 31
0.0
  0
LINE
  5
82F
330
1F
100
AcDbEntity
  8
0
100
AcDbLine
 10
-1504.879002191329
 20
-338.9641078787276
 30
0.0
 11
-1504.879002191329
 21
-331.4585543792625
 31
0.0
  0
LINE
  5
830
330
1F
100
AcDbEntity
  8
0
100
AcDbLine
 10
-1498.379002191329
 20
-342.7168846284602
 30
0.0
 11
-1504.879002191329
 21
-338.9641078787276
 31
0.0
  0
CIRCLE
  5
831
330
1F
100
AcDbEntity
  8
0
100
AcDbCircle
 10
-1498.379002191329
 20
-335.2113311289951
 30
0.0
 40
6.5
  0
LINE
  5
832
330
1F
100
AcDbEntity
  8
0
 48
0.7
100
AcDbLine
 10
-1546.180937608842
 20
-348.6720179607645
 30
0.0
 11
-1523.180937608842
 21
-348.6720179607645
 31
0.0
  0
LINE
  5
833
330
1F
100
AcDbEntity
  8
0
 48
0.7
100
AcDbLine
 10
-1502.780937608842
 20
-348.6720179607645
 30
0.0
 11
-1490.780937608842
 21
-348.6720179607645
 31
0.0
  0
LINE
  5
834
330
1F
100
AcDbEntity
  8
0
100
AcDbLine
 10
-1527.380937608842
 20
-338.9641078787276
 30
0.0
 11
-1533.880937608842
 21
-342.7168846284602
 31
0.0
  0
LINE
  5
835
330
1F
100
AcDbEntity
  8
0
100
AcDbLine
 10
-1527.380937608842
 20
-331.4585543792625
 30
0.0
 11
-1527.380937608842
 21
-338.9641078787276
 31
0.0
  0
LINE
  5
836
330
1F
100
AcDbEntity
  8
0
100
AcDbLine
 10
-1533.880937608842
 20
-327.70577762953
 30
0.0
 11
-1527.380937608842
 21
-331.4585543792625
 31
0.0
  0
LINE
  5
837
330
1F
100
AcDbEntity
  8
0
100
AcDbLine
 10
-1540.380937608842
 20
-331.4585543792625
 30
0.0
 11
-1533.880937608842
 21
-327.70577762953
 31
0.0
  0
LINE
  5
838
330
1F
100
AcDbEntity
  8
0
100
AcDbLine
 10
-1540.380937608842
 20
-338.9641078787276
 30
0.0
 11
-1540.380937608842
 21
-331.4585543792625
 31
0.0
  0
LINE
  5
839
330
1F
100
AcDbEntity
  8
0
100
AcDbLine
 10
-1533.880937608842
 20
-342.7168846284602
 30
0.0
 11
-1540.380937608842
 21
-338.9641078787276
 31
0.0
  0
CIRCLE
  5
83A
330
1F
100
AcDbEntity
  8
0
100
AcDbCircle
 10
-1533.880937608842
 20
-335.2113311289951
 30
0.0
 40
6.5
  0
LINE
  5
83B
330
1F
100
AcDbEntity
  8
0
100
AcDbLine
 10
-1542.880937608842
 20
-345.2113311289951
 30
0.0
 11
-1489.380937608842
 21
-345.2113311289951
 31
0.0
  0
LINE
  5
83C
330
1F
100
AcDbEntity
  8
0
100
AcDbLine
 10
-1542.880937608842
 20
-325.2113311289951
 30
0.0
 11
-1489.380937608842
 21
-325.2113311289951
 31
0.0
  0
LINE
  5
83D
330
1F
100
AcDbEntity
  8
0
100
AcDbLine
 10
-1545.880937608842
 20
-328.2113311289951
 30
0.0
 11
-1545.880937608842
 21
-342.2113311289951
 31
0.0
  0
ARC
  5
83E
330
1F
100
AcDbEntity
  8
0
100
AcDbCircle
 10
-1542.880937608842
 20
-342.2113311289951
 30
0.0
 40
3.0
100
AcDbArc
 50
180.0
 51
270.0
  0
CIRCLE
  5
83F
330
1F
100
AcDbEntity
  8
0
100
AcDbCircle
 10
-1533.880937608842
 20
-335.2113311289951
 30
0.0
 40
4.5
  0
ARC
  5
840
330
1F
100
AcDbEntity
  8
0
100
AcDbCircle
 10
-1542.880937608842
 20
-328.2113311289951
 30
0.0
 40
3.0
100
AcDbArc
 50
90.0
 51
180.0
  0
LINE
  5
841
330
1F
100
AcDbEntity
  8
0
100
AcDbLine
 10
-1486.380937608842
 20
-328.2113311289951
 30
0.0
 11
-1486.380937608842
 21
-342.2113311289951
 31
0.0
  0
LINE
  5
842
330
1F
100
AcDbEntity
  8
0
100
AcDbLine
 10
-1608.807582608228
 20
-325.8165418379937
 30
0.0
 11
-1608.807582608228
 21
-345.8165418379937
 31
0.0
  0
LINE
  5
843
330
1F
100
AcDbEntity
  8
0
100
AcDbLine
 10
-1612.007582608228
 20
-325.8165418379937
 30
0.0
 11
-1612.007582608228
 21
-345.8165418379937
 31
0.0
  0
ARC
  5
844
330
1F
100
AcDbEntity
  8
0
100
AcDbCircle
 10
-1489.380937608842
 20
-342.2113311289951
 30
0.0
 40
3.0
100
AcDbArc
 50
270.0
 51
0.0
  0
LINE
  5
845
330
1F
100
AcDbEntity
  8
0
100
AcDbLine
 10
-1612.007582608228
 20
-345.8165418379937
 30
0.0
 11
-1608.807582608228
 21
-345.8165418379937
 31
0.0
  0
CIRCLE
  5
846
330
1F
100
AcDbEntity
  8
0
100
AcDbCircle
 10
-1498.380937608842
 20
-335.2113311289951
 30
0.0
 40
4.5
  0
ARC
  5
847
330
1F
100
AcDbEntity
  8
0
100
AcDbCircle
 10
-1489.380937608842
 20
-328.2113311289951
 30
0.0
 40
3.0
100
AcDbArc
 50
0.0
 51
90.0
  0
LINE
  5
848
330
1F
100
AcDbEntity
  8
0
100
AcDbLine
 10
-1612.007582608228
 20
-325.8165418379937
 30
0.0
 11
-1608.807582608228
 21
-325.8165418379937
 31
0.0
  0
LINE
  5
849
330
1F
100
AcDbEntity
  8
0
100
AcDbLine
 10
-1603.473281429734
 20
-343.2915418379931
 30
0.0
 11
-1598.099114454655
 21
-343.2915418379931
 31
0.0
  0
LINE
  5
84A
330
1F
100
AcDbEntity
  8
0
100
AcDbLine
 10
-1598.099114454654
 20
-339.5665418379941
 30
0.0
 11
-1603.473281429734
 21
-339.5665418379941
 31
0.0
  0
LINE
  5
84B
330
1F
100
AcDbEntity
  8
0
100
AcDbLine
 10
-1598.099114454654
 20
-332.0665418379932
 30
0.0
 11
-1603.473281429734
 21
-332.0665418379932
 31
0.0
  0
LINE
  5
84C
330
1F
100
AcDbEntity
  8
0
100
AcDbLine
 10
-1603.473281429734
 20
-328.3415418379933
 30
0.0
 11
-1598.099114454655
 21
-328.3415418379933
 31
0.0
  0
ARC
  5
84D
330
1F
100
AcDbEntity
  8
0
100
AcDbCircle
 10
-1600.875474142616
 20
-333.8720897571003
 30
0.0
 40
3.163638093902946
100
AcDbArc
 50
145.1996308882246
 51
177.540514413812
  0
LINE
  5
84E
330
1F
100
AcDbEntity
  8
0
100
AcDbLine
 10
-1604.036197942195
 20
-342.3165418379937
 30
0.0
 11
-1604.036197942195
 21
-329.3165418379937
 31
0.0
  0
LINE
  5
84F
330
1F
100
AcDbEntity
  8
0
100
AcDbLine
 10
-1604.036197942195
 20
-342.3165418379937
 30
0.0
 11
-1603.473281429734
 21
-343.2915418379931
 31
0.0
  0
ARC
  5
850
330
1F
100
AcDbEntity
  8
0
100
AcDbCircle
 10
-1601.245983641597
 20
-341.4159826459874
 30
0.0
 40
2.895045205055748
100
AcDbArc
 50
140.2953929040509
 51
164.5341458696773
  0
ARC
  5
851
330
1F
100
AcDbEntity
  8
0
100
AcDbCircle
 10
-1600.790361402148
 20
-337.732300816324
 30
0.0
 40
3.249999999999971
100
AcDbArc
 50
182.9004776264971
 51
214.3593770713987
  0
ARC
  5
852
330
1F
100
AcDbEntity
  8
0
100
AcDbCircle
 10
-1600.925013702962
 20
-330.0494073375977
 30
0.0
 40
3.249999999999943
100
AcDbArc
 50
196.806350097801
 51
218.3641111283935
  0
LINE
  5
853
330
1F
100
AcDbEntity
  8
0
100
AcDbLine
 10
-1604.036197942195
 20
-329.3165418379937
 30
0.0
 11
-1603.473281429734
 21
-328.3415418379933
 31
0.0
  0
ARC
  5
854
330
1F
100
AcDbEntity
  8
0
100
AcDbCircle
 10
-1600.782034482241
 20
-333.9007828596651
 30
0.0
 40
3.25
100
AcDbArc
 50
2.9004776265563
 51
34.35937707144563
  0
LINE
  5
855
330
1F
100
AcDbEntity
  8
0
100
AcDbLine
 10
-1597.536197942195
 20
-342.3165418379937
 30
0.0
 11
-1597.536197942195
 21
-329.3165418379937
 31
0.0
  0
LINE
  5
856
330
1F
100
AcDbEntity
  8
0
100
AcDbLine
 10
-1597.536197942195
 20
-342.3165418379937
 30
0.0
 11
-1598.099114454655
 21
-343.2915418379931
 31
0.0
  0
ARC
  5
857
330
1F
100
AcDbEntity
  8
0
100
AcDbCircle
 10
-1600.647382181426
 20
-341.5836763383924
 30
0.0
 40
3.249999999999971
100
AcDbArc
 50
16.80635009787341
 51
38.36411112843519
  0
ARC
  5
858
330
1F
100
AcDbEntity
  8
0
100
AcDbCircle
 10
-1600.696921741775
 20
-337.760993918888
 30
0.0
 40
3.163638093904615
100
AcDbArc
 50
325.1996308882663
 51
357.5405144138575
  0
ARC
  5
859
330
1F
100
AcDbEntity
  8
0
100
AcDbCircle
 10
-1600.326412242793
 20
-330.21710103
 30
0.0
 40
2.895045205056399
100
AcDbArc
 50
320.2953929040743
 51
344.5341458697185
  0
LINE
  5
85A
330
1F
100
AcDbEntity
  8
0
100
AcDbLine
 10
-1597.536197942195
 20
-329.3165418379937
 30
0.0
 11
-1598.099114454655
 21
-328.3415418379933
 31
0.0
  0
LINE
  5
85B
330
1F
100
AcDbEntity
  8
0
100
AcDbLine
 10
-1606.112270329022
 20
-343.3448856880478
 30
0.0
 11
-1608.112270329022
 21
-343.3448856880478
 31
0.0
  0
LINE
  5
85C
330
1F
100
AcDbEntity
  8
0
100
AcDbLine
 10
-1606.612270329022
 20
-336.644885688048
 30
0.0
 11
-1608.612270329022
 21
-336.644885688048
 31
0.0
  0
LINE
  5
85D
330
1F
100
AcDbEntity
  8
0
100
AcDbLine
 10
-1608.112270329022
 20
-343.3448856880478
 30
0.0
 11
-1608.612270329022
 21
-336.644885688048
 31
0.0
  0
LINE
  5
85E
330
1F
100
AcDbEntity
  8
0
100
AcDbLine
 10
-1604.612270329022
 20
-334.644885688048
 30
0.0
 11
-1606.612270329022
 21
-334.644885688048
 31
0.0
  0
LINE
  5
85F
330
1F
100
AcDbEntity
  8
0
100
AcDbLine
 10
-1605.112270329022
 20
-327.9448856880478
 30
0.0
 11
-1607.112270329022
 21
-327.9448856880478
 31
0.0
  0
LINE
  5
860
330
1F
100
AcDbEntity
  8
0
100
AcDbLine
 10
-1607.112270329022
 20
-327.9448856880478
 30
0.0
 11
-1606.612270329022
 21
-334.644885688048
 31
0.0
  0
LINE
  5
861
330
1F
100
AcDbEntity
  8
0
100
AcDbLine
 10
-1606.112270329022
 20
-343.3448856880478
 30
0.0
 11
-1606.612270329022
 21
-336.644885688048
 31
0.0
  0
LINE
  5
862
330
1F
100
AcDbEntity
  8
0
100
AcDbLine
 10
-1606.112270329022
 20
-343.3448856880478
 30
0.0
 11
-1605.883157092005
 21
-339.8165418379938
 31
0.0
  0
LINE
  5
863
330
1F
100
AcDbEntity
  8
0
100
AcDbLine
 10
-1605.112270329022
 20
-327.9448856880478
 30
0.0
 11
-1604.612270329022
 21
-334.644885688048
 31
0.0
  0
LINE
  5
864
330
1F
100
AcDbEntity
  8
0
100
AcDbLine
 10
-1527.487407921237
 20
-334.0396749790494
 30
0.0
 11
-1526.246148810192
 21
-334.0396749790494
 31
0.0
  0
LINE
  5
865
330
1F
100
AcDbEntity
  8
0
100
AcDbLine
 10
-1527.433934703144
 20
-336.0396749790494
 30
0.0
 11
-1526.246148810192
 21
-336.0396749790494
 31
0.0
  0
ARC
  5
866
330
1F
100
AcDbEntity
  8
0
100
AcDbCircle
 10
-1533.880937608842
 20
-335.0396749790492
 30
0.0
 40
7.7
100
AcDbArc
 50
7.46208768561957
 51
352.5379123143804
  0
ARC
  5
867
330
1F
100
AcDbEntity
  8
0
100
AcDbCircle
 10
-1498.379002191329
 20
-335.2113311289951
 30
0.0
 40
7.7
100
AcDbArc
 50
7.46208768561957
 51
352.5379123143804
  0
LINE
  5
868
330
1F
100
AcDbEntity
  8
0
100
AcDbLine
 10
-1491.956385901997
 20
-334.2113311289953
 30
0.0
 11
-1490.744213392679
 21
-334.2113311289953
 31
0.0
  0
LINE
  5
869
330
1F
100
AcDbEntity
  8
0
100
AcDbLine
 10
-1491.956385901997
 20
-336.2113311289953
 30
0.0
 11
-1490.744213392679
 21
-336.2113311289953
 31
0.0
  0
LINE
  5
86A
330
1F
100
AcDbEntity
  8
0
100
AcDbLine
 10
-1613.656731302963
 20
-343.8165418379937
 30
0.0
 11
-1614.656731302963
 21
-343.8165418379937
 31
0.0
  0
LINE
  5
86B
330
1F
100
AcDbEntity
  8
0
100
AcDbLine
 10
-1613.656731302963
 20
-324.8165418379937
 30
0.0
 11
-1614.656731302963
 21
-324.8165418379937
 31
0.0
  0
LINE
  5
86C
330
1F
100
AcDbEntity
  8
0
100
AcDbLine
 10
-1614.656731302963
 20
-343.8165418379937
 30
0.0
 11
-1614.656731302963
 21
-324.8165418379937
 31
0.0
  0
LINE
  5
86D
330
1F
100
AcDbEntity
  8
0
100
AcDbLine
 10
-1613.656731302963
 20
-343.8165418379937
 30
0.0
 11
-1613.656731302963
 21
-324.8165418379937
 31
0.0
  0
CIRCLE
  5
86E
330
1F
100
AcDbEntity
  8
0
 48
0.7
100
AcDbCircle
 10
-1533.880937608842
 20
-335.2113311289951
 30
0.0
 40
3.239313168230722
  0
CIRCLE
  5
86F
330
1F
100
AcDbEntity
  8
0
 48
0.7
100
AcDbCircle
 10
-1498.379002191329
 20
-335.2113311289951
 30
0.0
 40
3.239313168230694
  0
CIRCLE
  5
870
330
1F
100
AcDbEntity
  8
0
 48
0.7
100
AcDbCircle
 10
-1496.780937608842
 20
-367.6720179607645
 30
0.0
 40
4.7
  0
ARC
  5
871
330
1F
100
AcDbEntity
  8
0
100
AcDbCircle
 10
-1495.680937608843
 20
-366.572017960765
 30
0.0
 40
0.5
100
AcDbArc
 50
180.0
 51
270.0
  0
LINE
  5
872
330
1F
100
AcDbEntity
  8
0
100
AcDbLine
 10
-1495.680937608843
 20
-368.2720179607648
 30
0.0
 11
-1494.280937608842
 21
-368.2720179607648
 31
0.0
  0
LINE
  5
873
330
1F
100
AcDbEntity
  8
0
100
AcDbLine
 10
-1495.680937608843
 20
-367.072017960765
 30
0.0
 11
-1494.280937608842
 21
-367.072017960765
 31
0.0
  0
ARC
  5
874
330
1F
100
AcDbEntity
  8
0
100
AcDbCircle
 10
-1495.680937608843
 20
-368.7720179607648
 30
0.0
 40
0.5
100
AcDbArc
 50
90.0
 51
180.0
  0
LINE
  5
875
330
1F
100
AcDbEntity
  8
0
100
AcDbLine
 10
-1494.280937608842
 20
-368.2720179607648
 30
0.0
 11
-1494.280937608842
 21
-367.072017960765
 31
0.0
  0
ARC
  5
876
330
1F
100
AcDbEntity
  8
0
100
AcDbCircle
 10
-1497.880937608842
 20
-366.572017960765
 30
0.0
 40
0.5
100
AcDbArc
 50
270.0
 51
0.0
  0
LINE
  5
877
330
1F
100
AcDbEntity
  8
0
100
AcDbLine
 10
-1497.380937608842
 20
-370.1720179607648
 30
0.0
 11
-1497.380937608842
 21
-368.7720179607648
 31
0.0
  0
LINE
  5
878
330
1F
100
AcDbEntity
  8
0
100
AcDbLine
 10
-1499.280937608842
 20
-367.072017960765
 30
0.0
 11
-1497.880937608842
 21
-367.072017960765
 31
0.0
  0
LINE
  5
879
330
1F
100
AcDbEntity
  8
0
100
AcDbLine
 10
-1499.280937608842
 20
-368.2720179607648
 30
0.0
 11
-1499.280937608842
 21
-367.072017960765
 31
0.0
  0
LINE
  5
87A
330
1F
100
AcDbEntity
  8
0
100
AcDbLine
 10
-1499.280937608842
 20
-368.2720179607648
 30
0.0
 11
-1497.880937608842
 21
-368.2720179607648
 31
0.0
  0
ARC
  5
87B
330
1F
100
AcDbEntity
  8
0
100
AcDbCircle
 10
-1497.880937608842
 20
-368.7720179607648
 30
0.0
 40
0.5
100
AcDbArc
 50
0.0
 51
90.0
  0
LINE
  5
87C
330
1F
100
AcDbEntity
  8
0
100
AcDbLine
 10
-1497.380937608842
 20
-370.1720179607648
 30
0.0
 11
-1496.180937608843
 21
-370.1720179607648
 31
0.0
  0
LINE
  5
87D
330
1F
100
AcDbEntity
  8
0
100
AcDbLine
 10
-1496.180937608842
 20
-370.1720179607648
 30
0.0
 11
-1496.180937608842
 21
-368.7720179607648
 31
0.0
  0
LINE
  5
87E
330
1F
100
AcDbEntity
  8
0
100
AcDbLine
 10
-1497.380937608842
 20
-365.172017960765
 30
0.0
 11
-1496.180937608843
 21
-365.172017960765
 31
0.0
  0
LINE
  5
87F
330
1F
100
AcDbEntity
  8
0
100
AcDbLine
 10
-1496.180937608843
 20
-366.572017960765
 30
0.0
 11
-1496.180937608843
 21
-365.172017960765
 31
0.0
  0
LINE
  5
880
330
1F
100
AcDbEntity
  8
0
100
AcDbLine
 10
-1497.380937608842
 20
-366.572017960765
 30
0.0
 11
-1497.380937608842
 21
-365.172017960765
 31
0.0
  0
INSERT
  5
881
330
1F
100
AcDbEntity
  8
0
100
AcDbBlockReference
  2
SUG-AR04
 10
-1496.732381438559
 20
-368.7328543952557
 30
0.0
 41
-0.5
 42
0.5
 50
180.0
  0
LINE
  5
882
330
1F
100
AcDbEntity
  8
0
 48
0.7
100
AcDbLine
 10
-1617.656731302963
 20
-326.8558550062244
 30
0.0
 11
-1617.156731302963
 21
-326.8558550062244
 31
0.0
  0
LINE
  5
883
330
1F
100
AcDbEntity
  8
0
 48
0.7
100
AcDbLine
 10
-1617.156731302963
 20
-326.8558550062244
 30
0.0
 11
-1617.156731302963
 21
-344.8558550062244
 31
0.0
  0
LINE
  5
884
330
1F
100
AcDbEntity
  8
0
 48
0.7
100
AcDbLine
 10
-1617.656731302963
 20
-344.8558550062245
 30
0.0
 11
-1617.156731302963
 21
-344.8558550062244
 31
0.0
  0
LINE
  5
885
330
1F
100
AcDbEntity
  8
0
 48
0.7
100
AcDbLine
 10
-1617.656731302963
 20
-326.8558550062244
 30
0.0
 11
-1617.656731302963
 21
-344.8558550062244
 31
0.0
  0
LINE
  5
886
330
1F
100
AcDbEntity
  8
0
 48
0.7
100
AcDbLine
 10
-1618.656731302963
 20
-326.8558550062244
 30
0.0
 11
-1618.656731302963
 21
-344.8558550062244
 31
0.0
  0
LINE
  5
887
330
1F
100
AcDbEntity
  8
0
 48
0.7
100
AcDbLine
 10
-1617.656731302963
 20
-326.8558550062244
 30
0.0
 11
-1617.656731302963
 21
-344.8558550062244
 31
0.0
  0
LINE
  5
888
330
1F
100
AcDbEntity
  8
0
 48
0.7
100
AcDbLine
 10
-1618.656731302963
 20
-326.8558550062244
 30
0.0
 11
-1617.656731302963
 21
-326.8558550062244
 31
0.0
  0
LINE
  5
889
330
1F
100
AcDbEntity
  8
0
 48
0.7
100
AcDbLine
 10
-1618.656731302963
 20
-344.8558550062244
 30
0.0
 11
-1617.656731302963
 21
-344.8558550062244
 31
0.0
  0
ARC
  5
88A
330
1F
100
AcDbEntity
  8
0
 48
0.7
100
AcDbCircle
 10
-1609.899039924699
 20
-335.8558550062245
 30
0.0
 40
12.5577529151084
100
AcDbArc
 50
134.2182317223844
 51
225.7817682776156
  0
LINE
  5
88B
330
1F
100
AcDbEntity
  8
0
100
AcDbLine
 10
-1613.656731302963
 20
-331.8165418379937
 30
0.0
 11
-1612.007582608228
 21
-331.8165418379937
 31
0.0
  0
LINE
  5
88C
330
1F
100
AcDbEntity
  8
0
100
AcDbLine
 10
-1613.656731302963
 20
-339.8165418379937
 30
0.0
 11
-1612.007582608228
 21
-339.8165418379938
 31
0.0
  0
LINE
  5
88D
330
1F
100
AcDbEntity
  8
0
  6
Continuous
100
AcDbLine
 10
-1613.656731302963
 20
-332.6165418379936
 30
0.0
 11
-1612.007582608228
 21
-332.6165418379937
 31
0.0
  0
LINE
  5
88E
330
1F
100
AcDbEntity
  8
0
  6
Continuous
100
AcDbLine
 10
-1613.656731302963
 20
-339.0165418379937
 30
0.0
 11
-1612.007582608228
 21
-339.0165418379937
 31
0.0
  0
CIRCLE
  5
88F
330
1F
100
AcDbEntity
  8
0
100
AcDbCircle
 10
-1636.156731302967
 20
-390.3165418379923
 30
0.0
 40
8.0
  0
ARC
  5
890
330
1F
100
AcDbEntity
  8
0
100
AcDbCircle
 10
-1636.156731302967
 20
-390.3165418379923
 30
0.0
 40
8.15
100
AcDbArc
 50
191.00963218917
 51
348.9903678108301
  0
CIRCLE
  5
891
330
1F
100
AcDbEntity
  8
0
100
AcDbCircle
 10
-1636.156731302967
 20
-390.3165418379923
 30
0.0
 40
11.1
  0
ARC
  5
892
330
1F
100
AcDbEntity
  8
0
100
AcDbCircle
 10
-1636.156731302967
 20
-390.3165418379973
 30
0.0
 40
4.049999999999999
100
AcDbArc
 50
37.22213389691734
 51
142.7778661030826
  0
ARC
  5
893
330
1F
100
AcDbEntity
  8
0
100
AcDbCircle
 10
-1636.156731302967
 20
-390.3165418379973
 30
0.0
 40
3.549999999999999
100
AcDbArc
 50
39.86063894693126
 51
140.1393610530687
  0
ARC
  5
894
330
1F
100
AcDbEntity
  8
0
100
AcDbCircle
 10
-1636.156731302967
 20
-390.3165418379973
 30
0.0
 40
4.049999999999999
100
AcDbArc
 50
217.2221338969174
 51
322.7778661030827
  0
ARC
  5
895
330
1F
100
AcDbEntity
  8
0
100
AcDbCircle
 10
-1636.156731302967
 20
-390.3165418379973
 30
0.0
 40
3.549999999999999
100
AcDbArc
 50
219.8606389469312
 51
320.1393610530687
  0
LINE
  5
896
330
1F
100
AcDbEntity
  8
0
100
AcDbLine
 10
-1638.881731302967
 20
-388.0412671293083
 30
0.0
 11
-1638.881731302967
 21
-392.5918165466864
 31
0.0
  0
LINE
  5
897
330
1F
100
AcDbEntity
  8
0
100
AcDbLine
 10
-1639.381731302967
 20
-387.866669392338
 30
0.0
 11
-1639.381731302967
 21
-392.7664142836567
 31
0.0
  0
LINE
  5
898
330
1F
100
AcDbEntity
  8
0
100
AcDbLine
 10
-1632.931731302967
 20
-387.8666693923382
 30
0.0
 11
-1632.931731302967
 21
-392.7664142836564
 31
0.0
  0
LINE
  5
899
330
1F
100
AcDbEntity
  8
0
100
AcDbLine
 10
-1633.431731302967
 20
-388.0412671293083
 30
0.0
 11
-1633.431731302967
 21
-392.5918165466866
 31
0.0
  0
TEXT
  5
89A
330
1F
100
AcDbEntity
  8
0
100
AcDbText
 10
-1637.671278535641
 20
-387.7627991918861
 30
0.0
 40
3.0
  1
41
 50
270.0
  7
SIMPLEX
100
AcDbText
  0
LINE
  5
89B
330
1F
100
AcDbEntity
  8
0
100
AcDbLine
 10
-1656.656731302962
 20
-376.8165418379926
 30
0.0
 11
-1656.656731302961
 21
-366.8160508209957
 31
0.0
  0
ARC
  5
89C
330
1F
100
AcDbEntity
  8
0
100
AcDbCircle
 10
-1631.63632101429
 20
-396.8165418379923
 30
0.0
 40
20.0
100
AcDbArc
 50
191.5369590328117
 51
270.0
  0
ARC
  5
89D
330
1F
100
AcDbEntity
  8
0
100
AcDbCircle
 10
-1533.656731302962
 20
-376.8165418379969
 30
0.0
 40
120.0
100
AcDbArc
 50
184.3491051541909
 51
191.5369590328117
  0
LINE
  5
89E
330
1F
100
AcDbEntity
  8
0
100
AcDbLine
 10
-1651.811318363602
 20
-397.7806434531298
 30
0.0
 11
-1644.372398474834
 21
-397.7806434531301
 31
0.0
  0
ARC
  5
89F
330
1F
100
AcDbEntity
  8
0
100
AcDbCircle
 10
-1533.656731302962
 20
-376.8165418379969
 30
0.0
 40
117.0
100
AcDbArc
 50
179.9999999999935
 51
182.7317272935859
  0
LINE
  5
8A0
330
1F
100
AcDbEntity
  8
0
100
AcDbLine
 10
-1654.918802866993
 20
-385.91654183799
 30
0.0
 11
-1653.311192147513
 21
-385.91654183799
 31
0.0
  0
LINE
  5
8A1
330
1F
100
AcDbEntity
  8
0
100
AcDbLine
 10
-1648.756731302962
 20
-390.3165418379905
 30
0.0
 11
-1652.894938267006
 21
-390.3165418379905
 31
0.0
  0
ARC
  5
8A2
330
1F
100
AcDbEntity
  8
0
100
AcDbCircle
 10
-1654.918802866993
 20
-384.4165418379899
 30
0.0
 40
1.5
100
AcDbArc
 50
183.5862747903859
 51
270.0
  0
LINE
  5
8A3
330
1F
100
AcDbEntity
  8
0
100
AcDbLine
 10
-1656.505378019155
 20
-382.9165418379899
 30
0.0
 11
-1651.023208629328
 21
-382.9165418379899
 31
0.0
  0
ARC
  5
8A4
330
1F
100
AcDbEntity
  8
0
100
AcDbCircle
 10
-1533.656731302962
 20
-376.8165418379969
 30
0.0
 40
123.0
100
AcDbArc
 50
180.0
 51
183.5862747903859
  0
ARC
  5
8A5
330
1F
100
AcDbEntity
  8
0
100
AcDbCircle
 10
-1651.023208629328
 20
-382.4165418379899
 30
0.0
 40
0.5
100
AcDbArc
 50
270.0
 51
2.731727293585891
  0
LINE
  5
8A6
330
1F
100
AcDbEntity
  8
0
100
AcDbLine
 10
-1613.656731302963
 20
-416.8165418379932
 30
0.0
 11
-1613.656731302962
 21
-400.8165418379932
 31
0.0
  0
LINE
  5
8A7
330
1F
100
AcDbEntity
  8
0
100
AcDbLine
 10
-1613.656731302963
 20
-416.8165418379932
 30
0.0
 11
-1631.636321014291
 21
-416.8165418379922
 31
0.0
  0
LINE
  5
8A8
330
1F
100
AcDbEntity
  8
0
100
AcDbLine
 10
-1627.941064131101
 20
-397.7806434531307
 30
0.0
 11
-1622.656731302962
 21
-397.7806434531309
 31
0.0
  0
LINE
  5
8A9
330
1F
100
AcDbEntity
  8
0
100
AcDbLine
 10
-1613.656731302962
 20
-400.8165418379932
 30
0.0
 11
-1622.656731302962
 21
-400.8165418379932
 31
0.0
  0
LINE
  5
8AA
330
1F
100
AcDbEntity
  8
0
100
AcDbLine
 10
-1622.656731302962
 20
-390.3165418379905
 30
0.0
 11
-1623.556731302962
 21
-390.3165418379905
 31
0.0
  0
LINE
  5
8AB
330
1F
100
AcDbEntity
  8
0
100
AcDbLine
 10
-1613.656731302963
 20
-400.8165418379932
 30
0.0
 11
-1613.656731302963
 21
-416.316935861388
 31
0.0
  0
ARC
  5
8AC
330
1F
100
AcDbEntity
  8
0
100
AcDbCircle
 10
-1640.656731302957
 20
-347.3160508210077
 30
0.0
 40
7.0
100
AcDbArc
 50
40.00520088486839
 51
139.9947991151316
  0
LINE
  5
8AD
330
1F
100
AcDbEntity
  8
0
100
AcDbLine
 10
-1635.294828655571
 20
-342.8160508210041
 30
0.0
 11
-1622.65673130296
 21
-342.816050821005
 31
0.0
  0
LINE
  5
8AE
330
1F
100
AcDbEntity
  8
0
100
AcDbLine
 10
-1650.656731302962
 20
-376.8165418379937
 30
0.0
 11
-1650.656731302961
 21
-366.8160508210036
 31
0.0
  0
ARC
  5
8AF
330
1F
100
AcDbEntity
  8
0
100
AcDbCircle
 10
-1533.656731302961
 20
-366.8160508210086
 30
0.0
 40
117.0
100
AcDbArc
 50
168.162995844102
 51
179.9999999999935
  0
LINE
  5
8B0
330
1F
100
AcDbEntity
  8
0
100
AcDbLine
 10
-1622.656731302962
 20
-400.816541837995
 30
0.0
 11
-1622.656731302961
 21
-349.3165418379937
 31
0.0
  0
ARC
  5
8B1
330
1F
100
AcDbEntity
  8
0
100
AcDbCircle
 10
-1651.804943308053
 20
-345.816050821002
 30
0.0
 40
3.0
100
AcDbArc
 50
89.99999999997395
 51
169.9213418922076
  0
ARC
  5
8B2
330
1F
100
AcDbEntity
  8
0
100
AcDbCircle
 10
-1533.656731302962
 20
-366.8160508210018
 30
0.0
 40
123.0
100
AcDbArc
 50
169.9213418922076
 51
180.0
  0
LINE
  5
8B3
330
1F
100
AcDbEntity
  8
0
100
AcDbLine
 10
-1651.804943308052
 20
-342.8160508210023
 30
0.0
 11
-1646.018633950343
 21
-342.8160508210041
 31
0.0
  0
LINE
  5
8B4
330
1F
100
AcDbEntity
  8
0
100
AcDbLine
 10
-1590.563757909659
 20
-408.8165418379936
 30
0.0
 11
-1590.563757909659
 21
-403.8165418379937
 31
0.0
  0
LINE
  5
8B5
330
1F
100
AcDbEntity
  8
0
100
AcDbLine
 10
-1592.063757909659
 20
-402.3165418379936
 30
0.0
 11
-1590.563757909659
 21
-403.8165418379937
 31
0.0
  0
LINE
  5
8B6
330
1F
100
AcDbEntity
  8
0
100
AcDbLine
 10
-1597.418902751112
 20
-402.5665418379932
 30
0.0
 11
-1602.793069726192
 21
-402.5665418379932
 31
0.0
  0
LINE
  5
8B7
330
1F
100
AcDbEntity
  8
0
100
AcDbLine
 10
-1602.793069726192
 20
-398.8415418379933
 30
0.0
 11
-1597.418902751112
 21
-398.8415418379933
 31
0.0
  0
LINE
  5
8B8
330
1F
100
AcDbEntity
  8
0
100
AcDbLine
 10
-1597.418902751112
 20
-410.0665418379941
 30
0.0
 11
-1602.793069726192
 21
-410.0665418379941
 31
0.0
  0
LINE
  5
8B9
330
1F
100
AcDbEntity
  8
0
100
AcDbLine
 10
-1604.615726498392
 20
-402.3165418379936
 30
0.0
 11
-1604.855986238652
 21
-398.6165418379934
 31
0.0
  0
LINE
  5
8BA
330
1F
100
AcDbEntity
  8
0
100
AcDbLine
 10
-1606.855986238652
 20
-398.6165418379934
 30
0.0
 11
-1607.355986238652
 21
-405.3165418379936
 31
0.0
  0
LINE
  5
8BB
330
1F
100
AcDbEntity
  8
0
100
AcDbLine
 10
-1604.855986238652
 20
-398.6165418379934
 30
0.0
 11
-1605.355986238652
 21
-405.3165418379936
 31
0.0
  0
ARC
  5
8BC
330
1F
100
AcDbEntity
  8
0
100
AcDbCircle
 10
-1600.195262439073
 20
-404.3720897571002
 30
0.0
 40
3.163638093902946
100
AcDbArc
 50
145.1996308882246
 51
177.540514413812
  0
LINE
  5
8BD
330
1F
100
AcDbEntity
  8
0
100
AcDbLine
 10
-1603.533225044622
 20
-409.6915418379937
 30
0.0
 11
-1603.355986238652
 21
-409.6915418379937
 31
0.0
  0
ARC
  5
8BE
330
1F
100
AcDbEntity
  8
0
100
AcDbCircle
 10
-1600.244801999419
 20
-400.5494073375976
 30
0.0
 40
3.249999999999943
100
AcDbArc
 50
196.806350097801
 51
218.3641111283935
  0
LINE
  5
8BF
330
1F
100
AcDbEntity
  8
0
100
AcDbLine
 10
-1605.132105641637
 20
-402.3165418379936
 30
0.0
 11
-1603.355986238652
 21
-402.3165418379936
 31
0.0
  0
LINE
  5
8C0
330
1F
100
AcDbEntity
  8
0
100
AcDbLine
 10
-1605.178747432682
 20
-402.9415418379937
 30
0.0
 11
-1603.355986238652
 21
-402.9415418379937
 31
0.0
  0
LINE
  5
8C1
330
1F
100
AcDbEntity
  8
0
100
AcDbLine
 10
-1607.456731302963
 20
-409.6915418379937
 30
0.0
 11
-1605.533225044622
 21
-409.6915418379937
 31
0.0
  0
LINE
  5
8C2
330
1F
100
AcDbEntity
  8
0
100
AcDbLine
 10
-1607.355986238652
 20
-405.3165418379936
 30
0.0
 11
-1605.355986238652
 21
-405.3165418379936
 31
0.0
  0
LINE
  5
8C3
330
1F
100
AcDbEntity
  8
0
100
AcDbLine
 10
-1607.456731302963
 20
-402.3165418379934
 30
0.0
 11
-1607.132105641637
 21
-402.3165418379941
 31
0.0
  0
LINE
  5
8C4
330
1F
100
AcDbEntity
  8
0
100
AcDbLine
 10
-1607.456731302963
 20
-402.9415418379937
 30
0.0
 11
-1607.178747432682
 21
-402.9415418379937
 31
0.0
  0
LINE
  5
8C5
330
1F
100
AcDbEntity
  8
0
100
AcDbLine
 10
-1605.355986238652
 20
-407.3165418379936
 30
0.0
 11
-1603.355986238652
 21
-407.3165418379936
 31
0.0
  0
LINE
  5
8C6
330
1F
100
AcDbEntity
  8
0
100
AcDbLine
 10
-1603.355986238652
 20
-399.8165418379937
 30
0.0
 11
-1602.793069726192
 21
-398.8415418379933
 31
0.0
  0
LINE
  5
8C7
330
1F
100
AcDbEntity
  8
0
100
AcDbLine
 10
-1606.855986238652
 20
-398.6165418379934
 30
0.0
 11
-1604.855986238652
 21
-398.6165418379934
 31
0.0
  0
ARC
  5
8C8
330
1F
100
AcDbEntity
  8
0
100
AcDbCircle
 10
-1600.101822778698
 20
-404.4007828596651
 30
0.0
 40
3.25
100
AcDbArc
 50
2.9004776265563
 51
34.35937707144563
  0
ARC
  5
8C9
330
1F
100
AcDbEntity
  8
0
100
AcDbCircle
 10
-1599.646200539251
 20
-400.7171010299999
 30
0.0
 40
2.895045205056399
100
AcDbArc
 50
320.2953929040743
 51
344.5341458697185
  0
LINE
  5
8CA
330
1F
100
AcDbEntity
  8
0
100
AcDbLine
 10
-1596.855986238652
 20
-399.8165418379937
 30
0.0
 11
-1597.418902751112
 21
-398.8415418379933
 31
0.0
  0
LINE
  5
8CB
330
1F
100
AcDbEntity
  8
0
100
AcDbLine
 10
-1596.855986238652
 20
-409.6915418379935
 30
0.0
 11
-1591.438757909659
 21
-409.6915418379937
 31
0.0
  0
LINE
  5
8CC
330
1F
100
AcDbEntity
  8
0
100
AcDbLine
 10
-1596.855986238652
 20
-402.9415418379937
 30
0.0
 11
-1591.438757909659
 21
-402.9415418379937
 31
0.0
  0
LINE
  5
8CD
330
1F
100
AcDbEntity
  8
0
100
AcDbLine
 10
-1596.855986238652
 20
-402.3165418379937
 30
0.0
 11
-1592.063757909659
 21
-402.3165418379936
 31
0.0
  0
LINE
  5
8CE
330
1F
100
AcDbEntity
  8
0
100
AcDbLine
 10
-1611.656731302963
 20
-402.8966080725459
 30
0.0
 11
-1613.656731302962
 21
-402.8966080725464
 31
0.0
  0
LINE
  5
8CF
330
1F
100
AcDbEntity
  8
0
100
AcDbLine
 10
-1610.656731302963
 20
-403.4695665941463
 30
0.0
 11
-1611.656731302963
 21
-403.4695665941463
 31
0.0
  0
LINE
  5
8D0
330
1F
100
AcDbEntity
  8
0
100
AcDbLine
 10
-1611.656731302963
 20
-400.0158497957378
 30
0.0
 11
-1610.656731302963
 21
-400.0158497957378
 31
0.0
  0
LINE
  5
8D1
330
1F
100
AcDbEntity
  8
0
100
AcDbLine
 10
-1610.656731302963
 20
-396.3165418379932
 30
0.0
 11
-1607.456731302963
 21
-396.3165418379932
 31
0.0
  0
LINE
  5
8D2
330
1F
100
AcDbEntity
  8
0
100
AcDbLine
 10
-1602.793069726192
 20
-413.7915418379931
 30
0.0
 11
-1597.418902751112
 21
-413.7915418379931
 31
0.0
  0
LINE
  5
8D3
330
1F
100
AcDbEntity
  8
0
100
AcDbLine
 10
-1603.579866835667
 20
-410.3165418379936
 30
0.0
 11
-1603.355986238652
 21
-410.3165418379936
 31
0.0
  0
LINE
  5
8D4
330
1F
100
AcDbEntity
  8
0
100
AcDbLine
 10
-1607.456731302963
 20
-410.3165418379936
 30
0.0
 11
-1605.579866835667
 21
-410.3165418379936
 31
0.0
  0
LINE
  5
8D5
330
1F
100
AcDbEntity
  8
0
100
AcDbLine
 10
-1603.355986238652
 20
-412.8165418379937
 30
0.0
 11
-1602.793069726192
 21
-413.7915418379931
 31
0.0
  0
LINE
  5
8D6
330
1F
100
AcDbEntity
  8
0
100
AcDbLine
 10
-1605.855986238652
 20
-414.0165418379934
 30
0.0
 11
-1603.855986238652
 21
-414.0165418379934
 31
0.0
  0
LINE
  5
8D7
330
1F
100
AcDbEntity
  8
0
100
AcDbLine
 10
-1605.855986238652
 20
-414.0165418379934
 30
0.0
 11
-1606.096245978912
 21
-410.3165418379936
 31
0.0
  0
LINE
  5
8D8
330
1F
100
AcDbEntity
  8
0
100
AcDbLine
 10
-1596.855986238652
 20
-412.8165418379937
 30
0.0
 11
-1597.418902751112
 21
-413.7915418379931
 31
0.0
  0
LINE
  5
8D9
330
1F
100
AcDbEntity
  8
0
100
AcDbLine
 10
-1596.855986238652
 20
-410.3165418379936
 30
0.0
 11
-1592.063757909659
 21
-410.3165418379936
 31
0.0
  0
LINE
  5
8DA
330
1F
100
AcDbEntity
  8
0
100
AcDbLine
 10
-1613.656731302963
 20
-416.3165418379931
 30
0.0
 11
-1611.656731302963
 21
-416.3165418379931
 31
0.0
  0
LINE
  5
8DB
330
1F
100
AcDbEntity
  8
0
100
AcDbLine
 10
-1612.656731302963
 20
-416.3165418379931
 30
0.0
 11
-1611.656731302963
 21
-416.3165418379931
 31
0.0
  0
LINE
  5
8DC
330
1F
100
AcDbEntity
  8
0
100
AcDbLine
 10
-1610.656731302963
 20
-415.815849795738
 30
0.0
 11
-1611.656731302963
 21
-415.815849795738
 31
0.0
  0
LINE
  5
8DD
330
1F
100
AcDbEntity
  8
0
100
AcDbLine
 10
-1610.656731302963
 20
-416.3165418379931
 30
0.0
 11
-1607.456731302963
 21
-416.3165418379931
 31
0.0
  0
LINE
  5
8DE
330
1F
100
AcDbEntity
  8
0
100
AcDbLine
 10
-1603.355986238652
 20
-412.8165418379937
 30
0.0
 11
-1603.355986238652
 21
-399.8165418379937
 31
0.0
  0
LINE
  5
8DF
330
1F
100
AcDbEntity
  8
0
100
AcDbLine
 10
-1613.656731302963
 20
-400.0158497957378
 30
0.0
 11
-1613.656731302963
 21
-416.3165418379927
 31
0.0
  0
LINE
  5
8E0
330
1F
100
AcDbEntity
  8
0
100
AcDbLine
 10
-1607.456731302963
 20
-396.3165418379932
 30
0.0
 11
-1607.456731302963
 21
-416.3165418379931
 31
0.0
  0
LINE
  5
8E1
330
1F
100
AcDbEntity
  8
0
100
AcDbLine
 10
-1610.656731302963
 20
-396.3165418379932
 30
0.0
 11
-1610.656731302963
 21
-416.3165418379931
 31
0.0
  0
ARC
  5
8E2
330
1F
100
AcDbEntity
  8
0
100
AcDbCircle
 10
-1600.565771938055
 20
-411.9159826459873
 30
0.0
 40
2.895045205055748
100
AcDbArc
 50
140.2953929040509
 51
164.5341458696773
  0
ARC
  5
8E3
330
1F
100
AcDbEntity
  8
0
100
AcDbCircle
 10
-1600.110149698605
 20
-408.232300816324
 30
0.0
 40
3.249999999999971
100
AcDbArc
 50
182.9004776264906
 51
214.3593770713987
  0
LINE
  5
8E4
330
1F
100
AcDbEntity
  8
0
100
AcDbLine
 10
-1603.855986238652
 20
-414.0165418379934
 30
0.0
 11
-1603.355986238652
 21
-407.3165418379936
 31
0.0
  0
LINE
  5
8E5
330
1F
100
AcDbEntity
  8
0
100
AcDbLine
 10
-1605.855986238652
 20
-414.0165418379934
 30
0.0
 11
-1605.355986238652
 21
-407.3165418379936
 31
0.0
  0
LINE
  5
8E6
330
1F
100
AcDbEntity
  8
0
100
AcDbLine
 10
-1596.855986238652
 20
-412.8165418379937
 30
0.0
 11
-1596.855986238652
 21
-399.8165418379937
 31
0.0
  0
LINE
  5
8E7
330
1F
100
AcDbEntity
  8
0
100
AcDbLine
 10
-1592.063757909659
 20
-410.3165418379936
 30
0.0
 11
-1592.063757909659
 21
-402.3165418379936
 31
0.0
  0
LINE
  5
8E8
330
1F
100
AcDbEntity
  8
0
100
AcDbLine
 10
-1592.063757909659
 20
-410.3165418379936
 30
0.0
 11
-1590.563757909659
 21
-408.8165418379936
 31
0.0
  0
ARC
  5
8E9
330
1F
100
AcDbEntity
  8
0
100
AcDbCircle
 10
-1599.967170477884
 20
-412.0836763383923
 30
0.0
 40
3.249999999999971
100
AcDbArc
 50
16.80635009786717
 51
38.36411112843519
  0
ARC
  5
8EA
330
1F
100
AcDbEntity
  8
0
100
AcDbCircle
 10
-1600.016710038232
 20
-408.2609939188879
 30
0.0
 40
3.163638093904615
100
AcDbArc
 50
325.1996308882663
 51
357.5405144138575
  0
LINE
  5
8EB
330
1F
100
AcDbEntity
  8
0
100
AcDbLine
 10
-1611.656731302963
 20
-416.3165418379931
 30
0.0
 11
-1611.656731302963
 21
-400.0158497957378
 31
0.0
  0
LINE
  5
8EC
330
1F
100
AcDbEntity
  8
0
100
AcDbLine
 10
-1611.656731302963
 20
-415.815849795738
 30
0.0
 11
-1611.656731302963
 21
-400.0158497957378
 31
0.0
  0
LINE
  5
8ED
330
1F
100
AcDbEntity
  8
0
 48
0.7
100
AcDbLine
 10
-1613.656731302963
 20
-400.0158497957378
 30
0.0
 11
-1611.656731302963
 21
-400.0158497957378
 31
0.0
  0
LINE
  5
8EE
330
1F
100
AcDbEntity
  8
0
100
AcDbLine
 10
-1398.523943260581
 20
-347.8117251523962
 30
0.0
 11
-1397.523943260581
 21
-348.8117251523962
 31
0.0
  0
LINE
  5
8EF
330
1F
100
AcDbEntity
  8
0
100
AcDbLine
 10
-1398.523943260581
 20
-358.8117251523971
 30
0.0
 11
-1397.523943260581
 21
-357.8117251523971
 31
0.0
  0
LINE
  5
8F1
330
1F
100
AcDbEntity
  8
0
100
AcDbLine
 10
-1398.523943260581
 20
-347.8117251523962
 30
0.0
 11
-1398.523943260581
 21
-358.8117251523971
 31
0.0
  0
LINE
  5
8F2
330
1F
100
AcDbEntity
  8
0
100
AcDbLine
 10
-1397.523943260581
 20
-357.8117251523971
 30
0.0
 11
-1397.523943260581
 21
-348.8117251523962
 31
0.0
  0
LINE
  5
8F3
330
1F
100
AcDbEntity
  8
0
100
AcDbLine
 10
-1433.023817364226
 20
-347.8117251523962
 30
0.0
 11
-1432.523817364226
 21
-347.8117251523962
 31
0.0
  0
LINE
  5
8F4
330
1F
100
AcDbEntity
  8
0
100
AcDbLine
 10
-1429.523943260582
 20
-346.8117251523898
 30
0.0
 11
-1427.523943260581
 21
-346.8117251523903
 31
0.0
  0
ARC
  5
8F5
330
1F
100
AcDbEntity
  8
0
100
AcDbCircle
 10
-1433.571903044719
 20
-368.3117251523903
 30
0.0
 40
1.0
100
AcDbArc
 50
357.383413691511
 51
90.0
  0
LINE
  5
8F6
330
1F
100
AcDbEntity
  8
0
100
AcDbLine
 10
-1429.523943260582
 20
-359.8117251523903
 30
0.0
 11
-1427.523943260581
 21
-359.8117251523903
 31
0.0
  0
LINE
  5
8F7
330
1F
100
AcDbEntity
  8
0
100
AcDbLine
 10
-1433.023817364226
 20
-358.8117251523969
 30
0.0
 11
-1432.523817364226
 21
-358.8117251523969
 31
0.0
  0
ARC
  5
8F8
330
1F
100
AcDbEntity
  8
0
100
AcDbCircle
 10
-1433.523817364226
 20
-364.31172515239
 30
0.0
 40
0.5
100
AcDbArc
 50
270.0
 51
0.0
  0
ARC
  5
8F9
330
1F
100
AcDbEntity
  8
0
100
AcDbCircle
 10
-1433.023817364226
 20
-361.8117251523903
 30
0.0
 40
0.5
100
AcDbArc
 50
270.0
 51
0.0
  0
LINE
  5
8FA
330
1F
100
AcDbEntity
  8
0
100
AcDbLine
 10
-1453.423943260581
 20
-367.3117251523912
 30
0.0
 11
-1453.423943260581
 21
-364.8117251523903
 31
0.0
  0
ARC
  5
8FB
330
1F
100
AcDbEntity
  8
0
100
AcDbCircle
 10
-1451.979671350573
 20
-368.3117251523903
 30
0.0
 40
1.0
100
AcDbArc
 50
90.0
 51
173.6206297915581
  0
LINE
  5
8FC
330
1F
100
AcDbEntity
  8
0
100
AcDbLine
 10
-1451.979671350573
 20
-367.3117251523903
 30
0.0
 11
-1433.571903044719
 21
-367.3117251523903
 31
0.0
  0
LINE
  5
8FD
330
1F
100
AcDbEntity
  8
0
100
AcDbLine
 10
-1453.423943260581
 20
-364.8117251523903
 30
0.0
 11
-1433.523817364226
 21
-364.8117251523901
 31
0.0
  0
LINE
  5
8FE
330
1F
100
AcDbEntity
  8
0
100
AcDbLine
 10
-1427.523943260581
 20
-346.8117251523903
 30
0.0
 11
-1427.523943260581
 21
-359.8117251523903
 31
0.0
  0
LINE
  5
8FF
330
1F
100
AcDbEntity
  8
0
100
AcDbLine
 10
-1433.023817364226
 20
-344.8117251523903
 30
0.0
 11
-1433.023817364226
 21
-364.31172515239
 31
0.0
  0
LINE
  5
900
330
1F
100
AcDbEntity
  8
0
100
AcDbLine
 10
-1432.523817364226
 20
-344.8117251523903
 30
0.0
 11
-1432.523817364226
 21
-366.1125328856777
 31
0.0
  0
LINE
  5
901
330
1F
100
AcDbEntity
  8
0
100
AcDbLine
 10
-1427.523943260581
 20
-358.811725152397
 30
0.0
 11
-1398.523943260581
 21
-358.8117251524
 31
0.0
  0
LINE
  5
902
330
1F
100
AcDbEntity
  8
0
100
AcDbLine
 10
-1427.523943260581
 20
-347.8117251523962
 30
0.0
 11
-1398.523943260581
 21
-347.8117251523962
 31
0.0
  0
LINE
  5
903
330
1F
100
AcDbEntity
  8
0
100
AcDbLine
 10
-1429.523943260582
 20
-339.2117251523899
 30
0.0
 11
-1429.523943260582
 21
-366.2117251523895
 31
0.0
  0
LINE
  5
904
330
1F
100
AcDbEntity
  8
0
100
AcDbLine
 10
-1460.923943260581
 20
-372.1117251523905
 30
0.0
 11
-1460.923943260581
 21
-362.5117251523901
 31
0.0
  0
LINE
  5
905
330
1F
100
AcDbEntity
  8
0
100
AcDbLine
 10
-1460.923943260581
 20
-369.7117251523899
 30
0.0
 11
-1460.923943260581
 21
-364.9117251523898
 31
0.0
  0
LINE
  5
906
330
1F
100
AcDbEntity
  8
0
100
AcDbLine
 10
-1461.523943260582
 20
-364.8117251523903
 30
0.0
 11
-1461.523943260581
 21
-366.2117251523904
 31
0.0
  0
LINE
  5
907
330
1F
100
AcDbEntity
  8
0
100
AcDbLine
 10
-1460.32394326058
 20
-364.8117251523903
 30
0.0
 11
-1460.32394326058
 21
-366.2117251523904
 31
0.0
  0
CIRCLE
  5
908
330
1F
100
AcDbEntity
  8
0
100
AcDbCircle
 10
-1460.923943260581
 20
-367.3117251523903
 30
0.0
 40
4.0
  0
LINE
  5
909
330
1F
100
AcDbEntity
  8
0
100
AcDbLine
 10
-1459.823943260582
 20
-367.9117251523902
 30
0.0
 11
-1458.423943260581
 21
-367.9117251523902
 31
0.0
  0
LINE
  5
90A
330
1F
100
AcDbEntity
  8
0
100
AcDbLine
 10
-1458.523943260581
 20
-367.3117251523903
 30
0.0
 11
-1463.323943260581
 21
-367.3117251523903
 31
0.0
  0
LINE
  5
90B
330
1F
100
AcDbEntity
  8
0
100
AcDbLine
 10
-1459.823943260582
 20
-366.7117251523904
 30
0.0
 11
-1458.423943260581
 21
-366.7117251523904
 31
0.0
  0
LINE
  5
90C
330
1F
100
AcDbEntity
  8
0
100
AcDbLine
 10
-1463.423943260581
 20
-366.7117251523904
 30
0.0
 11
-1463.423943260581
 21
-367.9117251523902
 31
0.0
  0
LINE
  5
90D
330
1F
100
AcDbEntity
  8
0
100
AcDbLine
 10
-1463.423943260581
 20
-367.9117251523902
 30
0.0
 11
-1462.023943260582
 21
-367.9117251523902
 31
0.0
  0
ARC
  5
90E
330
1F
100
AcDbEntity
  8
0
100
AcDbCircle
 10
-1459.823943260582
 20
-368.4117251523902
 30
0.0
 40
0.5
100
AcDbArc
 50
90.0
 51
180.0
  0
ARC
  5
90F
330
1F
100
AcDbEntity
  8
0
100
AcDbCircle
 10
-1462.023943260582
 20
-368.4117251523902
 30
0.0
 40
0.5
100
AcDbArc
 50
0.0
 51
90.0
  0
LINE
  5
910
330
1F
100
AcDbEntity
  8
0
100
AcDbLine
 10
-1461.523943260582
 20
-369.8117251523903
 30
0.0
 11
-1460.323943260582
 21
-369.8117251523903
 31
0.0
  0
LINE
  5
911
330
1F
100
AcDbEntity
  8
0
100
AcDbLine
 10
-1460.323943260582
 20
-368.4117251523902
 30
0.0
 11
-1460.323943260582
 21
-369.8117251523903
 31
0.0
  0
LINE
  5
912
330
1F
100
AcDbEntity
  8
0
100
AcDbLine
 10
-1461.523943260582
 20
-368.4117251523902
 30
0.0
 11
-1461.523943260582
 21
-369.8117251523903
 31
0.0
  0
LINE
  5
913
330
1F
100
AcDbEntity
  8
0
100
AcDbLine
 10
-1463.423943260581
 20
-366.7117251523904
 30
0.0
 11
-1462.023943260581
 21
-366.7117251523904
 31
0.0
  0
ARC
  5
914
330
1F
100
AcDbEntity
  8
0
100
AcDbCircle
 10
-1459.823943260582
 20
-366.2117251523904
 30
0.0
 40
0.5
100
AcDbArc
 50
180.0
 51
270.0
  0
ARC
  5
915
330
1F
100
AcDbEntity
  8
0
100
AcDbCircle
 10
-1462.023943260581
 20
-366.2117251523904
 30
0.0
 40
0.5
100
AcDbArc
 50
270.0
 51
0.0
  0
LINE
  5
916
330
1F
100
AcDbEntity
  8
0
100
AcDbLine
 10
-1458.423943260581
 20
-366.7117251523904
 30
0.0
 11
-1458.423943260581
 21
-367.9117251523902
 31
0.0
  0
LINE
  5
917
330
1F
100
AcDbEntity
  8
0
100
AcDbLine
 10
-1461.523943260582
 20
-364.8117251523903
 30
0.0
 11
-1460.323943260582
 21
-364.8117251523903
 31
0.0
  0
ARC
  5
918
330
1F
100
AcDbEntity
  8
0
100
AcDbCircle
 10
-1513.024424617688
 20
-348.5640410876612
 30
0.0
 40
5.0
100
AcDbArc
 50
137.2808997176716
 51
180.0
  0
ARC
  5
919
330
1F
100
AcDbEntity
  8
0
100
AcDbCircle
 10
-1513.823948830661
 20
-348.0117251523899
 30
0.0
 40
1.0
100
AcDbArc
 50
89.99999999998697
 51
180.0
  0
LINE
  5
91A
330
1F
100
AcDbEntity
  8
0
100
AcDbLine
 10
-1513.82394883066
 20
-347.0117251523899
 30
0.0
 11
-1507.82394883066
 21
-347.0117251523906
 31
0.0
  0
ARC
  5
91B
330
1F
100
AcDbEntity
  8
0
100
AcDbCircle
 10
-1513.823948830661
 20
-358.6117251523898
 30
0.0
 40
1.0
100
AcDbArc
 50
180.0
 51
269.999999999987
  0
LINE
  5
91C
330
1F
100
AcDbEntity
  8
0
100
AcDbLine
 10
-1513.823948830661
 20
-359.6117251523896
 30
0.0
 11
-1507.823948830661
 21
-359.6117251523907
 31
0.0
  0
LINE
  5
91D
330
1F
100
AcDbEntity
  8
0
100
AcDbLine
 10
-1514.823948830661
 20
-348.0117251523899
 30
0.0
 11
-1514.823948830661
 21
-358.6117251523898
 31
0.0
  0
LINE
  5
91E
330
1F
100
AcDbEntity
  8
0
100
AcDbLine
 10
-1507.224424617688
 20
-371.7117251523896
 30
0.0
 11
-1502.057378662733
 21
-371.7117251523896
 31
0.0
  0
CIRCLE
  5
91F
330
1F
100
AcDbEntity
  8
0
100
AcDbCircle
 10
-1460.923943260581
 20
-367.3117251523903
 30
0.0
 40
4.5
  0
LINE
  5
920
330
1F
100
AcDbEntity
  8
0
100
AcDbLine
 10
-1456.123943260581
 20
-367.3117251523903
 30
0.0
 11
-1465.723943260581
 21
-367.3117251523903
 31
0.0
  0
LINE
  5
922
330
1F
100
AcDbEntity
  8
0
100
AcDbLine
 10
-1446.024707893387
 20
-399.4117251523902
 30
0.0
 11
-1446.024707893387
 21
-402.5568062352089
 31
0.0
  0
LINE
  5
923
330
1F
100
AcDbEntity
  8
0
100
AcDbLine
 10
-1446.524707893386
 20
-399.4117251523902
 30
0.0
 11
-1446.524707893387
 21
-402.6068467811404
 31
0.0
  0
LINE
  5
924
330
1F
100
AcDbEntity
  8
0
100
AcDbLine
 10
-1446.024707893387
 20
-400.2117251523899
 30
0.0
 11
-1442.863337700932
 21
-400.2117251523899
 31
0.0
  0
LINE
  5
925
330
1F
100
AcDbEntity
  8
0
100
AcDbLine
 10
-1446.524707893386
 20
-399.4117251523902
 30
0.0
 11
-1446.024707893387
 21
-399.4117251523902
 31
0.0
  0
LINE
  5
927
330
1F
100
AcDbEntity
  8
0
100
AcDbLine
 10
-1460.923943260581
 20
-374.8117251523903
 30
0.0
 11
-1463.423943260581
 21
-374.8117251523912
 31
0.0
  0
ARC
  5
928
330
1F
100
AcDbEntity
  8
0
100
AcDbCircle
 10
-1459.923943260581
 20
-376.2559970623982
 30
0.0
 40
1.0
100
AcDbArc
 50
96.37937020844116
 51
180.0
  0
LINE
  5
929
330
1F
100
AcDbEntity
  8
0
100
AcDbLine
 10
-1463.04922653628
 20
-405.7117251523903
 30
0.0
 11
-1466.802003286012
 21
-399.2117251523904
 31
0.0
  0
LINE
  5
92A
330
1F
100
AcDbEntity
  8
0
100
AcDbLine
 10
-1471.733491377675
 20
-403.7117251523904
 30
0.0
 11
-1469.328927074659
 21
-403.7117251523904
 31
0.0
  0
LINE
  5
92B
330
1F
100
AcDbEntity
  8
0
100
AcDbLine
 10
-1471.719525997901
 20
-407.7117251523904
 30
0.0
 11
-1469.328927074659
 21
-407.7117251523904
 31
0.0
  0
LINE
  5
92C
330
1F
100
AcDbEntity
  8
0
100
AcDbLine
 10
-1468.17422653628
 20
-405.7117251523903
 30
0.0
 11
-1469.328927074659
 21
-407.7117251523904
 31
0.0
  0
LINE
  5
92D
330
1F
100
AcDbEntity
  8
0
100
AcDbLine
 10
-1468.17422653628
 20
-405.7117251523903
 30
0.0
 11
-1469.328927074659
 21
-403.7117251523904
 31
0.0
  0
CIRCLE
  5
92E
330
1F
100
AcDbEntity
  8
0
100
AcDbCircle
 10
-1470.524226536279
 20
-405.7117251523903
 30
0.0
 40
3.0
  0
LINE
  5
92F
330
1F
100
AcDbEntity
  8
0
100
AcDbLine
 10
-1472.87422653628
 20
-405.7117251523903
 30
0.0
 11
-1471.719525997901
 21
-407.7117251523904
 31
0.0
  0
LINE
  5
930
330
1F
100
AcDbEntity
  8
0
100
AcDbLine
 10
-1472.87422653628
 20
-405.6875364050723
 30
0.0
 11
-1471.733491377676
 21
-403.7117251523904
 31
0.0
  0
ARC
  5
931
330
1F
100
AcDbEntity
  8
0
100
AcDbCircle
 10
-1461.524226536279
 20
-398.7117251523904
 30
0.0
 40
3.0
100
AcDbArc
 50
0.0
 51
90.0
  0
LINE
  5
932
330
1F
100
AcDbEntity
  8
0
100
AcDbLine
 10
-1477.99922653628
 20
-405.7117251523903
 30
0.0
 11
-1474.246449786547
 21
-399.2117251523904
 31
0.0
  0
LINE
  5
933
330
1F
100
AcDbEntity
  8
0
100
AcDbLine
 10
-1474.246449786547
 20
-399.2117251523904
 30
0.0
 11
-1466.802003286012
 21
-399.2117251523904
 31
0.0
  0
LINE
  5
934
330
1F
100
AcDbEntity
  8
0
100
AcDbLine
 10
-1460.923943260581
 20
-376.2559970623982
 30
0.0
 11
-1460.923943260581
 21
-395.7723952986794
 31
0.0
  0
LINE
  5
935
330
1F
100
AcDbEntity
  8
0
100
AcDbLine
 10
-1463.42394326058
 20
-395.7117251523904
 30
0.0
 11
-1463.423943260581
 21
-374.8117251523912
 31
0.0
  0
LINE
  5
936
330
1F
100
AcDbEntity
  8
0
100
AcDbLine
 10
-1498.54922653628
 20
-405.7117251523903
 30
0.0
 11
-1502.302003286012
 21
-399.2117251523904
 31
0.0
  0
LINE
  5
937
330
1F
100
AcDbEntity
  8
0
100
AcDbLine
 10
-1507.233491377675
 20
-403.7117251523904
 30
0.0
 11
-1504.828927074659
 21
-403.7117251523904
 31
0.0
  0
LINE
  5
938
330
1F
100
AcDbEntity
  8
0
100
AcDbLine
 10
-1507.219525997901
 20
-407.7117251523904
 30
0.0
 11
-1504.828927074659
 21
-407.7117251523904
 31
0.0
  0
LINE
  5
939
330
1F
100
AcDbEntity
  8
0
100
AcDbLine
 10
-1508.37422653628
 20
-405.7117251523903
 30
0.0
 11
-1507.219525997901
 21
-407.7117251523904
 31
0.0
  0
LINE
  5
93A
330
1F
100
AcDbEntity
  8
0
100
AcDbLine
 10
-1508.37422653628
 20
-405.6875364050723
 30
0.0
 11
-1507.233491377676
 21
-403.7117251523904
 31
0.0
  0
LINE
  5
93B
330
1F
100
AcDbEntity
  8
0
100
AcDbLine
 10
-1503.67422653628
 20
-405.7117251523903
 30
0.0
 11
-1504.828927074659
 21
-403.7117251523904
 31
0.0
  0
LINE
  5
93C
330
1F
100
AcDbEntity
  8
0
100
AcDbLine
 10
-1503.67422653628
 20
-405.7117251523903
 30
0.0
 11
-1504.828927074659
 21
-407.7117251523904
 31
0.0
  0
ARC
  5
93D
330
1F
100
AcDbEntity
  8
0
100
AcDbCircle
 10
-1515.024226536279
 20
-398.7117251523904
 30
0.0
 40
3.0
100
AcDbArc
 50
90.0
 51
180.0
  0
LINE
  5
93E
330
1F
100
AcDbEntity
  8
0
100
AcDbLine
 10
-1513.49922653628
 20
-405.7117251523903
 30
0.0
 11
-1509.746449786546
 21
-399.2117251523904
 31
0.0
  0
CIRCLE
  5
93F
330
1F
100
AcDbEntity
  8
0
100
AcDbCircle
 10
-1506.024226536279
 20
-405.7117251523903
 30
0.0
 40
3.0
  0
LINE
  5
940
330
1F
100
AcDbEntity
  8
0
100
AcDbLine
 10
-1509.746449786546
 20
-399.2117251523904
 30
0.0
 11
-1502.302003286013
 21
-399.2117251523904
 31
0.0
  0
LINE
  5
941
330
1F
100
AcDbEntity
  8
0
100
AcDbLine
 10
-1518.024424617688
 20
-389.7117251523899
 30
0.0
 11
-1516.335832880228
 21
-396.0136353098327
 31
0.0
  0
LINE
  5
942
330
1F
100
AcDbEntity
  8
0
100
AcDbLine
 10
-1515.024226536279
 20
-395.7117251523904
 30
0.0
 11
-1461.524226536279
 21
-395.7117251523904
 31
0.0
  0
LINE
  5
943
330
1F
100
AcDbEntity
  8
0
100
AcDbLine
 10
-1507.823948830661
 20
-374.9117251523898
 30
0.0
 11
-1485.823948830661
 21
-374.91172515239
 31
0.0
  0
ARC
  5
944
330
1F
100
AcDbEntity
  8
0
100
AcDbCircle
 10
-1461.524226536279
 20
-412.7117251523904
 30
0.0
 40
3.0
100
AcDbArc
 50
270.0
 51
0.0
  0
LINE
  5
945
330
1F
100
AcDbEntity
  8
0
100
AcDbLine
 10
-1474.246449786547
 20
-412.2117251523904
 30
0.0
 11
-1466.802003286012
 21
-412.2117251523904
 31
0.0
  0
ARC
  5
946
330
1F
100
AcDbEntity
  8
0
100
AcDbCircle
 10
-1515.024226536279
 20
-412.7117251523904
 30
0.0
 40
3.0
100
AcDbArc
 50
180.0
 51
270.0
  0
LINE
  5
947
330
1F
100
AcDbEntity
  8
0
100
AcDbLine
 10
-1509.746449786547
 20
-412.2117251523904
 30
0.0
 11
-1502.302003286012
 21
-412.2117251523904
 31
0.0
  0
LINE
  5
948
330
1F
100
AcDbEntity
  8
0
100
AcDbLine
 10
-1515.024226536279
 20
-415.7117251523904
 30
0.0
 11
-1461.524226536279
 21
-415.7117251523904
 31
0.0
  0
LINE
  5
949
330
1F
100
AcDbEntity
  8
0
100
AcDbLine
 10
-1506.024707893387
 20
-415.7117251523904
 30
0.0
 11
-1479.52422653628
 21
-415.7117251523904
 31
0.0
  0
LINE
  5
94A
330
1F
100
AcDbEntity
  8
0
100
AcDbLine
 10
-1506.024707893387
 20
-415.7117251523908
 30
0.0
 11
-1489.524226536279
 21
-415.7117251523904
 31
0.0
  0
LINE
  5
94B
330
1F
100
AcDbEntity
  8
0
100
AcDbLine
 10
-1518.024226536279
 20
-412.7117251523904
 30
0.0
 11
-1518.024226536279
 21
-398.7117251523904
 31
0.0
  0
CIRCLE
  5
94C
330
1F
100
AcDbEntity
  8
0
100
AcDbCircle
 10
-1470.524226536279
 20
-405.7117251523903
 30
0.0
 40
7.7
  0
LINE
  5
94D
330
1F
100
AcDbEntity
  8
0
100
AcDbLine
 10
-1477.99922653628
 20
-405.7117251523903
 30
0.0
 11
-1474.246449786547
 21
-412.2117251523904
 31
0.0
  0
CIRCLE
  5
94E
330
1F
100
AcDbEntity
  8
0
100
AcDbCircle
 10
-1506.024226536279
 20
-405.7117251523903
 30
0.0
 40
6.5
  0
CIRCLE
  5
94F
330
1F
100
AcDbEntity
  8
0
100
AcDbCircle
 10
-1506.024226536279
 20
-405.7117251523903
 30
0.0
 40
7.7
  0
CIRCLE
  5
950
330
1F
100
AcDbEntity
  8
0
100
AcDbCircle
 10
-1506.024226536279
 20
-405.7117251523903
 30
0.0
 40
4.0
  0
CIRCLE
  5
951
330
1F
100
AcDbEntity
  8
0
100
AcDbCircle
 10
-1506.024226536279
 20
-405.7117251523903
 30
0.0
 40
4.0
  0
CIRCLE
  5
952
330
1F
100
AcDbEntity
  8
0
100
AcDbCircle
 10
-1506.024226536279
 20
-405.7117251523903
 30
0.0
 40
4.25
  0
CIRCLE
  5
953
330
1F
100
AcDbEntity
  8
0
100
AcDbCircle
 10
-1506.024226536279
 20
-405.7117251523903
 30
0.0
 40
4.15
  0
CIRCLE
  5
954
330
1F
100
AcDbEntity
  8
0
100
AcDbCircle
 10
-1506.023943260581
 20
-405.7117251523899
 30
0.0
 40
4.0
  0
LINE
  5
955
330
1F
100
AcDbEntity
  8
0
100
AcDbLine
 10
-1513.49922653628
 20
-405.7117251523903
 30
0.0
 11
-1509.746449786547
 21
-412.2117251523904
 31
0.0
  0
LINE
  5
956
330
1F
100
AcDbEntity
  8
0
100
AcDbLine
 10
-1498.54922653628
 20
-405.7117251523903
 30
0.0
 11
-1502.302003286012
 21
-412.2117251523904
 31
0.0
  0
CIRCLE
  5
957
330
1F
100
AcDbEntity
  8
0
100
AcDbCircle
 10
-1470.524226536279
 20
-405.7117251523903
 30
0.0
 40
6.5
  0
LINE
  5
958
330
1F
100
AcDbEntity
  8
0
100
AcDbLine
 10
-1458.524226536279
 20
-412.7117251523904
 30
0.0
 11
-1458.524226536279
 21
-398.7117251523904
 31
0.0
  0
CIRCLE
  5
959
330
1F
100
AcDbEntity
  8
0
100
AcDbCircle
 10
-1470.524226536279
 20
-405.7117251523903
 30
0.0
 40
4.0
  0
CIRCLE
  5
95A
330
1F
100
AcDbEntity
  8
0
100
AcDbCircle
 10
-1470.524226536279
 20
-405.7117251523903
 30
0.0
 40
4.0
  0
CIRCLE
  5
95B
330
1F
100
AcDbEntity
  8
0
100
AcDbCircle
 10
-1470.523943260581
 20
-405.7117251523899
 30
0.0
 40
4.0
  0
CIRCLE
  5
95C
330
1F
100
AcDbEntity
  8
0
100
AcDbCircle
 10
-1470.524226536279
 20
-405.7117251523903
 30
0.0
 40
4.25
  0
CIRCLE
  5
95D
330
1F
100
AcDbEntity
  8
0
100
AcDbCircle
 10
-1470.524226536279
 20
-405.7117251523903
 30
0.0
 40
4.15
  0
LINE
  5
95E
330
1F
100
AcDbEntity
  8
0
100
AcDbLine
 10
-1463.04922653628
 20
-405.7117251523903
 30
0.0
 11
-1466.802003286012
 21
-412.2117251523904
 31
0.0
  0
ARC
  5
95F
330
1F
100
AcDbEntity
  8
0
100
AcDbCircle
 10
-1479.824707893387
 20
-365.7117251523904
 30
0.0
 40
50.0
100
AcDbArc
 50
295.2145862649393
 51
312.5318541698839
  0
ARC
  5
960
330
1F
100
AcDbEntity
  8
0
100
AcDbCircle
 10
-1479.524707893387
 20
-365.7117251523904
 30
0.0
 40
49.5
100
AcDbArc
 50
295.1033360378332
 51
311.8103148957701
  0
LINE
  5
961
330
1F
100
AcDbEntity
  8
0
100
AcDbLine
 10
-1458.524226536279
 20
-399.4117251523902
 30
0.0
 11
-1446.524707893386
 21
-399.4117251523902
 31
0.0
  0
LINE
  5
962
330
1F
100
AcDbEntity
  8
0
100
AcDbLine
 10
-1518.024424617688
 20
-348.5640410876612
 30
0.0
 11
-1518.024424617688
 21
-389.7117251523899
 31
0.0
  0
ARC
  5
963
330
1F
100
AcDbEntity
  8
0
100
AcDbCircle
 10
-1479.523943260582
 20
-366.2117251523899
 30
0.0
 40
47.0
100
AcDbArc
 50
315.0586186292627
 51
0.1209213289748449
  0
ARC
  5
964
330
1F
100
AcDbEntity
  8
0
100
AcDbCircle
 10
-1479.523943260582
 20
-366.2117251523899
 30
0.0
 40
50.0
100
AcDbArc
 50
294.8342298027094
 51
0.0
  0
LINE
  5
965
330
1F
100
AcDbEntity
  8
0
100
AcDbLine
 10
-1479.323566230578
 20
-395.7117251523904
 30
0.0
 11
-1479.323566230579
 21
-342.2765495582857
 31
0.0
  0
LINE
  5
966
330
1F
100
AcDbEntity
  8
0
100
AcDbLine
 10
-1485.823948830661
 20
-346.7112341353999
 30
0.0
 11
-1485.823948830661
 21
-379.9117251523879
 31
0.0
  0
LINE
  5
967
330
1F
100
AcDbEntity
  8
0
100
AcDbLine
 10
-1507.823948830661
 20
-345.1720179607644
 30
0.0
 11
-1507.823948830661
 21
-379.9117251523879
 31
0.0
  0
ARC
  5
968
330
1F
100
AcDbEntity
  8
0
100
AcDbCircle
 10
-1460.923943260581
 20
-367.3117251523903
 30
0.0
 40
7.5
100
AcDbArc
 50
270.0
 51
0.0
  0
ARC
  5
969
330
1F
100
AcDbEntity
  8
0
100
AcDbCircle
 10
-1460.923943260581
 20
-367.3117251523903
 30
0.0
 40
8.0
100
AcDbArc
 50
276.3793702084412
 51
353.6206297915581
  0
LINE
  5
96D
330
1F
100
AcDbEntity
  8
0
100
AcDbLine
 10
-1488.824424617688
 20
-371.7117251523896
 30
0.0
 11
-1488.824424617688
 21
-374.9117251523896
 31
0.0
  0
LINE
  5
96E
330
1F
100
AcDbEntity
  8
0
100
AcDbLine
 10
-1487.824424617688
 20
-371.7117251523896
 30
0.0
 11
-1487.824424617688
 21
-374.9117251523896
 31
0.0
  0
LINE
  5
96F
330
1F
100
AcDbEntity
  8
0
100
AcDbLine
 10
-1494.324424617688
 20
-372.1720179607644
 30
0.0
 11
-1494.324424617688
 21
-374.9117251523896
 31
0.0
  0
LINE
  5
970
330
1F
100
AcDbEntity
  8
0
100
AcDbLine
 10
-1497.824424617688
 20
-372.1720179607644
 30
0.0
 11
-1497.824424617688
 21
-374.9117251523896
 31
0.0
  0
LINE
  5
971
330
1F
100
AcDbEntity
  8
0
100
AcDbLine
 10
-1507.224424617688
 20
-371.7117251523896
 30
0.0
 11
-1507.224424617688
 21
-374.9117251523899
 31
0.0
  0
ARC
  5
972
330
1F
100
AcDbEntity
  8
0
100
AcDbCircle
 10
-1433.023817364226
 20
-344.8117251523903
 30
0.0
 40
0.5
100
AcDbArc
 50
0.0
 51
90.0
  0
LINE
  5
973
330
1F
100
AcDbEntity
  8
0
100
AcDbLine
 10
-1439.523817364226
 20
-342.21172515239
 30
0.0
 11
-1439.523817364226
 21
-344.3117251523903
 31
0.0
  0
LINE
  5
974
330
1F
100
AcDbEntity
  8
0
100
AcDbLine
 10
-1440.523817364226
 20
-344.3117251523903
 30
0.0
 11
-1433.023817364226
 21
-344.3117251523903
 31
0.0
  0
LINE
  5
975
330
1F
100
AcDbEntity
  8
0
100
AcDbLine
 10
-1507.823948830661
 20
-345.1720179607644
 30
0.0
 11
-1507.823948830661
 21
-379.9117251523878
 31
0.0
  0
LINE
  5
976
330
1F
100
AcDbEntity
  8
0
100
AcDbLine
 10
-1485.823948830661
 20
-339.2117251523899
 30
0.0
 11
-1485.823948830661
 21
-379.9117251523878
 31
0.0
  0
LINE
  5
977
330
1F
100
AcDbEntity
  8
0
100
AcDbLine
 10
-1429.523943260582
 20
-339.2117251523899
 30
0.0
 11
-1485.823948830661
 21
-339.2117251523899
 31
0.0
  0
LINE
  5
978
330
1F
100
AcDbEntity
  8
0
100
AcDbLine
 10
-1485.823948830661
 20
-342.21172515239
 30
0.0
 11
-1429.523943260582
 21
-342.21172515239
 31
0.0
  0
LINE
  5
979
330
1F
100
AcDbEntity
  8
0
100
AcDbLine
 10
-1440.523817364226
 20
-342.21172515239
 30
0.0
 11
-1440.523817364226
 21
-344.8117251523903
 31
0.0
  0
LINE
  5
97A
330
1F
100
AcDbEntity
  8
0
100
AcDbLine
 10
-1440.523817364226
 20
-344.8117251523903
 30
0.0
 11
-1433.023817364226
 21
-344.8117251523903
 31
0.0
  0
ARC
  5
97B
330
1F
100
AcDbEntity
  8
0
100
AcDbCircle
 10
-1731.456118838116
 20
-349.1690609138812
 30
0.0
 40
5.0
100
AcDbArc
 50
0.0
 51
44.99967267810697
  0
LINE
  5
97C
330
1F
100
AcDbEntity
  8
0
100
AcDbLine
 10
-1727.920564734285
 20
-345.6335472059623
 30
0.0
 11
-1733.73750363934
 21
-339.8165418379901
 31
0.0
  0
LINE
  5
97D
330
1F
100
AcDbEntity
  8
0
100
AcDbLine
 10
-1736.656731302962
 20
-342.8165418379897
 30
0.0
 11
-1730.737537916213
 21
-342.8165418379904
 31
0.0
  0
LINE
  5
97E
330
1F
100
AcDbEntity
  8
0
100
AcDbLine
 10
-1736.656731302962
 20
-339.8165418379906
 30
0.0
 11
-1733.73750363934
 21
-339.8165418379901
 31
0.0
  0
ARC
  5
97F
330
1F
100
AcDbEntity
  8
0
100
AcDbCircle
 10
-1737.156731302962
 20
-375.01654183799
 30
0.0
 40
0.5
100
AcDbArc
 50
270.0
 51
0.0
  0
LINE
  5
980
330
1F
100
AcDbEntity
  8
0
100
AcDbLine
 10
-1726.456118838116
 20
-390.3165418379924
 30
0.0
 11
-1728.456118838116
 21
-397.7806434531303
 31
0.0
  0
LINE
  5
981
330
1F
100
AcDbEntity
  8
0
100
AcDbLine
 10
-1736.656731302962
 20
-339.8165418379906
 30
0.0
 11
-1736.656731302962
 21
-375.01654183799
 31
0.0
  0
LINE
  5
982
330
1F
100
AcDbEntity
  8
0
100
AcDbLine
 10
-1726.456118838116
 20
-390.3165418379924
 30
0.0
 11
-1726.456118838116
 21
-349.1690609138812
 31
0.0
  0
LINE
  5
983
330
1F
100
AcDbEntity
  8
0
100
AcDbLine
 10
-1814.95673687304
 20
-342.8165418379901
 30
0.0
 11
-1758.656731302962
 21
-342.8165418379901
 31
0.0
  0
LINE
  5
984
330
1F
100
AcDbEntity
  8
0
100
AcDbLine
 10
-1814.95673687304
 20
-339.8165418379901
 30
0.0
 11
-1758.656731302962
 21
-339.8165418379897
 31
0.0
  0
LINE
  5
985
330
1F
100
AcDbEntity
  8
0
100
AcDbLine
 10
-1774.855178490398
 20
-385.91654183799
 30
0.0
 11
-1811.020372594139
 21
-342.8165418379901
 31
0.0
  0
LINE
  5
986
330
1F
100
AcDbEntity
  8
0
100
AcDbLine
 10
-1773.456255515933
 20
-382.9165418379901
 30
0.0
 11
-1807.104150726142
 21
-342.8165418379901
 31
0.0
  0
LINE
  5
987
330
1F
100
AcDbEntity
  8
0
100
AcDbLine
 10
-1814.95673687304
 20
-339.8165418379901
 30
0.0
 11
-1814.956736873041
 21
-366.8165418379901
 31
0.0
  0
LINE
  5
988
330
1F
100
AcDbEntity
  8
0
100
AcDbLine
 10
-1758.656731302962
 20
-339.8165418379897
 30
0.0
 11
-1758.656731302962
 21
-375.5165418379899
 31
0.0
  0
LINE
  5
989
330
1F
100
AcDbEntity
  8
0
100
AcDbLine
 10
-1726.456118838116
 20
-385.9165418379903
 30
0.0
 11
-1774.855178490398
 21
-385.91654183799
 31
0.0
  0
LINE
  5
98A
330
1F
100
AcDbEntity
  8
0
100
AcDbLine
 10
-1726.456118838116
 20
-382.9165418379903
 30
0.0
 11
-1773.456255515933
 21
-382.9165418379901
 31
0.0
  0
LINE
  5
98B
330
1F
100
AcDbEntity
  8
0
100
AcDbLine
 10
-1737.156731302962
 20
-375.5165418379899
 30
0.0
 11
-1758.656731302962
 21
-375.5165418379902
 31
0.0
  0
ARC
  5
98C
330
1F
100
AcDbEntity
  8
0
100
AcDbCircle
 10
-1738.456118838116
 20
-406.8165418379906
 30
0.0
 40
10.0
100
AcDbArc
 50
270.0
 51
0.0
  0
LINE
  5
98D
330
1F
100
AcDbEntity
  8
0
100
AcDbLine
 10
-1738.456118838116
 20
-416.8165418379905
 30
0.0
 11
-1764.95673687304
 21
-416.8165418379905
 31
0.0
  0
LINE
  5
98E
330
1F
100
AcDbEntity
  8
0
100
AcDbLine
 10
-1728.456118838116
 20
-406.8165418379906
 30
0.0
 11
-1728.456118838116
 21
-397.7806434531303
 31
0.0
  0
LINE
  5
98F
330
1F
100
AcDbEntity
  8
0
100
AcDbLine
 10
-1816.95673687304
 20
-347.4167785709153
 30
0.0
 11
-1816.95673687304
 21
-360.4167785709153
 31
0.0
  0
ARC
  5
990
330
1F
100
AcDbEntity
  8
0
100
AcDbCircle
 10
-1764.95673687304
 20
-366.8165418379901
 30
0.0
 40
50.0
100
AcDbArc
 50
180.0
 51
270.0
  0
LINE
  5
991
330
1F
100
AcDbEntity
  8
0
100
AcDbLine
 10
-1816.95673687304
 20
-360.4167785709153
 30
0.0
 11
-1814.95673687304
 21
-360.4167785709153
 31
0.0
  0
LINE
  5
992
330
1F
100
AcDbEntity
  8
0
100
AcDbLine
 10
-1816.95673687304
 20
-347.4167785709153
 30
0.0
 11
-1814.95673687304
 21
-347.4167785709153
 31
0.0
  0
LINE
  5
993
330
1F
100
AcDbEntity
  8
0
100
AcDbLine
 10
-1825.26853323582
 20
-348.4167785709085
 30
0.0
 11
-1816.95673687304
 21
-348.4167785709085
 31
0.0
  0
LINE
  5
994
330
1F
100
AcDbEntity
  8
0
100
AcDbLine
 10
-1826.046917162267
 20
-359.4167785709094
 30
0.0
 11
-1816.95673687304
 21
-359.4167785709094
 31
0.0
  0
LWPOLYLINE
  5
995
330
1F
100
AcDbEntity
  8
0
100
AcDbPolyline
 90
        3
 70
     0
 43
0.0
 10
-1825.26853323582
 20
-348.4167785709085
 42
-0.1466198768284205
 10
-1825.53921058114
 20
-355.4921269470906
 42
0.1007154281298933
 10
-1826.046917162267
 20
-359.4167785709094
 42
0.166207051876882
  0
LWPOLYLINE
  5
996
330
1F
100
AcDbEntity
  8
0
100
AcDbPolyline
 90
        3
 70
     0
 43
0.0
 10
-1826.304457486308
 20
-348.4167785709085
 42
-0.1524670157193713
 10
-1826.485446241235
 20
-355.1686488557685
 42
0.0990461184086264
 10
-1827.049283030257
 20
-359.4167785709094
 42
-1.398677039068321
  0
LINE
  5
997
330
1F
100
AcDbEntity
  8
0
100
AcDbLine
 10
-1834.4588215749
 20
-349.4167785709085
 30
0.0
 11
-1834.4588215749
 21
-358.4167785709094
 31
0.0
  0
LINE
  5
998
330
1F
100
AcDbEntity
  8
0
100
AcDbLine
 10
-1833.4588215749
 20
-359.4167785709094
 30
0.0
 11
-1833.4588215749
 21
-348.4167785709085
 31
0.0
  0
LINE
  5
999
330
1F
100
AcDbEntity
  8
0
100
AcDbLine
 10
-1833.4588215749
 20
-359.4167785709094
 30
0.0
 11
-1834.4588215749
 21
-358.4167785709094
 31
0.0
  0
LINE
  5
99A
330
1F
100
AcDbEntity
  8
0
100
AcDbLine
 10
-1833.4588215749
 20
-359.4167785709094
 30
0.0
 11
-1827.049283030257
 21
-359.4167785709094
 31
0.0
  0
LINE
  5
99B
330
1F
100
AcDbEntity
  8
0
100
AcDbLine
 10
-1833.4588215749
 20
-348.4167785709085
 30
0.0
 11
-1834.4588215749
 21
-349.4167785709085
 31
0.0
  0
LINE
  5
99C
330
1F
100
AcDbEntity
  8
0
100
AcDbLine
 10
-1833.4588215749
 20
-348.4167785709085
 30
0.0
 11
-1826.304457486308
 21
-348.4167785709085
 31
0.0
  0
LINE
  5
99D
330
1F
100
AcDbEntity
  8
0
100
AcDbLine
 10
-1737.256255515934
 20
-372.3169358613882
 30
0.0
 11
-1756.656255515934
 21
-372.3169358613882
 31
0.0
  0
LINE
  5
99E
330
1F
100
AcDbEntity
  8
0
100
AcDbLine
 10
-1755.656255515934
 20
-372.3169358613882
 30
0.0
 11
-1755.656255515934
 21
-375.5169358613882
 31
0.0
  0
LINE
  5
99F
330
1F
100
AcDbEntity
  8
0
100
AcDbLine
 10
-1756.656255515934
 20
-372.3169358613882
 30
0.0
 11
-1756.656255515934
 21
-375.5169358613882
 31
0.0
  0
LINE
  5
9A0
330
1F
100
AcDbEntity
  8
0
100
AcDbLine
 10
-1750.156255515934
 20
-372.3169358613882
 30
0.0
 11
-1750.156255515934
 21
-375.5169358613882
 31
0.0
  0
LINE
  5
9A1
330
1F
100
AcDbEntity
  8
0
100
AcDbLine
 10
-1746.656255515934
 20
-372.3169358613882
 30
0.0
 11
-1746.656255515934
 21
-375.5169358613882
 31
0.0
  0
LINE
  5
9A2
330
1F
100
AcDbEntity
  8
0
100
AcDbLine
 10
-1737.256255515934
 20
-372.3169358613882
 30
0.0
 11
-1737.256255515934
 21
-375.5169358613884
 31
0.0
  0
ARC
  5
9A3
330
1F
100
AcDbEntity
  8
0
100
AcDbCircle
 10
-1627.356731302967
 20
-386.3669358613884
 30
0.0
 40
16.8
100
AcDbArc
 50
165.2276750997464
 51
180.0
  0
ARC
  5
9A4
330
1F
100
AcDbEntity
  8
0
100
AcDbCircle
 10
-1746.103613359806
 20
-335.8558550062241
 30
0.0
 40
6.5
100
AcDbArc
 50
317.4664229873287
 51
216.8966974509786
  0
LINE
  5
9A5
330
1F
100
AcDbEntity
  8
0
100
AcDbLine
 10
-1741.331420079083
 20
-340.6061814304392
 30
0.0
 11
-1739.603613359806
 21
-339.6086317559567
 31
0.0
  0
LINE
  5
9A6
330
1F
100
AcDbEntity
  8
0
 48
0.7
100
AcDbLine
 10
-1727.746588430395
 20
-345.8165418379936
 30
0.0
 11
-1721.301677942293
 21
-345.8165418379937
 31
0.0
  0
LINE
  5
9A7
330
1F
100
AcDbEntity
  8
0
 48
0.7
100
AcDbLine
 10
-1638.05742697685
 20
-340.8165418379938
 30
0.0
 11
-1629.656731302963
 21
-340.8165418379937
 31
0.0
  0
LINE
  5
9A8
330
1F
100
AcDbEntity
  8
0
100
AcDbLine
 10
-1622.656731302961
 20
-346.8165418379937
 30
0.0
 11
-1622.65673130296
 21
-342.816050821005
 31
0.0
  0
LINE
  5
9A9
330
1F
100
AcDbEntity
  8
0
100
AcDbLine
 10
-1621.870556634415
 20
-332.0637650882611
 30
0.0
 11
-1624.027416152843
 21
-332.0637650882611
 31
0.0
  0
LINE
  5
9AA
330
1F
100
AcDbEntity
  8
0
100
AcDbLine
 10
-1619.937572947188
 20
-328.3109883385284
 30
0.0
 11
-1624.027416152843
 21
-328.3109883385285
 31
0.0
  0
LINE
  5
9AB
330
1F
100
AcDbEntity
  8
0
100
AcDbLine
 10
-1621.895178741242
 20
-339.5693185877262
 30
0.0
 11
-1624.027416152843
 21
-339.5693185877262
 31
0.0
  0
LINE
  5
9AC
330
1F
100
AcDbEntity
  8
0
100
AcDbLine
 10
-1619.996188710033
 20
-343.3220953374588
 30
0.0
 11
-1622.65673130296
 21
-343.3220953374588
 31
0.0
  0
LINE
  5
9AD
330
1F
100
AcDbEntity
  8
0
100
AcDbLine
 10
-1625.156731302963
 20
-330.1873767133948
 30
0.0
 11
-1625.156731302963
 21
-341.4457069625925
 31
0.0
  0
ARC
  5
9AE
330
1F
100
AcDbEntity
  8
0
100
AcDbCircle
 10
-1618.356731302963
 20
-335.8165418379936
 30
0.0
 40
6.799999999999999
100
AcDbArc
 50
146.5039885927179
 51
213.496011407282
  0
ARC
  5
9AF
330
1F
100
AcDbEntity
  8
0
100
AcDbCircle
 10
-1623.033238121668
 20
-330.1873767133948
 30
0.0
 40
2.12349318129473
100
AcDbArc
 50
117.9162514507882
 51
242.0837485492118
  0
ARC
  5
9B0
330
1F
100
AcDbEntity
  8
0
100
AcDbCircle
 10
-1623.033238121668
 20
-341.4457069625925
 30
0.0
 40
2.12349318129473
100
AcDbArc
 50
117.9162514507882
 51
220.1900691678387
  0
LINE
  5
9B1
330
1F
100
AcDbEntity
  8
0
100
AcDbLine
 10
-1608.807582608228
 20
-331.8165418379937
 30
0.0
 11
-1606.823340765593
 21
-331.8165418379937
 31
0.0
  0
LINE
  5
9B2
330
1F
100
AcDbEntity
  8
0
  6
Continuous
100
AcDbLine
 10
-1608.807582608228
 20
-332.6165418379937
 30
0.0
 11
-1606.763639273055
 21
-332.6165418379937
 31
0.0
  0
LINE
  5
9B3
330
1F
100
AcDbEntity
  8
0
  6
Continuous
100
AcDbLine
 10
-1608.807582608228
 20
-339.0165418379937
 30
0.0
 11
-1608.4352810641
 21
-339.0165418379937
 31
0.0
  0
LINE
  5
9B4
330
1F
100
AcDbEntity
  8
0
100
AcDbLine
 10
-1608.807582608228
 20
-339.8165418379938
 30
0.0
 11
-1608.375579571563
 21
-339.8165418379939
 31
0.0
  0
LINE
  5
9B5
330
1F
100
AcDbEntity
  8
0
100
AcDbLine
 10
-1606.375579571563
 20
-339.8165418379939
 30
0.0
 11
-1604.036197942195
 21
-339.8165418379939
 31
0.0
  0
LINE
  5
9B6
330
1F
100
AcDbEntity
  8
0
  6
Continuous
100
AcDbLine
 10
-1606.4352810641
 20
-339.0165418379937
 30
0.0
 11
-1604.036197942195
 21
-339.0165418379937
 31
0.0
  0
LINE
  5
9B7
330
1F
100
AcDbEntity
  8
0
  6
Continuous
100
AcDbLine
 10
-1604.763639273055
 20
-332.6165418379937
 30
0.0
 11
-1604.036197942195
 21
-332.6165418379937
 31
0.0
  0
LINE
  5
9B8
330
1F
100
AcDbEntity
  8
0
100
AcDbLine
 10
-1604.823340765593
 20
-331.8165418379937
 30
0.0
 11
-1604.036197942195
 21
-331.8165418379937
 31
0.0
  0
LINE
  5
9B9
330
1F
100
AcDbEntity
  8
0
100
AcDbLine
 10
-1597.536197942195
 20
-339.8165418379937
 30
0.0
 11
-1593.456731302963
 21
-339.8165418379937
 31
0.0
  0
LINE
  5
9BA
330
1F
100
AcDbEntity
  8
0
  6
Continuous
100
AcDbLine
 10
-1597.536197942195
 20
-339.0165418379936
 30
0.0
 11
-1592.656731302963
 21
-339.0165418379937
 31
0.0
  0
LINE
  5
9BB
330
1F
100
AcDbEntity
  8
0
  6
Continuous
100
AcDbLine
 10
-1597.536197942195
 20
-332.6165418379936
 30
0.0
 11
-1592.696044471194
 21
-332.6165418379937
 31
0.0
  0
LINE
  5
9BC
330
1F
100
AcDbEntity
  8
0
100
AcDbLine
 10
-1597.536197942195
 20
-331.8165418379936
 30
0.0
 11
-1593.456731302963
 21
-331.8165418379937
 31
0.0
  0
LINE
  5
9BD
330
1F
100
AcDbEntity
  8
0
100
AcDbLine
 10
-1491.504496554951
 20
-371.7117251523896
 30
0.0
 11
-1487.824424617688
 21
-371.7117251523896
 31
0.0
  0
LINE
  5
9BE
330
1F
100
AcDbEntity
  8
0
 48
0.7
100
AcDbLine
 10
-1495.424471612216
 20
-372.1720179607644
 30
0.0
 11
-1492.780937608842
 21
-372.1720179607644
 31
0.0
  0
TEXT
  5
9C6
330
1F
100
AcDbEntity
  8
0
 48
0.7
100
AcDbText
 10
-1472.207040683055
 20
-366.3952293579184
 30
0.0
 40
3.0
  1
09. 7. 7
 50
270.0
  7
OPNUS
100
AcDbText
  0
LINE
  5
A29
330
1F
100
AcDbEntity
  8
0
100
AcDbLine
 10
-1882.940674702778
 20
-646.6504694991929
 30
0.0
 11
-1882.940674702778
 21
-663.0425649984868
 31
0.0
  0
LINE
  5
A2A
330
1F
100
AcDbEntity
  8
0
100
AcDbLine
 10
-1882.940674702778
 20
-646.6504694991929
 30
0.0
 11
-1908.281460735943
 21
-646.6504694991929
 31
0.0
  0
LINE
  5
A2B
330
1F
100
AcDbEntity
  8
0
100
AcDbLine
 10
-1317.340674702778
 20
-247.3504694991929
 30
0.0
 11
-1317.340674702778
 21
-227.1142082296384
 31
0.0
  0
LINE
  5
A2C
330
1F
100
AcDbEntity
  8
0
100
AcDbLine
 10
-1317.340674702778
 20
-247.3504694991929
 30
0.0
 11
-1287.178476507067
 21
-247.3504694991929
 31
0.0
  0
TEXT
  5
A7D
330
1F
100
AcDbEntity
  8
0
370
    30
100
AcDbText
 10
-1421.540674702779
 20
-628.9504694991928
 30
0.0
 40
4.0
  1
ﾁｪﾝﾚｽﾊｰﾄﾞﾛｯｸ
  7
OPNUS
100
AcDbText
  0
TEXT
  5
A7E
330
1F
100
AcDbEntity
  8
0
370
    30
100
AcDbText
 10
-1421.540674702779
 20
-637.9504694991928
 30
0.0
 40
4.5
  1
SH420X-26
  7
OPNUS
100
AcDbText
  0
LINE
  5
AFD
330
1F
100
AcDbEntity
  8
0
100
AcDbLine
 10
-1607.363676572524
 20
-331.8165418379937
 30
0.0
 11
-1607.112270329022
 21
-327.9448856880478
 31
0.0
  0
ARC
  5
C5F
330
1F
100
AcDbEntity
  8
0
100
AcDbCircle
 10
-1636.156731302967
 20
-390.3165418379923
 30
0.0
 40
8.15
100
AcDbArc
 50
11.00963218916998
 51
168.99036781083
  0
VIEWPORT
  5
239
102
{ACAD_XDICTIONARY
360
E68
102
}
330
58
100
AcDbEntity
 67
     1
  8
0
 48
0.7
100
AcDbViewport
 10
133.3499908447265
 20
101.5999970436096
 30
0.0
 40
407.7994628253428
 41
228.4221935424805
 68
     1
 69
     1
 12
133.3499908447265
 22
101.5999970436096
 13
0.0
 23
0.0
 14
10.0
 24
10.0
 15
10.0
 25
10.0
 16
0.0
 26
0.0
 36
1.0
 17
0.0
 27
0.0
 37
0.0
 42
50.0
 43
0.0
 44
0.0
 45
228.4221935424805
 50
0.0
 51
0.0
 72
  1000
 90
    32800
  1

281
     0
 71
     1
 74
     0
110
0.0
120
0.0
130
0.0
111
1.0
121
0.0
131
0.0
112
0.0
122
1.0
132
0.0
 79
     0
146
0.0
  0
ENDSEC
  0
SECTION
  2
OBJECTS
  0
DICTIONARY
  5
C
330
0
100
AcDbDictionary
281
     1
  3
ACAD_COLOR
350
73
  3
ACAD_GROUP
350
D
  3
ACAD_LAYOUT
350
1A
  3
ACAD_MATERIAL
350
72
  3
ACAD_MLINESTYLE
350
17
  3
ACAD_PLOTSETTINGS
350
19
  3
ACAD_PLOTSTYLENAME
350
E
  3
ACDBHEADERROUNDTRIPXREC
350
E61
  3
AcDbVariableDictionary
350
66
  3
DWGPROPS
350
E60
  0
DICTIONARY
  5
9F
330
2
100
AcDbDictionary
280
     1
281
     1
  3
ACAD_LAYERFILTERS
360
AC
  3
ACAD_LAYERSTATES
360
A0
  0
DICTIONARY
  5
234
330
1F
100
AcDbDictionary
280
     1
281
     1
  3
ACAD_SORTENTS
360
235
  0
DICTIONARY
  5
E68
330
239
100
AcDbDictionary
280
     1
281
     1
  3
ACAD_XREC_ROUNDTRIP
360
E69
  0
DICTIONARY
  5
73
102
{ACAD_REACTORS
330
C
102
}
330
C
100
AcDbDictionary
281
     1
  0
DICTIONARY
  5
D
102
{ACAD_REACTORS
330
C
102
}
330
C
100
AcDbDictionary
281
     1
  0
DICTIONARY
  5
1A
102
{ACAD_REACTORS
330
C
102
}
330
C
100
AcDbDictionary
281
     1
  3
Model
350
22
  3
レイアウト1
350
59
  0
DICTIONARY
  5
72
102
{ACAD_REACTORS
330
C
102
}
330
C
100
AcDbDictionary
281
     1
  0
DICTIONARY
  5
17
102
{ACAD_REACTORS
330
C
102
}
330
C
100
AcDbDictionary
281
     1
  3
Standard
350
18
  0
DICTIONARY
  5
19
102
{ACAD_REACTORS
330
C
102
}
330
C
100
AcDbDictionary
281
     1
  0
ACDBDICTIONARYWDFLT
  5
E
102
{ACAD_REACTORS
330
C
102
}
330
C
100
AcDbDictionary
281
     1
  3
Normal
350
F
100
AcDbDictionaryWithDefault
340
F
  0
DICTIONARY
  5
E61
102
{ACAD_REACTORS
330
C
102
}
330
C
100
AcDbDictionary
281
     1
  3
COLORDICT
350
E63
  3
MATERIALDICT
350
E62
  0
DICTIONARY
  5
66
102
{ACAD_REACTORS
330
C
102
}
330
C
100
AcDbDictionary
281
     1
  3
DIMASSOC
350
67
  3
HIDETEXT
350
6B
  3
PROJECTNAME
350
E5E
  0
XRECORD
  5
E60
102
{ACAD_REACTORS
330
C
102
}
330
C
100
AcDbXrecord
280
     1
  1
DWGPROPS COOKIE
  2

  3

  4

  6

  7

  8

  9

300
図面番号=
301
規格=
302
=
303
=
304
=
305
=
306
=
307
=
308
=
309
=
 40
0.0216031828703704
 41
2455040.349441007
 42
2455140.721346748
  1

 90
        2
  0
DICTIONARY
  5
AC
102
{ACAD_REACTORS
330
9F
102
}
330
9F
100
AcDbDictionary
281
     1
  0
DICTIONARY
  5
A0
102
{ACAD_REACTORS
330
9F
102
}
330
9F
100
AcDbDictionary
281
     1
  3
OPNUS
350
A1
  0
SORTENTSTABLE
  5
235
102
{ACAD_REACTORS
330
234
102
}
330
234
100
AcDbSortentsTable
330
1F
  0
XRECORD
  5
E69
102
{ACAD_REACTORS
330
E68
102
}
330
E68
100
AcDbXrecord
280
     1
102
SHADEPLOT
 70
     0
  0
LAYOUT
  5
22
102
{ACAD_XDICTIONARY
360
E64
102
}
102
{ACAD_REACTORS
330
1A
102
}
330
1A
100
AcDbPlotSettings
  1

  2
Adobe PDF
  4
A4
  6

 40
3.174999952316284
 41
3.174999952316284
 42
3.175003051757812
 43
3.17498779296875
 44
209.9098358154297
 45
297.0318298339844
 46
0.0
 47
1.149999999999999
 48
-1882.846335527948
 49
-646.611142065185
140
-1316.986499675423
141
-247.1920211563499
142
1.0
143
1.962170607985258
 70
 11956
 72
     1
 73
     1
 74
     4
  7
monochrome.ctb
 75
     0
147
0.5096396796131772
148
1882.846335527948
149
646.611142065185
100
AcDbLayout
  1
Model
 70
     1
 71
     0
 10
0.0
 20
0.0
 11
12.0
 21
9.0
 12
0.0
 22
0.0
 32
0.0
 14
0.0
 24
0.0
 34
0.0
 15
0.0
 25
0.0
 35
0.0
146
0.0
 13
0.0
 23
0.0
 33
0.0
 16
1.0
 26
0.0
 36
0.0
 17
0.0
 27
1.0
 37
0.0
 76
     0
330
1F
  0
LAYOUT
  5
59
102
{ACAD_XDICTIONARY
360
E66
102
}
102
{ACAD_REACTORS
330
1A
102
}
330
1A
100
AcDbPlotSettings
  1

  2
none_device
  4
Letter_(8.50_x_11.00_Inches)
  6

 40
6.349999904632568
 41
6.349999904632568
 42
6.350006103515625
 43
6.350006103515625
 44
215.8999938964844
 45
279.3999938964844
 46
0.0
 47
0.0
 48
0.0
 49
0.0
140
0.0
141
0.0
142
1.0
143
1.0
 70
   688
 72
     1
 73
     1
 74
     5
  7
monochrome.ctb
 75
    16
147
1.0
148
0.0
149
0.0
100
AcDbLayout
  1
レイアウト1
 70
     1
 71
     1
 10
0.0
 20
0.0
 11
12.0
 21
9.0
 12
0.0
 22
0.0
 32
0.0
 14
1.000000000000000E+20
 24
1.000000000000000E+20
 34
1.000000000000000E+20
 15
-1.000000000000000E+20
 25
-1.000000000000000E+20
 35
-1.000000000000000E+20
146
0.0
 13
0.0
 23
0.0
 33
0.0
 16
1.0
 26
0.0
 36
0.0
 17
0.0
 27
1.0
 37
0.0
 76
     0
330
58
331
239
  0
MLINESTYLE
  5
18
102
{ACAD_REACTORS
330
17
102
}
330
17
100
AcDbMlineStyle
  2
STANDARD
 70
     0
  3

 62
   256
 51
90.0
 52
90.0
 71
     2
 49
0.5
 62
   256
  6
BYLAYER
 49
-0.5
 62
   256
  6
BYLAYER
  0
ACDBPLACEHOLDER
  5
F
102
{ACAD_REACTORS
330
E
102
}
330
E
  0
XRECORD
  5
E63
102
{ACAD_REACTORS
330
E61
102
}
330
E61
100
AcDbXrecord
280
     1
340
73
  0
XRECORD
  5
E62
102
{ACAD_REACTORS
330
E61
102
}
330
E61
100
AcDbXrecord
280
     1
340
72
  0
DICTIONARYVAR
  5
67
102
{ACAD_REACTORS
330
66
102
}
330
66
100
DictionaryVariables
280
     0
  1
2
  0
DICTIONARYVAR
  5
6B
102
{ACAD_REACTORS
330
66
102
}
330
66
100
DictionaryVariables
280
     0
  1
1
  0
DICTIONARYVAR
  5
E5E
102
{ACAD_REACTORS
330
66
102
}
330
66
100
DictionaryVariables
280
     0
  1

  0
XRECORD
  5
A1
102
{ACAD_REACTORS
330
A0
102
}
330
A0
100
AcDbXrecord
280
     1
 91
       16
330
95
 90
        8
 62
     7
370
    15
331
16
  1
色_7
330
94
 90
        8
 62
     6
370
    15
331
16
  1
色_6
330
93
 90
        8
 62
     5
370
    15
331
16
  1
色_5
330
92
 90
        8
 62
     4
370
    30
331
16
  1
色_4
330
91
 90
        8
 62
     3
370
    30
331
16
  1
色_3
330
90
 90
        8
 62
     2
370
    30
331
16
  1
色_2
330
8F
 90
        8
 62
     1
370
    30
331
16
  1
色_1
330
10
 90
        8
 62
     7
370
    30
331
16
  1
色_7
  0
DICTIONARY
  5
E64
330
22
100
AcDbDictionary
280
     1
281
     1
  3
ACAD_XREC_ROUNDTRIP
360
E65
  0
DICTIONARY
  5
E66
330
59
100
AcDbDictionary
280
     1
281
     1
  3
ACAD_XREC_ROUNDTRIP
360
E67
  0
XRECORD
  5
E65
102
{ACAD_REACTORS
330
E64
102
}
330
E64
100
AcDbXrecord
280
     1
102
SHADEPLOT
 70
     0
102
SHADEPLOTRESLEVEL
 70
     2
102
SHADEPLOTCUSTOMDPI
 70
   300
  0
XRECORD
  5
E67
102
{ACAD_REACTORS
330
E66
102
}
330
E66
100
AcDbXrecord
280
     1
102
SHADEPLOT
 70
     0
102
SHADEPLOTRESLEVEL
 70
     2
102
SHADEPLOTCUSTOMDPI
 70
   300
  0
ENDSEC
  0
EOF
