  0
SECTION
  2
HEADER
  9
$ACADVER
  1
AC1015
  9
$ACADMAINTVER
 70
    20
  9
$DWGCODEPAGE
  3
ANSI_932
  9
$INSBASE
 10
-480.0
 20
-308.9999999999999
 30
0.0
  9
$EXTMIN
 10
-496.1937725698057
 20
-322.8936134262415
 30
-0.0000000000001222
  9
$EXTMAX
 10
-73.39683785457054
 20
-15.34838488027287
 30
0.0000000000001222
  9
$LIMMIN
 10
0.0
 20
0.0
  9
$LIMMAX
 10
12.0
 20
9.0
  9
$ORTHOMODE
 70
     1
  9
$REGENMODE
 70
     1
  9
$FILLMODE
 70
     1
  9
$QTEXTMODE
 70
     0
  9
$MIRRTEXT
 70
     0
  9
$LTSCALE
 40
1.0
  9
$ATTMODE
 70
     1
  9
$TEXTSIZE
 40
3.0
  9
$TRACEWID
 40
0.05
  9
$TEXTSTYLE
  7
OPNUS
  9
$CLAYER
  8
4
  9
$CELTYPE
  6
ByLayer
  9
$CECOLOR
 62
   256
  9
$CELTSCALE
 40
1.0
  9
$DISPSILH
 70
     0
  9
$DIMSCALE
 40
1.0
  9
$DIMASZ
 40
3.0
  9
$DIMEXO
 40
1.0
  9
$DIMDLI
 40
6.0
  9
$DIMRND
 40
0.0
  9
$DIMDLE
 40
0.0
  9
$DIMEXE
 40
1.0
  9
$DIMTP
 40
1.0
  9
$DIMTM
 40
1.000000001
  9
$DIMTXT
 40
3.0
  9
$DIMCEN
 40
0.0
  9
$DIMTSZ
 40
0.0
  9
$DIMTOL
 70
     0
  9
$DIMLIM
 70
     0
  9
$DIMTIH
 70
     0
  9
$DIMTOH
 70
     0
  9
$DIMSE1
 70
     0
  9
$DIMSE2
 70
     0
  9
$DIMTAD
 70
     1
  9
$DIMZIN
 70
     8
  9
$DIMBLK
  1

  9
$DIMASO
 70
     1
  9
$DIMSHO
 70
     1
  9
$DIMPOST
  1

  9
$DIMAPOST
  1

  9
$DIMALT
 70
     0
  9
$DIMALTD
 70
     2
  9
$DIMALTF
 40
25.4
  9
$DIMLFAC
 40
1.0
  9
$DIMTOFL
 70
     1
  9
$DIMTVP
 40
0.0
  9
$DIMTIX
 70
     0
  9
$DIMSOXD
 70
     0
  9
$DIMSAH
 70
     0
  9
$DIMBLK1
  1

  9
$DIMBLK2
  1

  9
$DIMSTYLE
  2
OPNUS
  9
$DIMCLRD
 70
     6
  9
$DIMCLRE
 70
     6
  9
$DIMCLRT
 70
     2
  9
$DIMTFAC
 40
0.6
  9
$DIMGAP
 40
0.5
  9
$DIMJUST
 70
     0
  9
$DIMSD1
 70
     0
  9
$DIMSD2
 70
     0
  9
$DIMTOLJ
 70
     1
  9
$DIMTZIN
 70
     8
  9
$DIMALTZ
 70
     0
  9
$DIMALTTZ
 70
     0
  9
$DIMUPT
 70
     0
  9
$DIMDEC
 70
     2
  9
$DIMTDEC
 70
     2
  9
$DIMALTU
 70
     2
  9
$DIMALTTD
 70
     2
  9
$DIMTXSTY
  7
OPNUS
  9
$DIMAUNIT
 70
     0
  9
$DIMADEC
 70
     2
  9
$DIMALTRND
 40
0.0
  9
$DIMAZIN
 70
     2
  9
$DIMDSEP
 70
    46
  9
$DIMATFIT
 70
     3
  9
$DIMFRAC
 70
     0
  9
$DIMLDRBLK
  1

  9
$DIMLUNIT
 70
     2
  9
$DIMLWD
 70
    15
  9
$DIMLWE
 70
    15
  9
$DIMTMOVE
 70
     0
  9
$LUNITS
 70
     2
  9
$LUPREC
 70
     4
  9
$SKETCHINC
 40
0.1
  9
$FILLETRAD
 40
0.0
  9
$AUNITS
 70
     0
  9
$AUPREC
 70
     0
  9
$MENU
  1
.
  9
$ELEVATION
 40
0.0
  9
$PELEVATION
 40
0.0
  9
$THICKNESS
 40
0.0
  9
$LIMCHECK
 70
     0
  9
$CHAMFERA
 40
0.0
  9
$CHAMFERB
 40
0.0
  9
$CHAMFERC
 40
0.0
  9
$CHAMFERD
 40
0.0
  9
$SKPOLY
 70
     0
  9
$TDCREATE
 40
2453731.498369317
  9
$TDUCREATE
 40
2453731.123369317
  9
$TDUPDATE
 40
2455143.611896875
  9
$TDUUPDATE
 40
2455143.236896875
  9
$TDINDWG
 40
0.4854118056
  9
$TDUSRTIMER
 40
0.4854118056
  9
$USRTIMER
 70
     1
  9
$ANGBASE
 50
0.0
  9
$ANGDIR
 70
     0
  9
$PDMODE
 70
     0
  9
$PDSIZE
 40
0.0
  9
$PLINEWID
 40
0.0
  9
$SPLFRAME
 70
     0
  9
$SPLINETYPE
 70
     6
  9
$SPLINESEGS
 70
     8
  9
$HANDSEED
  5
F74
  9
$SURFTAB1
 70
     6
  9
$SURFTAB2
 70
     6
  9
$SURFTYPE
 70
     6
  9
$SURFU
 70
     6
  9
$SURFV
 70
     6
  9
$UCSBASE
  2

  9
$UCSNAME
  2

  9
$UCSORG
 10
0.0
 20
0.0
 30
0.0
  9
$UCSXDIR
 10
1.0
 20
0.0
 30
0.0
  9
$UCSYDIR
 10
0.0
 20
1.0
 30
0.0
  9
$UCSORTHOREF
  2

  9
$UCSORTHOVIEW
 70
     0
  9
$UCSORGTOP
 10
0.0
 20
0.0
 30
0.0
  9
$UCSORGBOTTOM
 10
0.0
 20
0.0
 30
0.0
  9
$UCSORGLEFT
 10
0.0
 20
0.0
 30
0.0
  9
$UCSORGRIGHT
 10
0.0
 20
0.0
 30
0.0
  9
$UCSORGFRONT
 10
0.0
 20
0.0
 30
0.0
  9
$UCSORGBACK
 10
0.0
 20
0.0
 30
0.0
  9
$PUCSBASE
  2

  9
$PUCSNAME
  2

  9
$PUCSORG
 10
0.0
 20
0.0
 30
0.0
  9
$PUCSXDIR
 10
1.0
 20
0.0
 30
0.0
  9
$PUCSYDIR
 10
0.0
 20
1.0
 30
0.0
  9
$PUCSORTHOREF
  2

  9
$PUCSORTHOVIEW
 70
     0
  9
$PUCSORGTOP
 10
0.0
 20
0.0
 30
0.0
  9
$PUCSORGBOTTOM
 10
0.0
 20
0.0
 30
0.0
  9
$PUCSORGLEFT
 10
0.0
 20
0.0
 30
0.0
  9
$PUCSORGRIGHT
 10
0.0
 20
0.0
 30
0.0
  9
$PUCSORGFRONT
 10
0.0
 20
0.0
 30
0.0
  9
$PUCSORGBACK
 10
0.0
 20
0.0
 30
0.0
  9
$USERI1
 70
    11
  9
$USERI2
 70
     0
  9
$USERI3
 70
     0
  9
$USERI4
 70
     0
  9
$USERI5
 70
     0
  9
$USERR1
 40
0.0
  9
$USERR2
 40
0.0
  9
$USERR3
 40
0.0
  9
$USERR4
 40
0.0
  9
$USERR5
 40
0.0
  9
$WORLDVIEW
 70
     1
  9
$SHADEDGE
 70
     3
  9
$SHADEDIF
 70
    70
  9
$TILEMODE
 70
     1
  9
$MAXACTVP
 70
    64
  9
$PINSBASE
 10
0.0
 20
0.0
 30
0.0
  9
$PLIMCHECK
 70
     0
  9
$PEXTMIN
 10
0.0
 20
0.0
 30
0.0
  9
$PEXTMAX
 10
0.0
 20
0.0
 30
0.0
  9
$PLIMMIN
 10
0.0
 20
0.0
  9
$PLIMMAX
 10
12.0
 20
9.0
  9
$UNITMODE
 70
     0
  9
$VISRETAIN
 70
     1
  9
$PLINEGEN
 70
     0
  9
$PSLTSCALE
 70
     1
  9
$TREEDEPTH
 70
  3020
  9
$CMLSTYLE
  2
Standard
  9
$CMLJUST
 70
     0
  9
$CMLSCALE
 40
1.0
  9
$PROXYGRAPHICS
 70
     1
  9
$MEASUREMENT
 70
     1
  9
$CELWEIGHT
370
    -1
  9
$ENDCAPS
280
     0
  9
$JOINSTYLE
280
     0
  9
$LWDISPLAY
290
     0
  9
$INSUNITS
 70
     1
  9
$HYPERLINKBASE
  1

  9
$STYLESHEET
  1
monochrome.ctb
  9
$XEDIT
290
     1
  9
$CEPSNTYPE
380
     0
  9
$PSTYLEMODE
290
     1
  9
$FINGERPRINTGUID
  2
{FDEAD576-A652-11D2-9A35-0060089B3A3F}
  9
$VERSIONGUID
  2
{4BF2505B-E041-4776-B812-1B214F77B0D9}
  9
$EXTNAMES
290
     1
  9
$PSVPSCALE
 40
0.0
  9
$OLESTARTUP
290
     0
  0
ENDSEC
  0
SECTION
  2
CLASSES
  0
CLASS
  1
ACDBDICTIONARYWDFLT
  2
AcDbDictionaryWithDefault
  3
ObjectDBX Classes
 90
        0
280
     0
281
     0
  0
CLASS
  1
ACDBPLACEHOLDER
  2
AcDbPlaceHolder
  3
ObjectDBX Classes
 90
        0
280
     0
281
     0
  0
CLASS
  1
LAYOUT
  2
AcDbLayout
  3
ObjectDBX Classes
 90
        0
280
     0
281
     0
  0
CLASS
  1
DICTIONARYVAR
  2
AcDbDictionaryVar
  3
ObjectDBX Classes
 90
        0
280
     0
281
     0
  0
CLASS
  1
DIMASSOC
  2
AcDbDimAssoc
  3
"AcDbDimAssoc|Product Desc:     AcDim ARX App For Dimension|Company:          Autodesk, Inc.|WEB Address:      www.autodesk.com"
 90
        0
280
     0
281
     0
  0
ENDSEC
  0
SECTION
  2
TABLES
  0
TABLE
  2
VPORT
  5
1D
330
0
100
AcDbSymbolTable
 70
     2
  0
VPORT
  5
F6C
330
1D
100
AcDbSymbolTableRecord
100
AcDbViewportTableRecord
  2
*Active
 70
     0
 10
0.0
 20
0.0
 11
1.0
 21
1.0
 12
-240.2387806390512
 22
-222.3755954454321
 13
0.0
 23
0.0
 14
3.0
 24
3.0
 15
0.5
 25
0.5
 16
0.0
 26
0.0
 36
1.0
 17
0.0
 27
0.0
 37
0.0
 40
394.4753732173929
 41
2.050420168067226
 42
50.0
 43
0.0
 44
0.0
 50
0.0
 51
0.0
 71
     0
 72
  1000
 73
     1
 74
     3
 75
     0
 76
     0
 77
     0
 78
     0
281
     0
 65
     1
110
0.0
120
0.0
130
0.0
111
1.0
121
0.0
131
0.0
112
0.0
122
1.0
132
0.0
 79
     0
146
0.0
  0
ENDTAB
  0
TABLE
  2
LTYPE
  5
18
330
0
100
AcDbSymbolTable
 70
     4
  0
LTYPE
  5
19
330
18
100
AcDbSymbolTableRecord
100
AcDbLinetypeTableRecord
  2
ByBlock
 70
     0
  3

 72
    65
 73
     0
 40
0.0
  0
LTYPE
  5
1A
330
18
100
AcDbSymbolTableRecord
100
AcDbLinetypeTableRecord
  2
ByLayer
 70
     0
  3

 72
    65
 73
     0
 40
0.0
  0
LTYPE
  5
8
330
18
100
AcDbSymbolTableRecord
100
AcDbLinetypeTableRecord
  2
Continuous
 70
     0
  3
Solid line
 72
    65
 73
     0
 40
0.0
  0
LTYPE
  5
11C
330
18
100
AcDbSymbolTableRecord
100
AcDbLinetypeTableRecord
  2
CENTER
 70
     0
  3
Center ____ _ ____ _ ____ _ ____ _ ____ _ ____
 72
    65
 73
     4
 40
50.8
 49
31.75
 74
     0
 49
-6.349999999999999
 74
     0
 49
6.349999999999999
 74
     0
 49
-6.349999999999999
 74
     0
  0
LTYPE
  5
1DE
330
18
100
AcDbSymbolTableRecord
100
AcDbLinetypeTableRecord
  2
HIDDEN2
 70
     0
  3
Hidden (.5x) _ _ _ _ _ _ _ _ _ _ _ _ _ _ _ _ _
 72
    65
 73
     2
 40
4.762499999999999
 49
3.174999999999999
 74
     0
 49
-1.587499999999999
 74
     0
  0
LTYPE
  5
1E7
330
18
100
AcDbSymbolTableRecord
100
AcDbLinetypeTableRecord
  2
HIDDENX2
 70
     0
  3
Hidden (2x) ____ ____ ____ ____ ____ ____ ____
 72
    65
 73
     2
 40
19.05
 49
12.7
 74
     0
 49
-6.349999999999999
 74
     0
  0
ENDTAB
  0
TABLE
  2
LAYER
  5
10
102
{ACAD_XDICTIONARY
360
11
102
}
330
0
100
AcDbSymbolTable
 70
     8
  0
LAYER
  5
4
330
10
100
AcDbSymbolTableRecord
100
AcDbLayerTableRecord
  2
0
 70
     0
 62
     7
  6
Continuous
370
    15
390
5
  0
LAYER
  5
91
330
10
100
AcDbSymbolTableRecord
100
AcDbLayerTableRecord
  2
2
 70
     0
 62
     2
  6
Continuous
370
    30
390
5
  0
LAYER
  5
B5
330
10
100
AcDbSymbolTableRecord
100
AcDbLayerTableRecord
  2
4
 70
     0
 62
     4
  6
Continuous
370
    30
390
5
  0
LAYER
  5
3BD
330
10
100
AcDbSymbolTableRecord
100
AcDbLayerTableRecord
  2
5
 70
     0
 62
     5
  6
Continuous
370
    15
390
5
  0
LAYER
  5
2D
330
10
100
AcDbSymbolTableRecord
100
AcDbLayerTableRecord
  2
S
 70
     0
 62
     6
  6
Continuous
370
    15
390
5
  0
LAYER
  5
11B
330
10
100
AcDbSymbolTableRecord
100
AcDbLayerTableRecord
  2
T
 70
     0
 62
     5
  6
CENTER
370
    15
390
5
  0
LAYER
  5
2A
330
10
100
AcDbSymbolTableRecord
100
AcDbLayerTableRecord
  2
W
 70
     0
 62
     7
  6
Continuous
370
    15
390
5
  0
LAYER
  5
116
330
10
100
AcDbSymbolTableRecord
100
AcDbLayerTableRecord
  2
Defpoints
 70
     0
 62
     7
  6
Continuous
290
     0
370
    -3
390
5
  0
ENDTAB
  0
TABLE
  2
STYLE
  5
14
330
0
100
AcDbSymbolTable
 70
     4
  0
STYLE
  5
15
330
14
100
AcDbSymbolTableRecord
100
AcDbTextStyleTableRecord
  2
Standard
 70
     0
 40
0.0
 41
1.0
 50
0.0
 71
     0
 42
0.2
  3
MS Mincho.ttf
  4

1001
ACAD
1000
MS Mincho
1071
    32785
  0
STYLE
  5
22
330
14
100
AcDbSymbolTableRecord
100
AcDbTextStyleTableRecord
  2
OPNUS
 70
     0
 40
0.0
 41
1.0
 50
0.0
 71
     0
 42
3.0
  3
MS PGothic.ttf
  4

1001
ACAD
1000
MS PGothic
1071
    32818
  0
STYLE
  5
3A7
330
14
100
AcDbSymbolTableRecord
100
AcDbTextStyleTableRecord
  2
スタイル1
 70
     0
 40
0.0
 41
1.0
 50
0.0
 71
     0
 42
8.0
  3
cityb___.ttf
  4

1001
ACAD
1000
CityBlueprint
1071
      514
  0
STYLE
  5
CC8
330
14
100
AcDbSymbolTableRecord
100
AcDbTextStyleTableRecord
  2
DIMENSION
 70
     0
 40
0.0
 41
1.0
 50
0.0
 71
     0
 42
3.0
  3
MS PGothic.ttf
  4

1001
ACAD
1000
MS PGothic
1071
    32818
  0
ENDTAB
  0
TABLE
  2
VIEW
  5
1B
330
0
100
AcDbSymbolTable
 70
     0
  0
ENDTAB
  0
TABLE
  2
UCS
  5
1C
330
0
100
AcDbSymbolTable
 70
     0
  0
ENDTAB
  0
TABLE
  2
APPID
  5
1F
330
0
100
AcDbSymbolTable
 70
     1
  0
APPID
  5
16
330
1F
100
AcDbSymbolTableRecord
100
AcDbRegAppTableRecord
  2
ACAD
 70
     0
  0
ENDTAB
  0
TABLE
  2
DIMSTYLE
  5
20
330
0
100
AcDbSymbolTable
 70
     3
100
AcDbDimStyleTable
 71
     2
340
21
340
23
  0
DIMSTYLE
105
23
330
20
100
AcDbSymbolTableRecord
100
AcDbDimStyleTableRecord
  2
Standard
 70
     0
340
15
  0
DIMSTYLE
105
21
330
20
100
AcDbSymbolTableRecord
100
AcDbDimStyleTableRecord
  2
OPNUS
 70
     0
 41
3.0
 42
1.0
 43
6.0
 44
1.0
 47
1.0
 48
1.000000001
 73
     0
 74
     0
 77
     1
 78
     8
 79
     2
140
3.0
141
0.0
146
0.6
147
0.5
172
     1
176
     6
177
     6
178
     2
179
     2
271
     2
272
     2
284
     8
340
22
371
    15
372
    15
  0
DIMSTYLE
105
189
330
20
100
AcDbSymbolTableRecord
100
AcDbDimStyleTableRecord
  2
AMLT_1
 70
     0
 41
3.0
 42
1.0
 43
6.0
 44
1.0
 47
0.01
 73
     0
 74
     0
 77
     1
 78
     8
 79
     2
140
3.0
141
0.0
146
0.6
147
0.5
172
     1
176
     6
177
     6
178
     2
179
     2
271
     2
272
     2
284
     8
340
22
371
    15
372
    15
  0
ENDTAB
  0
TABLE
  2
BLOCK_RECORD
  5
1
330
0
100
AcDbSymbolTable
 70
    46
  0
BLOCK_RECORD
  5
2
330
1
100
AcDbSymbolTableRecord
100
AcDbBlockTableRecord
  2
*Model_Space
340
A
  0
BLOCK_RECORD
  5
C
330
1
100
AcDbSymbolTableRecord
100
AcDbBlockTableRecord
  2
*Paper_Space
340
F
  0
BLOCK_RECORD
  5
185
330
1
100
AcDbSymbolTableRecord
100
AcDbBlockTableRecord
  2
_DotSmall
340
0
102
{BLKREFS
331
191
331
1A1
331
EB0
331
EBA
102
}
  0
BLOCK_RECORD
  5
86
330
1
100
AcDbSymbolTableRecord
100
AcDbBlockTableRecord
  2
OPNUSbal
340
0
  0
BLOCK_RECORD
  5
12E
330
1
100
AcDbSymbolTableRecord
100
AcDbBlockTableRecord
  2
*D2
340
0
  0
BLOCK_RECORD
  5
18A
330
1
100
AcDbSymbolTableRecord
100
AcDbBlockTableRecord
  2
*D3
340
0
  0
BLOCK_RECORD
  5
199
330
1
100
AcDbSymbolTableRecord
100
AcDbBlockTableRecord
  2
*D4
340
0
  0
BLOCK_RECORD
  5
1A8
330
1
100
AcDbSymbolTableRecord
100
AcDbBlockTableRecord
  2
*D5
340
0
  0
BLOCK_RECORD
  5
1B5
330
1
100
AcDbSymbolTableRecord
100
AcDbBlockTableRecord
  2
*D6
340
0
  0
BLOCK_RECORD
  5
1C2
330
1
100
AcDbSymbolTableRecord
100
AcDbBlockTableRecord
  2
*D7
340
0
  0
BLOCK_RECORD
  5
1CF
330
1
100
AcDbSymbolTableRecord
100
AcDbBlockTableRecord
  2
*D8
340
0
  0
BLOCK_RECORD
  5
344
330
1
100
AcDbSymbolTableRecord
100
AcDbBlockTableRecord
  2
*D9
340
0
  0
BLOCK_RECORD
  5
351
330
1
100
AcDbSymbolTableRecord
100
AcDbBlockTableRecord
  2
*D10
340
0
  0
BLOCK_RECORD
  5
1EB
330
1
100
AcDbSymbolTableRecord
100
AcDbBlockTableRecord
  2
*D11
340
0
  0
BLOCK_RECORD
  5
35E
330
1
100
AcDbSymbolTableRecord
100
AcDbBlockTableRecord
  2
*D12
340
0
  0
BLOCK_RECORD
  5
368
330
1
100
AcDbSymbolTableRecord
100
AcDbBlockTableRecord
  2
*D13
340
0
  0
BLOCK_RECORD
  5
375
330
1
100
AcDbSymbolTableRecord
100
AcDbBlockTableRecord
  2
*D14
340
0
  0
BLOCK_RECORD
  5
1F8
330
1
100
AcDbSymbolTableRecord
100
AcDbBlockTableRecord
  2
*D15
340
0
  0
BLOCK_RECORD
  5
207
330
1
100
AcDbSymbolTableRecord
100
AcDbBlockTableRecord
  2
*D16
340
0
  0
BLOCK_RECORD
  5
216
330
1
100
AcDbSymbolTableRecord
100
AcDbBlockTableRecord
  2
*D17
340
0
  0
BLOCK_RECORD
  5
10D
330
1
100
AcDbSymbolTableRecord
100
AcDbBlockTableRecord
  2
*D18
340
0
  0
BLOCK_RECORD
  5
121
330
1
100
AcDbSymbolTableRecord
100
AcDbBlockTableRecord
  2
*D19
340
0
  0
BLOCK_RECORD
  5
294
330
1
100
AcDbSymbolTableRecord
100
AcDbBlockTableRecord
  2
*D20
340
0
  0
BLOCK_RECORD
  5
264
330
1
100
AcDbSymbolTableRecord
100
AcDbBlockTableRecord
  2
*D21
340
0
  0
BLOCK_RECORD
  5
286
330
1
100
AcDbSymbolTableRecord
100
AcDbBlockTableRecord
  2
*D22
340
0
  0
BLOCK_RECORD
  5
4F1
330
1
100
AcDbSymbolTableRecord
100
AcDbBlockTableRecord
  2
REV
340
0
  0
BLOCK_RECORD
  5
CCC
330
1
100
AcDbSymbolTableRecord
100
AcDbBlockTableRecord
  2
製品図-OPNUSマーク
340
0
  0
BLOCK_RECORD
  5
D18
330
1
100
AcDbSymbolTableRecord
100
AcDbBlockTableRecord
  2
*D25
340
0
  0
BLOCK_RECORD
  5
D24
330
1
100
AcDbSymbolTableRecord
100
AcDbBlockTableRecord
  2
*D26
340
0
  0
BLOCK_RECORD
  5
D30
330
1
100
AcDbSymbolTableRecord
100
AcDbBlockTableRecord
  2
*D27
340
0
  0
BLOCK_RECORD
  5
D39
330
1
100
AcDbSymbolTableRecord
100
AcDbBlockTableRecord
  2
*D28
340
0
  0
BLOCK_RECORD
  5
D45
330
1
100
AcDbSymbolTableRecord
100
AcDbBlockTableRecord
  2
*D29
340
0
  0
BLOCK_RECORD
  5
D51
330
1
100
AcDbSymbolTableRecord
100
AcDbBlockTableRecord
  2
*D30
340
0
  0
BLOCK_RECORD
  5
D61
330
1
100
AcDbSymbolTableRecord
100
AcDbBlockTableRecord
  2
*D31
340
0
  0
BLOCK_RECORD
  5
D6C
330
1
100
AcDbSymbolTableRecord
100
AcDbBlockTableRecord
  2
*D32
340
0
  0
BLOCK_RECORD
  5
D75
330
1
100
AcDbSymbolTableRecord
100
AcDbBlockTableRecord
  2
*D33
340
0
  0
BLOCK_RECORD
  5
D81
330
1
100
AcDbSymbolTableRecord
100
AcDbBlockTableRecord
  2
*D34
340
0
  0
BLOCK_RECORD
  5
D8F
330
1
100
AcDbSymbolTableRecord
100
AcDbBlockTableRecord
  2
*D35
340
0
  0
BLOCK_RECORD
  5
D9D
330
1
100
AcDbSymbolTableRecord
100
AcDbBlockTableRecord
  2
*D36
340
0
  0
BLOCK_RECORD
  5
DA9
330
1
100
AcDbSymbolTableRecord
100
AcDbBlockTableRecord
  2
*D37
340
0
  0
BLOCK_RECORD
  5
DB5
330
1
100
AcDbSymbolTableRecord
100
AcDbBlockTableRecord
  2
*D38
340
0
  0
BLOCK_RECORD
  5
DC1
330
1
100
AcDbSymbolTableRecord
100
AcDbBlockTableRecord
  2
*D39
340
0
  0
BLOCK_RECORD
  5
DCD
330
1
100
AcDbSymbolTableRecord
100
AcDbBlockTableRecord
  2
*D40
340
0
  0
BLOCK_RECORD
  5
DD9
330
1
100
AcDbSymbolTableRecord
100
AcDbBlockTableRecord
  2
*D41
340
0
  0
BLOCK_RECORD
  5
DE7
330
1
100
AcDbSymbolTableRecord
100
AcDbBlockTableRecord
  2
*D42
340
0
  0
BLOCK_RECORD
  5
DF5
330
1
100
AcDbSymbolTableRecord
100
AcDbBlockTableRecord
  2
*D43
340
0
  0
BLOCK_RECORD
  5
E01
330
1
100
AcDbSymbolTableRecord
100
AcDbBlockTableRecord
  2
*D44
340
0
  0
BLOCK_RECORD
  5
E0D
330
1
100
AcDbSymbolTableRecord
100
AcDbBlockTableRecord
  2
*D45
340
0
  0
ENDTAB
  0
ENDSEC
  0
SECTION
  2
BLOCKS
  0
BLOCK
  5
3
330
2
100
AcDbEntity
  8
0
100
AcDbBlockBegin
  2
*Model_Space
 70
     0
 10
0.0
 20
0.0
 30
0.0
  3
*Model_Space
  1

  0
ENDBLK
  5
9
330
2
100
AcDbEntity
  8
0
100
AcDbBlockEnd
  0
BLOCK
  5
D
330
C
100
AcDbEntity
 67
     1
  8
0
100
AcDbBlockBegin
  2
*Paper_Space
 70
     0
 10
0.0
 20
0.0
 30
0.0
  3
*Paper_Space
  1

  0
ENDBLK
  5
E
330
C
100
AcDbEntity
 67
     1
  8
0
100
AcDbBlockEnd
  0
BLOCK
  5
186
330
185
100
AcDbEntity
  8
0
100
AcDbBlockBegin
  2
_DotSmall
 70
     0
 10
0.0
 20
0.0
 30
0.0
  3
_DotSmall
  1

  0
LWPOLYLINE
  5
187
330
185
100
AcDbEntity
  8
0
  6
ByBlock
 62
     0
100
AcDbPolyline
 90
        2
 70
     1
 43
0.5
 10
-0.0625
 20
0.0
 42
1.0
 10
0.0625
 20
0.0
 42
1.0
  0
ENDBLK
  5
188
330
185
100
AcDbEntity
  8
0
100
AcDbBlockEnd
  0
BLOCK
  5
87
330
86
100
AcDbEntity
  8
0
100
AcDbBlockBegin
  2
OPNUSbal
 70
     2
 10
0.0
 20
0.0
 30
0.0
  3
OPNUSbal
  1

  0
CIRCLE
  5
88
330
86
100
AcDbEntity
  8
0
100
AcDbCircle
 10
0.0
 20
0.0
 30
0.0
 40
4.0
  0
ATTDEF
  5
89
330
86
100
AcDbEntity
  8
0
100
AcDbText
 10
-2.485270067823392
 20
-2.638975627828543
 30
0.0
 40
5.0
  1

 50
1.363947738718758
 41
0.1479382939315049
 72
     5
 11
2.670095149987438
 21
-2.516227017699712
 31
0.0
100
AcDbAttributeDefinition
  3
バルーン番号
  2
B_NUMBER
 70
     0
  0
ENDBLK
  5
8A
330
86
100
AcDbEntity
  8
0
100
AcDbBlockEnd
  0
BLOCK
  5
12F
330
12E
100
AcDbEntity
  8
0
100
AcDbBlockBegin
  2
*D2
 70
     1
 10
0.0
 20
0.0
 30
0.0
  3
*D2
  1

  0
LINE
  5
130
330
12E
100
AcDbEntity
  8
S
 62
     6
370
    15
100
AcDbLine
 10
-328.9945849635606
 20
-165.8015215300406
 30
0.0
 11
-328.9945849635606
 21
-157.9999999999999
 31
0.0
  0
LINE
  5
131
330
12E
100
AcDbEntity
  8
S
 62
     6
370
    15
100
AcDbLine
 10
-319.9945853509908
 20
-165.413017524072
 30
0.0
 11
-319.9945853509908
 21
-157.9999999999999
 31
0.0
  0
LINE
  5
132
330
12E
100
AcDbEntity
  8
S
 62
     6
370
    15
100
AcDbLine
 10
-325.9945849635605
 20
-158.9999999999999
 30
0.0
 11
-322.9945853509907
 21
-158.9999999999999
 31
0.0
  0
SOLID
  5
133
330
12E
100
AcDbEntity
  8
S
 62
     6
100
AcDbTrace
 10
-325.9945849635605
 20
-158.4999999999999
 30
0.0
 11
-325.9945849635605
 21
-159.4999999999999
 31
0.0
 12
-328.9945849635606
 22
-158.9999999999999
 32
0.0
 13
-328.9945849635606
 23
-158.9999999999999
 33
0.0
  0
SOLID
  5
134
330
12E
100
AcDbEntity
  8
S
 62
     6
100
AcDbTrace
 10
-322.9945853509907
 20
-158.4999999999999
 30
0.0
 11
-322.9945853509907
 21
-159.4999999999999
 31
0.0
 12
-319.9945853509908
 22
-158.9999999999999
 32
0.0
 13
-319.9945853509908
 23
-158.9999999999999
 33
0.0
  0
MTEXT
  5
135
330
12E
100
AcDbEntity
  8
S
 62
     2
100
AcDbMText
 10
-324.4945851572757
 20
-156.9999999999999
 30
0.0
 40
3.0
 41
0.0
 71
     5
 72
     1
  1
\A1;9
  7
OPNUS
 73
     1
 44
1.0
1001
ACAD
1000
MTEXTBEGIN
1070
    73
1070
     1
1070
    44
1040
1.0
1070
    74
1070
     0
1000
MTEXTEND
  0
POINT
  5
136
330
12E
100
AcDbEntity
  8
Defpoints
 62
     0
100
AcDbPoint
 10
-328.9945849635606
 20
-166.8015215300406
 30
0.0
  0
POINT
  5
137
330
12E
100
AcDbEntity
  8
Defpoints
 62
     0
100
AcDbPoint
 10
-319.9945853509908
 20
-166.413017524072
 30
0.0
  0
POINT
  5
138
330
12E
100
AcDbEntity
  8
Defpoints
 62
     0
100
AcDbPoint
 10
-319.9945853509908
 20
-158.9999999999999
 30
0.0
  0
ENDBLK
  5
139
330
12E
100
AcDbEntity
  8
0
100
AcDbBlockEnd
  0
BLOCK
  5
18B
330
18A
100
AcDbEntity
  8
0
100
AcDbBlockBegin
  2
*D3
 70
     1
 10
0.0
 20
0.0
 30
0.0
  3
*D3
  1

  0
LINE
  5
18C
330
18A
100
AcDbEntity
  8
S
 62
     6
370
    15
100
AcDbLine
 10
-336.494585097671
 20
-195.6130173743158
 30
0.0
 11
-336.494585097671
 21
-204.9999999999999
 31
0.0
  0
LINE
  5
18D
330
18A
100
AcDbEntity
  8
S
 62
     6
370
    15
100
AcDbLine
 10
-335.494585097671
 20
-195.6130173743158
 30
0.0
 11
-335.494585097671
 21
-204.9999999999999
 31
0.0
  0
LINE
  5
18E
330
18A
100
AcDbEntity
  8
S
 62
     6
370
    15
100
AcDbLine
 10
-335.494585097671
 20
-204.0
 30
0.0
 11
-329.494585097671
 21
-204.0
 31
0.0
  0
LINE
  5
18F
330
18A
100
AcDbEntity
  8
S
 62
     6
370
    15
100
AcDbLine
 10
-339.494585097671
 20
-204.0
 30
0.0
 11
-344.3979941885801
 21
-204.0
 31
0.0
  0
LINE
  5
190
330
18A
100
AcDbEntity
  8
S
 62
     6
370
    15
100
AcDbLine
 10
-335.494585097671
 20
-204.0
 30
0.0
 11
-336.494585097671
 21
-204.0
 31
0.0
  0
INSERT
  5
191
330
18A
100
AcDbEntity
  8
S
 62
     6
370
    15
100
AcDbBlockReference
  2
_DotSmall
 10
-335.494585097671
 20
-204.0
 30
0.0
 41
3.0
 42
3.0
 43
3.0
 50
180.0
  0
SOLID
  5
192
330
18A
100
AcDbEntity
  8
S
 62
     6
100
AcDbTrace
 10
-339.494585097671
 20
-203.4999999999999
 30
0.0
 11
-339.494585097671
 21
-204.4999999999999
 31
0.0
 12
-336.494585097671
 22
-204.0
 32
0.0
 13
-336.494585097671
 23
-204.0
 33
0.0
  0
MTEXT
  5
193
330
18A
100
AcDbEntity
  8
S
 62
     2
100
AcDbMText
 10
-343.4462896431256
 20
-202.0
 30
0.0
 40
3.0
 41
0.0
 71
     5
 72
     1
  1
\A1;1
  7
OPNUS
 73
     1
 44
1.0
1001
ACAD
1000
MTEXTBEGIN
1070
    73
1070
     1
1070
    44
1040
1.0
1070
    74
1070
     0
1000
MTEXTEND
  0
POINT
  5
194
330
18A
100
AcDbEntity
  8
Defpoints
 62
     0
100
AcDbPoint
 10
-336.494585097671
 20
-194.6130173743158
 30
0.0
  0
POINT
  5
195
330
18A
100
AcDbEntity
  8
Defpoints
 62
     0
100
AcDbPoint
 10
-335.494585097671
 20
-194.6130173743158
 30
0.0
  0
POINT
  5
196
330
18A
100
AcDbEntity
  8
Defpoints
 62
     0
100
AcDbPoint
 10
-335.494585097671
 20
-204.0
 30
0.0
  0
ENDBLK
  5
197
330
18A
100
AcDbEntity
  8
0
100
AcDbBlockEnd
  0
BLOCK
  5
19A
330
199
100
AcDbEntity
  8
0
100
AcDbBlockBegin
  2
*D4
 70
     1
 10
0.0
 20
0.0
 30
0.0
  3
*D4
  1

  0
LINE
  5
19B
330
199
100
AcDbEntity
  8
S
 62
     6
370
    15
100
AcDbLine
 10
-335.494585097671
 20
-195.6130173743158
 30
0.0
 11
-335.494585097671
 21
-204.9999999999999
 31
0.0
  0
LINE
  5
19C
330
199
100
AcDbEntity
  8
S
 62
     6
370
    15
100
AcDbLine
 10
-333.4945855298047
 20
-188.6130173743153
 30
0.0
 11
-333.4945855298047
 21
-204.9999999999999
 31
0.0
  0
LINE
  5
19D
330
199
100
AcDbEntity
  8
S
 62
     6
370
    15
100
AcDbLine
 10
-335.494585097671
 20
-204.0
 30
0.0
 11
-338.494585097671
 21
-204.0
 31
0.0
  0
LINE
  5
19E
330
199
100
AcDbEntity
  8
S
 62
     6
370
    15
100
AcDbLine
 10
-330.4945855298047
 20
-204.0
 30
0.0
 11
-327.4945855298047
 21
-204.0
 31
0.0
  0
MTEXT
  5
19F
330
199
100
AcDbEntity
  8
S
 62
     2
100
AcDbMText
 10
-327.8291697200921
 20
-201.943481443458
 30
0.0
 40
3.0
 41
0.0
 71
     5
 72
     1
  1
\A1;2
  7
OPNUS
 73
     1
 44
1.0
1001
ACAD
1000
MTEXTBEGIN
1070
    73
1070
     1
1070
    44
1040
1.0
1070
    74
1070
     0
1000
MTEXTEND
  0
LINE
  5
1A0
330
199
100
AcDbEntity
  8
S
 62
     6
370
    15
100
AcDbLine
 10
-335.494585097671
 20
-204.0
 30
0.0
 11
-333.4945855298047
 21
-204.0
 31
0.0
  0
INSERT
  5
1A1
330
199
100
AcDbEntity
  8
S
 62
     6
370
    15
100
AcDbBlockReference
  2
_DotSmall
 10
-335.494585097671
 20
-204.0
 30
0.0
 41
3.0
 42
3.0
 43
3.0
  0
SOLID
  5
1A2
330
199
100
AcDbEntity
  8
S
 62
     6
100
AcDbTrace
 10
-330.4945855298047
 20
-203.4999999999999
 30
0.0
 11
-330.4945855298047
 21
-204.4999999999999
 31
0.0
 12
-333.4945855298047
 22
-204.0
 32
0.0
 13
-333.4945855298047
 23
-204.0
 33
0.0
  0
POINT
  5
1A3
330
199
100
AcDbEntity
  8
Defpoints
 62
     0
100
AcDbPoint
 10
-335.494585097671
 20
-194.6130173743158
 30
0.0
  0
POINT
  5
1A4
330
199
100
AcDbEntity
  8
Defpoints
 62
     0
100
AcDbPoint
 10
-333.4945855298047
 20
-187.6130173743153
 30
0.0
  0
POINT
  5
1A5
330
199
100
AcDbEntity
  8
Defpoints
 62
     0
100
AcDbPoint
 10
-333.4945855298047
 20
-204.0
 30
0.0
  0
ENDBLK
  5
1A6
330
199
100
AcDbEntity
  8
0
100
AcDbBlockEnd
  0
BLOCK
  5
1A9
330
1A8
100
AcDbEntity
  8
0
100
AcDbBlockBegin
  2
*D5
 70
     1
 10
0.0
 20
0.0
 30
0.0
  3
*D5
  1

  0
LINE
  5
1AA
330
1A8
100
AcDbEntity
  8
S
 62
     6
370
    15
100
AcDbLine
 10
-352.4945855298047
 20
-171.6130173743153
 30
0.0
 11
-352.4945855298047
 21
-210.9999999999999
 31
0.0
  0
LINE
  5
1AB
330
1A8
100
AcDbEntity
  8
S
 62
     6
370
    15
100
AcDbLine
 10
-319.9945853509908
 20
-175.8130172245587
 30
0.0
 11
-319.9945853509908
 21
-210.9999999999999
 31
0.0
  0
LINE
  5
1AC
330
1A8
100
AcDbEntity
  8
S
 62
     6
370
    15
100
AcDbLine
 10
-349.4945855298047
 20
-210.0
 30
0.0
 11
-322.9945853509907
 21
-210.0
 31
0.0
  0
SOLID
  5
1AD
330
1A8
100
AcDbEntity
  8
S
 62
     6
100
AcDbTrace
 10
-349.4945855298047
 20
-209.4999999999999
 30
0.0
 11
-349.4945855298047
 21
-210.4999999999999
 31
0.0
 12
-352.4945855298047
 22
-210.0
 32
0.0
 13
-352.4945855298047
 23
-210.0
 33
0.0
  0
SOLID
  5
1AE
330
1A8
100
AcDbEntity
  8
S
 62
     6
100
AcDbTrace
 10
-322.9945853509907
 20
-209.4999999999999
 30
0.0
 11
-322.9945853509907
 21
-210.4999999999999
 31
0.0
 12
-319.9945853509908
 22
-210.0
 32
0.0
 13
-319.9945853509908
 23
-210.0
 33
0.0
  0
MTEXT
  5
1AF
330
1A8
100
AcDbEntity
  8
S
 62
     2
100
AcDbMText
 10
-336.2445854403977
 20
-208.0
 30
0.0
 40
3.0
 41
0.0
 71
     5
 72
     1
  1
\A1;32.5
  7
OPNUS
 73
     1
 44
1.0
1001
ACAD
1000
MTEXTBEGIN
1070
    73
1070
     1
1070
    44
1040
1.0
1070
    74
1070
     0
1000
MTEXTEND
  0
POINT
  5
1B0
330
1A8
100
AcDbEntity
  8
Defpoints
 62
     0
100
AcDbPoint
 10
-352.4945855298047
 20
-170.6130173743153
 30
0.0
  0
POINT
  5
1B1
330
1A8
100
AcDbEntity
  8
Defpoints
 62
     0
100
AcDbPoint
 10
-319.9945853509908
 20
-174.8130172245587
 30
0.0
  0
POINT
  5
1B2
330
1A8
100
AcDbEntity
  8
Defpoints
 62
     0
100
AcDbPoint
 10
-319.9945853509908
 20
-210.0
 30
0.0
  0
ENDBLK
  5
1B3
330
1A8
100
AcDbEntity
  8
0
100
AcDbBlockEnd
  0
BLOCK
  5
1B6
330
1B5
100
AcDbEntity
  8
0
100
AcDbBlockBegin
  2
*D6
 70
     1
 10
0.0
 20
0.0
 30
0.0
  3
*D6
  1

  0
LINE
  5
1B7
330
1B5
100
AcDbEntity
  8
S
 62
     6
370
    15
100
AcDbLine
 10
-372.494585097671
 20
-169.6130173743153
 30
0.0
 11
-372.494585097671
 21
-127.9999999999999
 31
0.0
  0
LINE
  5
1B8
330
1B5
100
AcDbEntity
  8
S
 62
     6
370
    15
100
AcDbLine
 10
-352.4945855298047
 20
-169.6130173743153
 30
0.0
 11
-352.4945855298047
 21
-127.9999999999999
 31
0.0
  0
LINE
  5
1B9
330
1B5
100
AcDbEntity
  8
S
 62
     6
370
    15
100
AcDbLine
 10
-369.494585097671
 20
-128.9999999999999
 30
0.0
 11
-355.4945855298047
 21
-128.9999999999999
 31
0.0
  0
SOLID
  5
1BA
330
1B5
100
AcDbEntity
  8
S
 62
     6
100
AcDbTrace
 10
-369.494585097671
 20
-128.4999999999999
 30
0.0
 11
-369.494585097671
 21
-129.4999999999999
 31
0.0
 12
-372.494585097671
 22
-128.9999999999999
 32
0.0
 13
-372.494585097671
 23
-128.9999999999999
 33
0.0
  0
SOLID
  5
1BB
330
1B5
100
AcDbEntity
  8
S
 62
     6
100
AcDbTrace
 10
-355.4945855298047
 20
-128.4999999999999
 30
0.0
 11
-355.4945855298047
 21
-129.4999999999999
 31
0.0
 12
-352.4945855298047
 22
-128.9999999999999
 32
0.0
 13
-352.4945855298047
 23
-128.9999999999999
 33
0.0
  0
MTEXT
  5
1BC
330
1B5
100
AcDbEntity
  8
S
 62
     2
100
AcDbMText
 10
-362.4945853137378
 20
-126.6420454545454
 30
0.0
 40
3.0
 41
0.0
 71
     5
 72
     1
  1
\A1;(20)
  7
OPNUS
 73
     1
 44
1.0
1001
ACAD
1000
MTEXTBEGIN
1070
    73
1070
     1
1070
    44
1040
1.0
1070
    74
1070
     0
1000
MTEXTEND
  0
POINT
  5
1BD
330
1B5
100
AcDbEntity
  8
Defpoints
 62
     0
100
AcDbPoint
 10
-372.494585097671
 20
-170.6130173743153
 30
0.0
  0
POINT
  5
1BE
330
1B5
100
AcDbEntity
  8
Defpoints
 62
     0
100
AcDbPoint
 10
-352.4945855298047
 20
-170.6130173743153
 30
0.0
  0
POINT
  5
1BF
330
1B5
100
AcDbEntity
  8
Defpoints
 62
     0
100
AcDbPoint
 10
-352.4945855298047
 20
-128.9999999999999
 30
0.0
  0
ENDBLK
  5
1C0
330
1B5
100
AcDbEntity
  8
0
100
AcDbBlockEnd
  0
BLOCK
  5
1C3
330
1C2
100
AcDbEntity
  8
0
100
AcDbBlockBegin
  2
*D7
 70
     1
 10
0.0
 20
0.0
 30
0.0
  3
*D7
  1

  0
LINE
  5
1C4
330
1C2
100
AcDbEntity
  8
S
 62
     6
370
    15
100
AcDbLine
 10
-352.4945855298047
 20
-169.6130173743153
 30
0.0
 11
-352.4945855298047
 21
-127.9999999999999
 31
0.0
  0
LINE
  5
1C5
330
1C2
100
AcDbEntity
  8
S
 62
     6
370
    15
100
AcDbLine
 10
-335.494585097671
 20
-145.6130173743149
 30
0.0
 11
-335.494585097671
 21
-127.9999999999999
 31
0.0
  0
LINE
  5
1C6
330
1C2
100
AcDbEntity
  8
S
 62
     6
370
    15
100
AcDbLine
 10
-349.4945855298047
 20
-128.9999999999999
 30
0.0
 11
-338.494585097671
 21
-128.9999999999999
 31
0.0
  0
SOLID
  5
1C7
330
1C2
100
AcDbEntity
  8
S
 62
     6
100
AcDbTrace
 10
-349.4945855298047
 20
-128.4999999999999
 30
0.0
 11
-349.4945855298047
 21
-129.4999999999999
 31
0.0
 12
-352.4945855298047
 22
-128.9999999999999
 32
0.0
 13
-352.4945855298047
 23
-128.9999999999999
 33
0.0
  0
SOLID
  5
1C8
330
1C2
100
AcDbEntity
  8
S
 62
     6
100
AcDbTrace
 10
-338.494585097671
 20
-128.4999999999999
 30
0.0
 11
-338.494585097671
 21
-129.4999999999999
 31
0.0
 12
-335.494585097671
 22
-128.9999999999999
 32
0.0
 13
-335.494585097671
 23
-128.9999999999999
 33
0.0
  0
MTEXT
  5
1C9
330
1C2
100
AcDbEntity
  8
S
 62
     2
100
AcDbMText
 10
-343.9945853137378
 20
-126.9999999999999
 30
0.0
 40
3.0
 41
0.0
 71
     5
 72
     1
  1
\A1;17
  7
OPNUS
 73
     1
 44
1.0
1001
ACAD
1000
MTEXTBEGIN
1070
    73
1070
     1
1070
    44
1040
1.0
1070
    74
1070
     0
1000
MTEXTEND
  0
POINT
  5
1CA
330
1C2
100
AcDbEntity
  8
Defpoints
 62
     0
100
AcDbPoint
 10
-352.4945855298047
 20
-170.6130173743153
 30
0.0
  0
POINT
  5
1CB
330
1C2
100
AcDbEntity
  8
Defpoints
 62
     0
100
AcDbPoint
 10
-335.494585097671
 20
-146.6130173743149
 30
0.0
  0
POINT
  5
1CC
330
1C2
100
AcDbEntity
  8
Defpoints
 62
     0
100
AcDbPoint
 10
-335.494585097671
 20
-128.9999999999999
 30
0.0
  0
ENDBLK
  5
1CD
330
1C2
100
AcDbEntity
  8
0
100
AcDbBlockEnd
  0
BLOCK
  5
1D0
330
1CF
100
AcDbEntity
  8
0
100
AcDbBlockBegin
  2
*D8
 70
     1
 10
0.0
 20
0.0
 30
0.0
  3
*D8
  1

  0
LINE
  5
1D1
330
1CF
100
AcDbEntity
  8
S
 62
     6
370
    15
100
AcDbLine
 10
-335.494585097671
 20
-145.6130173743149
 30
0.0
 11
-335.494585097671
 21
-133.9999999999999
 31
0.0
  0
LINE
  5
1D2
330
1CF
100
AcDbEntity
  8
S
 62
     6
370
    15
100
AcDbLine
 10
-344.4945856415634
 20
-148.0388831056657
 30
0.0
 11
-344.4945856415634
 21
-133.9999999999999
 31
0.0
  0
LINE
  5
1D3
330
1CF
100
AcDbEntity
  8
S
 62
     6
370
    15
100
AcDbLine
 10
-338.494585097671
 20
-134.9999999999999
 30
0.0
 11
-341.4945856415634
 21
-134.9999999999999
 31
0.0
  0
SOLID
  5
1D4
330
1CF
100
AcDbEntity
  8
S
 62
     6
100
AcDbTrace
 10
-338.494585097671
 20
-134.4999999999999
 30
0.0
 11
-338.494585097671
 21
-135.4999999999999
 31
0.0
 12
-335.494585097671
 22
-134.9999999999999
 32
0.0
 13
-335.494585097671
 23
-134.9999999999999
 33
0.0
  0
SOLID
  5
1D5
330
1CF
100
AcDbEntity
  8
S
 62
     6
100
AcDbTrace
 10
-341.4945856415634
 20
-134.4999999999999
 30
0.0
 11
-341.4945856415634
 21
-135.4999999999999
 31
0.0
 12
-344.4945856415634
 22
-134.9999999999999
 32
0.0
 13
-344.4945856415634
 23
-134.9999999999999
 33
0.0
  0
MTEXT
  5
1D6
330
1CF
100
AcDbEntity
  8
S
 62
     2
100
AcDbMText
 10
-339.9945853696172
 20
-132.9999999999999
 30
0.0
 40
3.0
 41
0.0
 71
     5
 72
     1
  1
\A1;8
  7
OPNUS
 73
     1
 44
1.0
1001
ACAD
1000
MTEXTBEGIN
1070
    73
1070
     1
1070
    44
1040
1.0
1070
    74
1070
     0
1000
MTEXTEND
  0
POINT
  5
1D7
330
1CF
100
AcDbEntity
  8
Defpoints
 62
     0
100
AcDbPoint
 10
-335.494585097671
 20
-146.6130173743149
 30
0.0
  0
POINT
  5
1D8
330
1CF
100
AcDbEntity
  8
Defpoints
 62
     0
100
AcDbPoint
 10
-344.4945856415634
 20
-149.0388831056657
 30
0.0
  0
POINT
  5
1D9
330
1CF
100
AcDbEntity
  8
Defpoints
 62
     0
100
AcDbPoint
 10
-344.4945856415634
 20
-134.9999999999999
 30
0.0
  0
ENDBLK
  5
1DA
330
1CF
100
AcDbEntity
  8
0
100
AcDbBlockEnd
  0
BLOCK
  5
345
330
344
100
AcDbEntity
  8
0
100
AcDbBlockBegin
  2
*D9
 70
     1
 10
0.0
 20
0.0
 30
0.0
  3
*D9
  1

  0
LINE
  5
346
330
344
100
AcDbEntity
  8
S
 62
     6
370
    15
100
AcDbLine
 10
-417.5926571869713
 20
-195.6130173743158
 30
0.0
 11
-417.5926571869713
 21
-210.9999999999999
 31
0.0
  0
LINE
  5
347
330
344
100
AcDbEntity
  8
S
 62
     6
370
    15
100
AcDbLine
 10
-394.5926601514634
 20
-171.6194596471281
 30
0.0
 11
-394.5926601514634
 21
-210.9999999999999
 31
0.0
  0
LINE
  5
348
330
344
100
AcDbEntity
  8
S
 62
     6
370
    15
100
AcDbLine
 10
-414.5926571869713
 20
-210.0
 30
0.0
 11
-397.5926601514634
 21
-210.0
 31
0.0
  0
SOLID
  5
349
330
344
100
AcDbEntity
  8
S
 62
     6
100
AcDbTrace
 10
-414.5926571869713
 20
-209.4999999999999
 30
0.0
 11
-414.5926571869713
 21
-210.4999999999999
 31
0.0
 12
-417.5926571869713
 22
-210.0
 32
0.0
 13
-417.5926571869713
 23
-210.0
 33
0.0
  0
SOLID
  5
34A
330
344
100
AcDbEntity
  8
S
 62
     6
100
AcDbTrace
 10
-397.5926601514634
 20
-209.4999999999999
 30
0.0
 11
-397.5926601514634
 21
-210.4999999999999
 31
0.0
 12
-394.5926601514634
 22
-210.0
 32
0.0
 13
-394.5926601514634
 23
-210.0
 33
0.0
  0
MTEXT
  5
34B
330
344
100
AcDbEntity
  8
S
 62
     2
100
AcDbMText
 10
-406.0926586692174
 20
-208.0
 30
0.0
 40
3.0
 41
0.0
 71
     5
 72
     1
  1
\A1;23
  7
OPNUS
 73
     1
 44
1.0
1001
ACAD
1000
MTEXTBEGIN
1070
    73
1070
     1
1070
    44
1040
1.0
1070
    74
1070
     0
1000
MTEXTEND
  0
POINT
  5
34C
330
344
100
AcDbEntity
  8
Defpoints
 62
     0
100
AcDbPoint
 10
-417.5926571869713
 20
-194.6130173743158
 30
0.0
  0
POINT
  5
34D
330
344
100
AcDbEntity
  8
Defpoints
 62
     0
100
AcDbPoint
 10
-394.5926601514634
 20
-170.6194596471281
 30
0.0
  0
POINT
  5
34E
330
344
100
AcDbEntity
  8
Defpoints
 62
     0
100
AcDbPoint
 10
-394.5926601514634
 20
-210.0
 30
0.0
  0
ENDBLK
  5
34F
330
344
100
AcDbEntity
  8
0
100
AcDbBlockEnd
  0
BLOCK
  5
352
330
351
100
AcDbEntity
  8
0
100
AcDbBlockBegin
  2
*D10
 70
     1
 10
0.0
 20
0.0
 30
0.0
  3
*D10
  1

  0
LINE
  5
353
330
351
100
AcDbEntity
  8
S
 62
     6
370
    15
100
AcDbLine
 10
-354.0786126429842
 20
-187.7305171353377
 30
0.0
 11
-379.0288773288881
 21
-187.7305171353377
 31
0.0
  0
LINE
  5
354
330
351
100
AcDbEntity
  8
S
 62
     6
370
    15
100
AcDbLine
 10
-354.0497353141347
 20
-153.4964688671415
 30
0.0
 11
-379.0288773288881
 21
-153.4964688671415
 31
0.0
  0
LINE
  5
355
330
351
100
AcDbEntity
  8
S
 62
     6
370
    15
100
AcDbLine
 10
-378.0288773288881
 20
-184.7305171353377
 30
0.0
 11
-378.0288773288881
 21
-156.4964688671415
 31
0.0
  0
SOLID
  5
356
330
351
100
AcDbEntity
  8
S
 62
     6
100
AcDbTrace
 10
-378.5288773288881
 20
-184.7305171353377
 30
0.0
 11
-377.5288773288881
 21
-184.7305171353377
 31
0.0
 12
-378.0288773288881
 22
-187.7305171353377
 32
0.0
 13
-378.0288773288881
 23
-187.7305171353377
 33
0.0
  0
SOLID
  5
357
330
351
100
AcDbEntity
  8
S
 62
     6
100
AcDbTrace
 10
-378.5288773288881
 20
-156.4964688671415
 30
0.0
 11
-377.5288773288881
 21
-156.4964688671415
 31
0.0
 12
-378.0288773288881
 22
-153.4964688671415
 32
0.0
 13
-378.0288773288881
 23
-153.4964688671415
 33
0.0
  0
MTEXT
  5
358
330
351
100
AcDbEntity
  8
S
 62
     2
100
AcDbMText
 10
-380.3868318743426
 20
-170.6517234857783
 30
0.0
 40
3.0
 41
0.0
 71
     5
 72
     1
  1
\A1;(34)
  7
OPNUS
 11
0.0000000000000001
 21
1.0
 31
0.0
 73
     1
 44
1.0
1001
ACAD
1000
MTEXTBEGIN
1070
    73
1070
     1
1070
    44
1040
1.0
1070
    74
1070
     0
1000
MTEXTEND
  0
POINT
  5
359
330
351
100
AcDbEntity
  8
Defpoints
 62
     0
100
AcDbPoint
 10
-353.0786126429843
 20
-187.7305171353377
 30
0.0
  0
POINT
  5
35A
330
351
100
AcDbEntity
  8
Defpoints
 62
     0
100
AcDbPoint
 10
-353.0497353141348
 20
-153.4964688671415
 30
0.0
  0
POINT
  5
35B
330
351
100
AcDbEntity
  8
Defpoints
 62
     0
100
AcDbPoint
 10
-378.0288773288881
 20
-153.4964688671415
 30
0.0
  0
ENDBLK
  5
35C
330
351
100
AcDbEntity
  8
0
100
AcDbBlockEnd
  0
BLOCK
  5
1EC
330
1EB
100
AcDbEntity
  8
0
100
AcDbBlockBegin
  2
*D11
 70
     1
 10
0.0
 20
0.0
 30
0.0
  3
*D11
  1

  0
LINE
  5
1ED
330
1EB
100
AcDbEntity
  8
S
 62
     6
370
    15
100
AcDbLine
 10
-334.494585097671
 20
-146.6130173743149
 30
0.0
 11
-299.0
 21
-146.6130173743149
 31
0.0
  0
LINE
  5
1EE
330
1EB
100
AcDbEntity
  8
S
 62
     6
370
    15
100
AcDbLine
 10
-334.494585097671
 20
-194.6130173743158
 30
0.0
 11
-299.0
 21
-194.6130173743158
 31
0.0
  0
LINE
  5
1EF
330
1EB
100
AcDbEntity
  8
S
 62
     6
370
    15
100
AcDbLine
 10
-300.0
 20
-149.6130173743149
 30
0.0
 11
-300.0
 21
-191.6130173743158
 31
0.0
  0
SOLID
  5
1F0
330
1EB
100
AcDbEntity
  8
S
 62
     6
100
AcDbTrace
 10
-300.5
 20
-149.6130173743149
 30
0.0
 11
-299.5
 21
-149.6130173743149
 31
0.0
 12
-300.0
 22
-146.6130173743149
 32
0.0
 13
-300.0
 23
-146.6130173743149
 33
0.0
  0
SOLID
  5
1F1
330
1EB
100
AcDbEntity
  8
S
 62
     6
100
AcDbTrace
 10
-300.5
 20
-191.6130173743158
 30
0.0
 11
-299.5
 21
-191.6130173743158
 31
0.0
 12
-300.0
 22
-194.6130173743158
 32
0.0
 13
-300.0
 23
-194.6130173743158
 33
0.0
  0
MTEXT
  5
1F2
330
1EB
100
AcDbEntity
  8
S
 62
     2
100
AcDbMText
 10
-302.4517045454545
 20
-170.6130173743154
 30
0.0
 40
3.0
 41
0.0
 71
     5
 72
     1
  1
\A1;φ48
  7
OPNUS
 11
0.0000000000000001
 21
1.0
 31
0.0
 73
     1
 44
1.0
1001
ACAD
1000
MTEXTBEGIN
1070
    73
1070
     1
1070
    44
1040
1.0
1070
    74
1070
     0
1000
MTEXTEND
  0
POINT
  5
1F3
330
1EB
100
AcDbEntity
  8
Defpoints
 62
     0
100
AcDbPoint
 10
-335.494585097671
 20
-146.6130173743149
 30
0.0
  0
POINT
  5
1F4
330
1EB
100
AcDbEntity
  8
Defpoints
 62
     0
100
AcDbPoint
 10
-335.494585097671
 20
-194.6130173743158
 30
0.0
  0
POINT
  5
1F5
330
1EB
100
AcDbEntity
  8
Defpoints
 62
     0
100
AcDbPoint
 10
-300.0
 20
-194.6130173743158
 30
0.0
  0
ENDBLK
  5
1F6
330
1EB
100
AcDbEntity
  8
0
100
AcDbBlockEnd
  0
BLOCK
  5
35F
330
35E
100
AcDbEntity
  8
0
100
AcDbBlockBegin
  2
*D12
 70
     1
 10
0.0
 20
0.0
 30
0.0
  3
*D12
  1

  0
LINE
  5
360
330
35E
100
AcDbEntity
  8
S
 62
     6
370
    15
100
AcDbLine
 10
-384.596132274034
 20
-163.8890452782475
 30
0.0
 11
-392.2940554275816
 21
-166.9343755064037
 31
0.0
  0
MTEXT
  5
361
330
35E
100
AcDbEntity
  8
S
 62
     2
100
AcDbMText
 10
-387.7860029295823
 20
-163.0001550523929
 30
0.0
 40
3.0
 41
0.0
 71
     5
 72
     1
  1
\A1;R7
  7
OPNUS
 11
0.9298795298726034
 21
0.3678641867916827
 31
0.0
 73
     1
 44
1.0
1001
ACAD
1000
MTEXTBEGIN
1070
    73
1070
     1
1070
    44
1040
1.0
1070
    74
1070
     0
1000
MTEXTEND
  0
LINE
  5
362
330
35E
100
AcDbEntity
  8
S
 62
     6
370
    15
100
AcDbLine
 10
-401.5928507263072
 20
-170.6130173743203
 30
0.0
 11
-395.0836940171994
 21
-168.0379680667787
 31
0.0
  0
SOLID
  5
363
330
35E
100
AcDbEntity
  8
S
 62
     6
100
AcDbTrace
 10
-392.4779875209774
 20
-166.4694357414673
 30
0.0
 11
-392.1101233341858
 21
-167.39931527134
 31
0.0
 12
-395.0836940171994
 22
-168.0379680667787
 32
0.0
 13
-395.0836940171994
 23
-168.0379680667787
 33
0.0
  0
POINT
  5
364
330
35E
100
AcDbEntity
  8
Defpoints
 62
     0
100
AcDbPoint
 10
-395.0836940171994
 20
-168.0379680667787
 30
0.0
  0
POINT
  5
365
330
35E
100
AcDbEntity
  8
Defpoints
 62
     0
100
AcDbPoint
 10
-401.5928507263072
 20
-170.6130173743203
 30
0.0
  0
ENDBLK
  5
366
330
35E
100
AcDbEntity
  8
0
100
AcDbBlockEnd
  0
BLOCK
  5
369
330
368
100
AcDbEntity
  8
0
100
AcDbBlockBegin
  2
*D13
 70
     1
 10
0.0
 20
0.0
 30
0.0
  3
*D13
  1

  0
LINE
  5
36A
330
368
100
AcDbEntity
  8
S
 62
     6
370
    15
100
AcDbLine
 10
-418.5926571869713
 20
-153.1130173743153
 30
0.0
 11
-457.0
 21
-153.1130173743153
 31
0.0
  0
LINE
  5
36B
330
368
100
AcDbEntity
  8
S
 62
     6
370
    15
100
AcDbLine
 10
-418.5926571869713
 20
-188.1130173743153
 30
0.0
 11
-457.0
 21
-188.1130173743153
 31
0.0
  0
LINE
  5
36C
330
368
100
AcDbEntity
  8
S
 62
     6
370
    15
100
AcDbLine
 10
-456.0
 20
-156.1130173743153
 30
0.0
 11
-456.0
 21
-185.1130173743153
 31
0.0
  0
SOLID
  5
36D
330
368
100
AcDbEntity
  8
S
 62
     6
100
AcDbTrace
 10
-456.5
 20
-156.1130173743153
 30
0.0
 11
-455.4999999999999
 21
-156.1130173743153
 31
0.0
 12
-456.0
 22
-153.1130173743153
 32
0.0
 13
-456.0
 23
-153.1130173743153
 33
0.0
  0
SOLID
  5
36E
330
368
100
AcDbEntity
  8
S
 62
     6
100
AcDbTrace
 10
-456.5
 20
-185.1130173743153
 30
0.0
 11
-455.4999999999999
 21
-185.1130173743153
 31
0.0
 12
-456.0
 22
-188.1130173743153
 32
0.0
 13
-456.0
 23
-188.1130173743153
 33
0.0
  0
MTEXT
  5
36F
330
368
100
AcDbEntity
  8
S
 62
     2
100
AcDbMText
 10
-458.4517045454544
 20
-170.6130173743154
 30
0.0
 40
3.0
 41
0.0
 71
     5
 72
     1
  1
\A1;φ35
  7
OPNUS
 11
0.0000000000000001
 21
1.0
 31
0.0
 73
     1
 44
1.0
1001
ACAD
1000
MTEXTBEGIN
1070
    73
1070
     1
1070
    44
1040
1.0
1070
    74
1070
     0
1000
MTEXTEND
  0
POINT
  5
370
330
368
100
AcDbEntity
  8
Defpoints
 62
     0
100
AcDbPoint
 10
-417.5926571869713
 20
-153.1130173743153
 30
0.0
  0
POINT
  5
371
330
368
100
AcDbEntity
  8
Defpoints
 62
     0
100
AcDbPoint
 10
-417.5926571869713
 20
-188.1130173743153
 30
0.0
  0
POINT
  5
372
330
368
100
AcDbEntity
  8
Defpoints
 62
     0
100
AcDbPoint
 10
-456.0
 20
-188.1130173743153
 30
0.0
  0
ENDBLK
  5
373
330
368
100
AcDbEntity
  8
0
100
AcDbBlockEnd
  0
BLOCK
  5
376
330
375
100
AcDbEntity
  8
0
100
AcDbBlockBegin
  2
*D14
 70
     1
 10
0.0
 20
0.0
 30
0.0
  3
*D14
  1

  0
LINE
  5
377
330
375
100
AcDbEntity
  8
S
 62
     6
370
    15
100
AcDbLine
 10
-418.5926571869713
 20
-178.1130173743153
 30
0.0
 11
-451.0
 21
-178.1130173743153
 31
0.0
  0
LINE
  5
378
330
375
100
AcDbEntity
  8
S
 62
     6
370
    15
100
AcDbLine
 10
-418.5926571869713
 20
-163.1130173743153
 30
0.0
 11
-451.0
 21
-163.1130173743153
 31
0.0
  0
LINE
  5
379
330
375
100
AcDbEntity
  8
S
 62
     6
370
    15
100
AcDbLine
 10
-450.0
 20
-175.1130173743153
 30
0.0
 11
-450.0
 21
-166.1130173743153
 31
0.0
  0
SOLID
  5
37A
330
375
100
AcDbEntity
  8
S
 62
     6
100
AcDbTrace
 10
-450.4999999999999
 20
-175.1130173743153
 30
0.0
 11
-449.5
 21
-175.1130173743153
 31
0.0
 12
-450.0
 22
-178.1130173743153
 32
0.0
 13
-450.0
 23
-178.1130173743153
 33
0.0
  0
SOLID
  5
37B
330
375
100
AcDbEntity
  8
S
 62
     6
100
AcDbTrace
 10
-450.4999999999999
 20
-166.1130173743153
 30
0.0
 11
-449.5
 21
-166.1130173743153
 31
0.0
 12
-450.0
 22
-163.1130173743153
 32
0.0
 13
-450.0
 23
-163.1130173743153
 33
0.0
  0
MTEXT
  5
37C
330
375
100
AcDbEntity
  8
S
 62
     2
100
AcDbMText
 10
-452.4517045454545
 20
-170.6130173743154
 30
0.0
 40
3.0
 41
0.0
 71
     5
 72
     1
  1
\A1;φ15
  7
OPNUS
 11
0.0000000000000001
 21
1.0
 31
0.0
 73
     1
 44
1.0
1001
ACAD
1000
MTEXTBEGIN
1070
    73
1070
     1
1070
    44
1040
1.0
1070
    74
1070
     0
1000
MTEXTEND
  0
POINT
  5
37D
330
375
100
AcDbEntity
  8
Defpoints
 62
     0
100
AcDbPoint
 10
-417.5926571869713
 20
-178.1130173743153
 30
0.0
  0
POINT
  5
37E
330
375
100
AcDbEntity
  8
Defpoints
 62
     0
100
AcDbPoint
 10
-417.5926571869713
 20
-163.1130173743153
 30
0.0
  0
POINT
  5
37F
330
375
100
AcDbEntity
  8
Defpoints
 62
     0
100
AcDbPoint
 10
-450.0
 20
-163.1130173743153
 30
0.0
  0
ENDBLK
  5
380
330
375
100
AcDbEntity
  8
0
100
AcDbBlockEnd
  0
BLOCK
  5
1F9
330
1F8
100
AcDbEntity
  8
0
100
AcDbBlockBegin
  2
*D15
 70
     1
 10
0.0
 20
0.0
 30
0.0
  3
*D15
  1

  0
LINE
  5
1FA
330
1F8
100
AcDbEntity
  8
S
 62
     6
370
    15
100
AcDbLine
 10
-246.6235121757868
 20
-175.9750696808487
 30
0.0
 11
-246.6235121757868
 21
-204.9999999999999
 31
0.0
  0
LINE
  5
1FB
330
1F8
100
AcDbEntity
  8
S
 62
     6
370
    15
100
AcDbLine
 10
-243.1235120677541
 20
-175.9750696808484
 30
0.0
 11
-243.1235120677541
 21
-204.9999999999999
 31
0.0
  0
LINE
  5
1FC
330
1F8
100
AcDbEntity
  8
S
 62
     6
370
    15
100
AcDbLine
 10
-249.6235121757868
 20
-204.0
 30
0.0
 11
-252.6235121757868
 21
-204.0
 31
0.0
  0
LINE
  5
1FD
330
1F8
100
AcDbEntity
  8
S
 62
     6
370
    15
100
AcDbLine
 10
-240.1235120677541
 20
-204.0
 30
0.0
 11
-231.3166938859359
 21
-204.0
 31
0.0
  0
LINE
  5
1FE
330
1F8
100
AcDbEntity
  8
S
 62
     6
370
    15
100
AcDbLine
 10
-246.6235121757868
 20
-204.0
 30
0.0
 11
-243.1235120677541
 21
-204.0
 31
0.0
  0
SOLID
  5
1FF
330
1F8
100
AcDbEntity
  8
S
 62
     6
100
AcDbTrace
 10
-249.6235121757868
 20
-203.4999999999999
 30
0.0
 11
-249.6235121757868
 21
-204.4999999999999
 31
0.0
 12
-246.6235121757868
 22
-204.0
 32
0.0
 13
-246.6235121757868
 23
-204.0
 33
0.0
  0
SOLID
  5
200
330
1F8
100
AcDbEntity
  8
S
 62
     6
100
AcDbTrace
 10
-240.1235120677541
 20
-203.4999999999999
 30
0.0
 11
-240.1235120677541
 21
-204.4999999999999
 31
0.0
 12
-243.1235120677541
 22
-204.0
 32
0.0
 13
-243.1235120677541
 23
-204.0
 33
0.0
  0
MTEXT
  5
201
330
1F8
100
AcDbEntity
  8
S
 62
     2
100
AcDbMText
 10
-234.220102976845
 20
-202.0
 30
0.0
 40
3.0
 41
0.0
 71
     5
 72
     1
  1
\A1;3.5
  7
OPNUS
 73
     1
 44
1.0
1001
ACAD
1000
MTEXTBEGIN
1070
    73
1070
     1
1070
    44
1040
1.0
1070
    74
1070
     0
1000
MTEXTEND
  0
POINT
  5
202
330
1F8
100
AcDbEntity
  8
Defpoints
 62
     0
100
AcDbPoint
 10
-246.6235121757868
 20
-174.9750696808487
 30
0.0
  0
POINT
  5
203
330
1F8
100
AcDbEntity
  8
Defpoints
 62
     0
100
AcDbPoint
 10
-243.1235120677541
 20
-174.9750696808484
 30
0.0
  0
POINT
  5
204
330
1F8
100
AcDbEntity
  8
Defpoints
 62
     0
100
AcDbPoint
 10
-243.1235120677541
 20
-204.0
 30
0.0
  0
ENDBLK
  5
205
330
1F8
100
AcDbEntity
  8
0
100
AcDbBlockEnd
  0
BLOCK
  5
208
330
207
100
AcDbEntity
  8
0
100
AcDbBlockBegin
  2
*D16
 70
     1
 10
0.0
 20
0.0
 30
0.0
  3
*D16
  1

  0
LINE
  5
209
330
207
100
AcDbEntity
  8
S
 62
     6
370
    15
100
AcDbLine
 10
-239.5114598152375
 20
-168.8630173202988
 30
0.0
 11
-209.0
 21
-168.8630173202988
 31
0.0
  0
LINE
  5
20A
330
207
100
AcDbEntity
  8
S
 62
     6
370
    15
100
AcDbLine
 10
-239.5114598152379
 20
-172.3630174283323
 30
0.0
 11
-209.0
 21
-172.3630174283323
 31
0.0
  0
LINE
  5
20B
330
207
100
AcDbEntity
  8
S
 62
     6
370
    15
100
AcDbLine
 10
-210.0
 20
-165.8630173202988
 30
0.0
 11
-210.0
 21
-162.8630173202988
 31
0.0
  0
LINE
  5
20C
330
207
100
AcDbEntity
  8
S
 62
     6
370
    15
100
AcDbLine
 10
-210.0
 20
-175.3630174283323
 30
0.0
 11
-210.0
 21
-184.1698356101504
 31
0.0
  0
LINE
  5
20D
330
207
100
AcDbEntity
  8
S
 62
     6
370
    15
100
AcDbLine
 10
-210.0
 20
-168.8630173202988
 30
0.0
 11
-210.0
 21
-172.3630174283323
 31
0.0
  0
SOLID
  5
20E
330
207
100
AcDbEntity
  8
S
 62
     6
100
AcDbTrace
 10
-210.5
 20
-165.8630173202988
 30
0.0
 11
-209.5
 21
-165.8630173202988
 31
0.0
 12
-210.0
 22
-168.8630173202988
 32
0.0
 13
-210.0
 23
-168.8630173202988
 33
0.0
  0
SOLID
  5
20F
330
207
100
AcDbEntity
  8
S
 62
     6
100
AcDbTrace
 10
-210.5
 20
-175.3630174283323
 30
0.0
 11
-209.5
 21
-175.3630174283323
 31
0.0
 12
-210.0
 22
-172.3630174283323
 32
0.0
 13
-210.0
 23
-172.3630174283323
 33
0.0
  0
MTEXT
  5
210
330
207
100
AcDbEntity
  8
S
 62
     2
100
AcDbMText
 10
-212.0
 20
-181.2664265192414
 30
0.0
 40
3.0
 41
0.0
 71
     5
 72
     1
  1
\A1;3.5
  7
OPNUS
 11
0.0000000000000001
 21
1.0
 31
0.0
 73
     1
 44
1.0
1001
ACAD
1000
MTEXTBEGIN
1070
    73
1070
     1
1070
    44
1040
1.0
1070
    74
1070
     0
1000
MTEXTEND
  0
POINT
  5
211
330
207
100
AcDbEntity
  8
Defpoints
 62
     0
100
AcDbPoint
 10
-240.5114598152375
 20
-168.8630173202988
 30
0.0
  0
POINT
  5
212
330
207
100
AcDbEntity
  8
Defpoints
 62
     0
100
AcDbPoint
 10
-240.5114598152379
 20
-172.3630174283323
 30
0.0
  0
POINT
  5
213
330
207
100
AcDbEntity
  8
Defpoints
 62
     0
100
AcDbPoint
 10
-210.0
 20
-172.3630174283323
 30
0.0
  0
ENDBLK
  5
214
330
207
100
AcDbEntity
  8
0
100
AcDbBlockEnd
  0
BLOCK
  5
217
330
216
100
AcDbEntity
  8
0
100
AcDbBlockBegin
  2
*D17
 70
     1
 10
0.0
 20
0.0
 30
0.0
  3
*D17
  1

  0
LINE
  5
218
330
216
100
AcDbEntity
  8
S
 62
     6
370
    15
100
AcDbLine
 10
-245.8735121217705
 20
-165.913017374315
 30
0.0
 11
-280.0000000000001
 21
-165.913017374315
 31
0.0
  0
LINE
  5
219
330
216
100
AcDbEntity
  8
S
 62
     6
370
    15
100
AcDbLine
 10
-245.8735121217705
 20
-175.3130173743156
 30
0.0
 11
-280.0000000000001
 21
-175.3130173743156
 31
0.0
  0
LINE
  5
21A
330
216
100
AcDbEntity
  8
S
 62
     6
370
    15
100
AcDbLine
 10
-279.0
 20
-168.913017374315
 30
0.0
 11
-279.0
 21
-172.3130173743156
 31
0.0
  0
SOLID
  5
21B
330
216
100
AcDbEntity
  8
S
 62
     6
100
AcDbTrace
 10
-279.5000000000001
 20
-168.913017374315
 30
0.0
 11
-278.5000000000001
 21
-168.913017374315
 31
0.0
 12
-279.0
 22
-165.913017374315
 32
0.0
 13
-279.0
 23
-165.913017374315
 33
0.0
  0
SOLID
  5
21C
330
216
100
AcDbEntity
  8
S
 62
     6
100
AcDbTrace
 10
-279.5000000000001
 20
-172.3130173743156
 30
0.0
 11
-278.5000000000001
 21
-172.3130173743156
 31
0.0
 12
-279.0
 22
-175.3130173743156
 32
0.0
 13
-279.0
 23
-175.3130173743156
 33
0.0
  0
MTEXT
  5
21D
330
216
100
AcDbEntity
  8
S
 62
     2
100
AcDbMText
 10
-281.4517045454546
 20
-170.6130173743154
 30
0.0
 40
3.0
 41
0.0
 71
     5
 72
     1
  1
\A1;φ9.4
  7
OPNUS
 11
0.0000000000000001
 21
1.0
 31
0.0
 73
     1
 44
1.0
1001
ACAD
1000
MTEXTBEGIN
1070
    73
1070
     1
1070
    44
1040
1.0
1070
    74
1070
     0
1000
MTEXTEND
  0
POINT
  5
21E
330
216
100
AcDbEntity
  8
Defpoints
 62
     0
100
AcDbPoint
 10
-244.8735121217705
 20
-165.913017374315
 30
0.0
  0
POINT
  5
21F
330
216
100
AcDbEntity
  8
Defpoints
 62
     0
100
AcDbPoint
 10
-244.8735121217705
 20
-175.3130173743156
 30
0.0
  0
POINT
  5
220
330
216
100
AcDbEntity
  8
Defpoints
 62
     0
100
AcDbPoint
 10
-279.0
 20
-175.3130173743156
 30
0.0
  0
ENDBLK
  5
221
330
216
100
AcDbEntity
  8
0
100
AcDbBlockEnd
  0
BLOCK
  5
10E
330
10D
100
AcDbEntity
  8
0
100
AcDbBlockBegin
  2
*D18
 70
     1
 10
0.0
 20
0.0
 30
0.0
  3
*D18
  1

  0
LINE
  5
10F
330
10D
100
AcDbEntity
  8
S
 62
     6
370
    15
100
AcDbLine
 10
-257.3735121217705
 20
-163.3923354654141
 30
0.0
 11
-257.3735121217705
 21
-127.9999999999999
 31
0.0
  0
LINE
  5
110
330
10D
100
AcDbEntity
  8
S
 62
     6
370
    15
100
AcDbLine
 10
-232.3735121217705
 20
-163.3923354654141
 30
0.0
 11
-232.3735121217705
 21
-127.9999999999999
 31
0.0
  0
LINE
  5
111
330
10D
100
AcDbEntity
  8
S
 62
     6
370
    15
100
AcDbLine
 10
-254.3735121217705
 20
-128.9999999999999
 30
0.0
 11
-235.3735121217706
 21
-128.9999999999999
 31
0.0
  0
SOLID
  5
112
330
10D
100
AcDbEntity
  8
S
 62
     6
100
AcDbTrace
 10
-254.3735121217705
 20
-128.4999999999999
 30
0.0
 11
-254.3735121217705
 21
-129.4999999999999
 31
0.0
 12
-257.3735121217705
 22
-128.9999999999999
 32
0.0
 13
-257.3735121217705
 23
-128.9999999999999
 33
0.0
  0
SOLID
  5
113
330
10D
100
AcDbEntity
  8
S
 62
     6
100
AcDbTrace
 10
-235.3735121217706
 20
-128.4999999999999
 30
0.0
 11
-235.3735121217706
 21
-129.4999999999999
 31
0.0
 12
-232.3735121217705
 22
-128.9999999999999
 32
0.0
 13
-232.3735121217705
 23
-128.9999999999999
 33
0.0
  0
MTEXT
  5
114
330
10D
100
AcDbEntity
  8
S
 62
     2
100
AcDbMText
 10
-244.8735121217705
 20
-126.9999999999999
 30
0.0
 40
3.0
 41
0.0
 71
     5
 72
     1
  1
\A1;25
  7
OPNUS
 73
     1
 44
1.0
1001
ACAD
1000
MTEXTBEGIN
1070
    73
1070
     1
1070
    44
1040
1.0
1070
    74
1070
     0
1000
MTEXTEND
  0
POINT
  5
115
330
10D
100
AcDbEntity
  8
Defpoints
 62
     0
100
AcDbPoint
 10
-257.3735121217705
 20
-164.3923354654141
 30
0.0
  0
POINT
  5
117
330
10D
100
AcDbEntity
  8
Defpoints
 62
     0
100
AcDbPoint
 10
-232.3735121217705
 20
-164.3923354654141
 30
0.0
  0
POINT
  5
118
330
10D
100
AcDbEntity
  8
Defpoints
 62
     0
100
AcDbPoint
 10
-232.3735121217705
 20
-128.9999999999999
 30
0.0
  0
ENDBLK
  5
119
330
10D
100
AcDbEntity
  8
0
100
AcDbBlockEnd
  0
BLOCK
  5
122
330
121
100
AcDbEntity
  8
0
100
AcDbBlockBegin
  2
*D19
 70
     1
 10
0.0
 20
0.0
 30
0.0
  3
*D19
  1

  0
LINE
  5
123
330
121
100
AcDbEntity
  8
S
 62
     6
370
    15
100
AcDbLine
 10
-332.9945857831244
 20
-153.1130172998095
 30
0.0
 11
-305.0
 21
-153.1130172998095
 31
0.0
  0
LINE
  5
124
330
121
100
AcDbEntity
  8
S
 62
     6
370
    15
100
AcDbLine
 10
-332.9945855261334
 20
-188.1130173743153
 30
0.0
 11
-305.0
 21
-188.1130173743154
 31
0.0
  0
LINE
  5
125
330
121
100
AcDbEntity
  8
S
 62
     6
370
    15
100
AcDbLine
 10
-306.0
 20
-156.1130172998096
 30
0.0
 11
-306.0
 21
-185.1130173743154
 31
0.0
  0
SOLID
  5
126
330
121
100
AcDbEntity
  8
S
 62
     6
100
AcDbTrace
 10
-306.5
 20
-156.1130172998096
 30
0.0
 11
-305.5
 21
-156.1130172998096
 31
0.0
 12
-306.0
 22
-153.1130172998095
 32
0.0
 13
-306.0
 23
-153.1130172998095
 33
0.0
  0
SOLID
  5
127
330
121
100
AcDbEntity
  8
S
 62
     6
100
AcDbTrace
 10
-306.5
 20
-185.1130173743154
 30
0.0
 11
-305.5
 21
-185.1130173743154
 31
0.0
 12
-306.0
 22
-188.1130173743154
 32
0.0
 13
-306.0
 23
-188.1130173743154
 33
0.0
  0
MTEXT
  5
128
330
121
100
AcDbEntity
  8
S
 62
     2
100
AcDbMText
 10
-308.4517045454545
 20
-170.6130173370625
 30
0.0
 40
3.0
 41
0.0
 71
     5
 72
     1
  1
\A1;φ35
  7
OPNUS
 11
0.0000000000000001
 21
1.0
 31
0.0
 73
     1
 44
1.0
1001
ACAD
1000
MTEXTBEGIN
1070
    73
1070
     1
1070
    44
1040
1.0
1070
    74
1070
     0
1000
MTEXTEND
  0
POINT
  5
129
330
121
100
AcDbEntity
  8
Defpoints
 62
     0
100
AcDbPoint
 10
-333.9945857831244
 20
-153.1130172998095
 30
0.0
  0
POINT
  5
12A
330
121
100
AcDbEntity
  8
Defpoints
 62
     0
100
AcDbPoint
 10
-333.9945855261334
 20
-188.1130173743153
 30
0.0
  0
POINT
  5
12B
330
121
100
AcDbEntity
  8
Defpoints
 62
     0
100
AcDbPoint
 10
-306.0
 20
-188.1130173743154
 30
0.0
  0
ENDBLK
  5
12C
330
121
100
AcDbEntity
  8
0
100
AcDbBlockEnd
  0
BLOCK
  5
295
330
294
100
AcDbEntity
  8
0
100
AcDbBlockBegin
  2
*D20
 70
     1
 10
0.0
 20
0.0
 30
0.0
  3
*D20
  1

  0
LINE
  5
296
330
294
100
AcDbEntity
  8
S
 62
     6
370
    15
100
AcDbLine
 10
-351.7873722022334
 20
-190.5289213960656
 30
0.0
 11
-371.93519706383
 21
-185.1303268395488
 31
0.0
  0
LINE
  5
297
330
294
100
AcDbEntity
  8
S
 62
     6
370
    15
100
AcDbLine
 10
-337.5453209925231
 20
-194.6130175829316
 30
0.0
 11
-373.1836172421728
 21
-194.613017582931
 31
0.0
  0
ARC
  5
298
330
294
100
AcDbEntity
  8
S
 62
     6
370
    15
100
AcDbCircle
 10
-336.5453209925231
 20
-194.6130175829316
 30
0.0
 40
35.6382962496497
100
AcDbArc
 50
155.350931308059
 51
160.1754641209572
  0
ARC
  5
299
330
294
100
AcDbEntity
  8
S
 62
     6
370
    15
100
AcDbCircle
 10
-336.5453209925231
 20
-194.6130175829316
 30
0.0
 40
35.6382962496497
100
AcDbArc
 50
184.8245328128973
 51
189.6490656257954
  0
ARC
  5
29A
330
294
100
AcDbEntity
  8
S
 62
     6
370
    15
100
AcDbCircle
 10
-336.5453209925231
 20
-194.6130175829316
 30
0.0
 40
35.6382962496497
100
AcDbArc
 50
164.9999969338552
 51
179.9999999999991
  0
SOLID
  5
29B
330
294
100
AcDbEntity
  8
S
 62
     6
100
AcDbTrace
 10
-369.5944477297946
 20
-182.6762396931292
 30
0.0
 11
-370.5486239990312
 21
-182.3769945641363
 31
0.0
 12
-370.9692712513915
 22
-185.3891459363421
 32
0.0
 13
-370.9692712513915
 23
-185.3891459363421
 33
0.0
  0
SOLID
  5
29C
330
294
100
AcDbEntity
  8
S
 62
     6
100
AcDbTrace
 10
-372.556905500746
 20
-197.6314038862414
 30
0.0
 11
-371.5577916586684
 21
-197.5893143320861
 31
0.0
 12
-372.1836172421729
 22
-194.613017582931
 32
0.0
 13
-372.1836172421729
 23
-194.613017582931
 33
0.0
  0
MTEXT
  5
29D
330
294
100
AcDbEntity
  8
S
 62
     2
100
AcDbMText
 10
-373.8616162686513
 20
-189.7002330933362
 30
0.0
 40
3.0
 41
0.0
 71
     5
 72
     1
  1
\A1;15°
  7
OPNUS
 11
0.1305262187483007
 21
0.9914448578812997
 31
0.0
 73
     1
 44
1.0
1001
ACAD
1000
MTEXTBEGIN
1070
    73
1070
     1
1070
    44
1040
1.0
1070
    74
1070
     0
1000
MTEXTEND
  0
POINT
  5
29E
330
294
100
AcDbEntity
  8
Defpoints
 62
     0
100
AcDbPoint
 10
-371.6421912225409
 20
-188.4244911319021
 30
0.0
  0
POINT
  5
29F
330
294
100
AcDbEntity
  8
Defpoints
 62
     0
100
AcDbPoint
 10
-336.4945852615837
 20
-194.6130175829316
 30
0.0
  0
POINT
  5
2A0
330
294
100
AcDbEntity
  8
Defpoints
 62
     0
100
AcDbPoint
 10
-350.8214463897949
 20
-190.7877404928589
 30
0.0
  0
POINT
  5
2A1
330
294
100
AcDbEntity
  8
Defpoints
 62
     0
100
AcDbPoint
 10
-344.7463491418366
 20
-192.4155582428361
 30
0.0
  0
POINT
  5
2A2
330
294
100
AcDbEntity
  8
Defpoints
 62
     0
100
AcDbPoint
 10
-335.4945850976709
 20
-194.6130175829316
 30
0.0
  0
ENDBLK
  5
2A3
330
294
100
AcDbEntity
  8
0
100
AcDbBlockEnd
  0
BLOCK
  5
265
330
264
100
AcDbEntity
  8
0
100
AcDbBlockBegin
  2
*D21
 70
     1
 10
0.0
 20
0.0
 30
0.0
  3
*D21
  1

  0
LINE
  5
266
330
264
100
AcDbEntity
  8
S
 62
     6
370
    15
100
AcDbLine
 10
-318.1232674897029
 20
-177.184339584727
 30
0.0
 11
-310.827612618626
 21
-184.4800080450179
 31
0.0
  0
SOLID
  5
267
330
264
100
AcDbEntity
  8
S
 62
     6
100
AcDbTrace
 10
-317.7697137698379
 20
-176.8307865234057
 30
0.0
 11
-318.476821209568
 21
-177.5378926460482
 31
0.0
 12
-320.2445858576303
 22
-175.0630172655369
 32
0.0
 13
-320.2445858576303
 23
-175.0630172655369
 33
0.0
  0
MTEXT
  5
268
330
264
100
AcDbEntity
  8
S
 62
     2
100
AcDbMText
 10
-314.0577993174311
 20
-178.4213855705972
 30
0.0
 40
3.0
 41
0.0
 71
     5
 72
     1
  1
\A1;4-C0.5
  7
OPNUS
 11
0.7071061226424539
 21
-0.707107439730028
 31
0.0
 73
     1
 44
1.0
1001
ACAD
1000
MTEXTBEGIN
1070
    73
1070
     1
1070
    44
1040
1.0
1070
    74
1070
     0
1000
MTEXTEND
  0
POINT
  5
269
330
264
100
AcDbEntity
  8
Defpoints
 62
     0
100
AcDbPoint
 10
-320.2445858576302
 20
-175.0630172655369
 30
0.0
  0
POINT
  5
26A
330
264
100
AcDbEntity
  8
Defpoints
 62
     0
100
AcDbPoint
 10
-310.699442536152
 20
-184.6081783662272
 30
0.0
  0
POINT
  5
26B
330
264
100
AcDbEntity
  8
Defpoints
 62
     0
100
AcDbPoint
 10
-310.699442536152
 20
-184.6081783662272
 30
0.0
  0
ENDBLK
  5
26C
330
264
100
AcDbEntity
  8
0
100
AcDbBlockEnd
  0
BLOCK
  5
287
330
286
100
AcDbEntity
  8
0
100
AcDbBlockBegin
  2
*D22
 70
     1
 10
0.0
 20
0.0
 30
0.0
  3
*D22
  1

  0
LINE
  5
288
330
286
100
AcDbEntity
  8
S
 62
     6
370
    15
100
AcDbLine
 10
-280.6473679413767
 20
-194.4643552261341
 30
0.0
 11
-261.0051365385887
 21
-174.3347513915674
 31
0.0
  0
LINE
  5
289
330
286
100
AcDbEntity
  8
S
 62
     6
370
    15
100
AcDbLine
 10
-253.7418877049523
 20
-166.8912833570637
 30
0.0
 11
-251.6467197721726
 21
-164.7441291163414
 31
0.0
  0
MTEXT
  5
28A
330
286
100
AcDbEntity
  8
S
 62
     2
100
AcDbMText
 10
-277.7356955745336
 20
-188.6167047927838
 30
0.0
 40
3.0
 41
0.0
 71
     5
 72
     1
  1
\A1;2-\U+22054.4
  7
OPNUS
 11
0.6983893109265761
 21
0.7157180802407483
 31
0.0
 73
     1
 44
1.0
1001
ACAD
1000
MTEXTBEGIN
1070
    73
1070
     1
1070
    44
1040
1.0
1070
    74
1070
     0
1000
MTEXTEND
  0
LINE
  5
28B
330
286
100
AcDbEntity
  8
S
 62
     6
370
    15
100
AcDbLine
 10
-255.8370556377321
 20
-169.0384375977859
 30
0.0
 11
-258.909968605809
 21
-172.1875971508452
 31
0.0
  0
SOLID
  5
28C
330
286
100
AcDbEntity
  8
S
 62
     6
100
AcDbTrace
 10
-254.0997467450727
 20
-166.5420887016004
 30
0.0
 11
-253.384028664832
 21
-167.2404780125269
 31
0.0
 12
-255.8370556377321
 22
-169.0384375977859
 32
0.0
 13
-255.8370556377321
 23
-169.0384375977859
 33
0.0
  0
SOLID
  5
28D
330
286
100
AcDbEntity
  8
S
 62
     6
100
AcDbTrace
 10
-261.3629955787091
 20
-173.9855567361042
 30
0.0
 11
-260.6472774984684
 21
-174.6839460470307
 31
0.0
 12
-258.909968605809
 22
-172.1875971508452
 32
0.0
 13
-258.909968605809
 23
-172.1875971508452
 33
0.0
  0
POINT
  5
28E
330
286
100
AcDbEntity
  8
Defpoints
 62
     0
100
AcDbPoint
 10
-258.909968605809
 20
-172.1875971508452
 30
-0.0000000000000107
  0
POINT
  5
28F
330
286
100
AcDbEntity
  8
Defpoints
 62
     0
100
AcDbPoint
 10
-255.8370556377321
 20
-169.0384375977859
 30
0.0000000000000107
  0
ENDBLK
  5
290
330
286
100
AcDbEntity
  8
0
100
AcDbBlockEnd
  0
BLOCK
  5
4F2
330
4F1
100
AcDbEntity
  8
0
100
AcDbBlockBegin
  2
REV
 70
     2
 10
0.0
 20
0.0
 30
0.0
  3
REV
  1

  0
LWPOLYLINE
  5
4F3
330
4F1
100
AcDbEntity
  8
0
100
AcDbPolyline
 90
        3
 70
     1
 43
0.0
 10
-1.5
 20
-1.299038105676658
 10
1.5
 20
-1.299038105676658
 10
0.0
 20
1.299038105676658
  0
ATTDEF
  5
4F4
330
4F1
100
AcDbEntity
  8
0
100
AcDbText
 10
-0.3657142851946232
 20
-0.9330127023694387
 30
0.0
 40
1.0
  1
1
 72
     1
 11
0.0000000005196625
 21
-0.4330127023694388
 31
0.0
100
AcDbAttributeDefinition
  3
修正番号
  2
REVNO
 70
     0
 74
     2
  0
ENDBLK
  5
4F5
330
4F1
100
AcDbEntity
  8
0
100
AcDbBlockEnd
  0
BLOCK
  5
D03
330
CCC
100
AcDbEntity
  8
0
100
AcDbBlockBegin
  2
製品図-OPNUSマーク
 70
     0
 10
0.0
 20
0.0
 30
0.0
  3
製品図-OPNUSマーク
  1

  0
HATCH
  5
CCD
102
{ACAD_REACTORS
330
CCA
102
}
330
CCC
100
AcDbEntity
  8
W
 62
     2
370
    30
100
AcDbHatch
 10
0.0
 20
0.0
 30
0.0
210
0.0
220
0.0
230
1.0
  2
SOLID
 70
     1
 71
     0
 91
        1
 92
        1
 93
        1
 72
     4
 94
        3
 73
     0
 74
     0
 95
       86
 96
       82
 40
0.0
 40
0.0
 40
0.0
 40
0.0
 40
1.0
 40
1.0
 40
1.0
 40
2.0
 40
2.0
 40
2.0
 40
3.0
 40
3.0
 40
3.0
 40
4.0
 40
4.0
 40
4.0
 40
5.0
 40
5.0
 40
5.0
 40
6.0
 40
6.0
 40
6.0
 40
7.0
 40
7.0
 40
7.0
 40
8.0
 40
8.0
 40
8.0
 40
9.0
 40
9.0
 40
9.0
 40
10.0
 40
10.0
 40
10.0
 40
11.0
 40
11.0
 40
11.0
 40
12.0
 40
12.0
 40
12.0
 40
13.0
 40
13.0
 40
13.0
 40
14.0
 40
14.0
 40
14.0
 40
15.0
 40
15.0
 40
15.0
 40
16.0
 40
16.0
 40
16.0
 40
17.0
 40
17.0
 40
17.0
 40
18.0
 40
18.0
 40
18.0
 40
19.0
 40
19.0
 40
19.0
 40
20.0
 40
20.0
 40
20.0
 40
21.0
 40
21.0
 40
21.0
 40
22.0
 40
22.0
 40
22.0
 40
23.0
 40
23.0
 40
23.0
 40
24.0
 40
24.0
 40
24.0
 40
25.0
 40
25.0
 40
25.0
 40
26.0
 40
26.0
 40
26.0
 40
27.0
 40
27.0
 40
27.0
 40
27.0
 10
28.16770072731941
 20
6.441143573081603
 10
28.16770072731941
 20
6.586526602595483
 10
28.2324685224583
 20
6.657840079157978
 10
28.36200411273609
 20
6.657840079157978
 10
28.49222872211107
 20
6.657840079157978
 10
28.55699651724996
 20
6.586526602595483
 10
28.55699651724996
 20
6.441143573081603
 10
28.55699651724996
 20
6.441143573081603
 10
28.55699651724996
 20
5.83480676752606
 10
28.55699651724996
 20
5.83480676752606
 10
28.55699651724996
 20
5.83480676752606
 10
29.36039278461107
 20
5.83480676752606
 10
29.36039278461107
 20
5.83480676752606
 10
29.48992837488885
 20
5.83480676752606
 10
29.55469617002774
 20
5.768660934192723
 10
29.55469617002774
 20
5.63912534391494
 10
29.55469617002774
 20
5.509934263185755
 10
29.48992837488885
 20
5.443788429852446
 10
29.36039278461107
 20
5.443788429852446
 10
29.36039278461107
 20
5.443788429852446
 10
28.55699651724996
 20
5.443788429852446
 10
28.55699651724996
 20
5.443788429852446
 10
28.55699651724996
 20
5.443788429852446
 10
28.55699651724996
 20
2.581258590442701
 10
28.55699651724996
 20
2.581258590442701
 10
28.55699651724996
 20
2.147521068741326
 10
28.37647351377774
 20
1.931858091310772
 10
28.01542750683331
 20
1.931858091310772
 10
27.87073349641662
 20
1.931858091310772
 10
27.71914929502774
 20
1.953562192873278
 10
27.56067490266662
 20
1.99697039599826
 10
27.28506726377773
 20
2.068283872560783
 10
27.06871526724996
 20
2.140975387317723
 10
26.90886283669442
 20
2.21297788297744
 10
26.80826604849997
 20
2.270855487144103
 10
26.77243705544441
 20
2.350781702421869
 10
26.80137585752774
 20
2.452067509713543
 10
26.84478406065276
 20
2.53853940641494
 10
26.91713106586107
 20
2.5743683994705
 10
27.01772785405552
 20
2.560588017526043
 10
27.23476886968053
 20
2.487551993220478
 10
27.40840168218051
 20
2.437598108671892
 10
27.53862629155552
 20
2.408314797039935
 10
27.6681618818333
 20
2.379720504505201
 10
27.78460610926385
 20
2.365251103463549
 10
27.8852028974583
 20
2.365251103463549
 10
28.07330511099997
 20
2.365251103463549
 10
28.16770072731941
 20
2.458957700685772
 10
28.16770072731941
 20
2.647404423776038
 10
28.16770072731941
 20
2.647404423776038
 10
28.16770072731941
 20
5.357661042699646
 10
28.16770072731941
 20
5.357661042699646
 10
27.77771591829162
 20
4.677599193741315
 10
27.21272025856942
 20
4.019930465442712
 10
26.47615884363887
 20
3.383965838706615
 10
25.86913301898608
 20
2.906820113880201
 10
25.38475259363887
 20
2.59572799148438
 10
25.0237065866944
 20
2.452067509713543
 10
24.92173176030553
 20
2.422784198081615
 10
24.84938475509719
 20
2.452067509713543
 10
24.80597655197218
 20
2.53853940641494
 10
24.79150715093053
 20
2.624666793567712
 10
24.81355576204163
 20
2.690812626901049
 10
24.87074434711107
 20
2.733531810928838
 10
26.05654621343052
 20
3.383965838706615
 10
27.02530706412498
 20
4.287614384713549
 10
27.77771591829162
 20
5.443788429852446
 10
27.77771591829162
 20
5.443788429852446
 10
25.00096895648608
 20
5.443788429852446
 10
25.00096895648608
 20
5.443788429852446
 10
24.90037216829163
 20
5.443788429852446
 10
24.84938475509719
 20
5.509934263185755
 10
24.84938475509719
 20
5.63912534391494
 10
24.84938475509719
 20
5.768660934192723
 10
24.90037216829163
 20
5.83480676752606
 10
25.00096895648608
 20
5.83480676752606
 10
25.00096895648608
 20
5.83480676752606
 10
28.16770072731941
 20
5.83480676752606
 10
28.16770072731941
 20
5.83480676752606
 10
28.16770072731941
 20
5.83480676752606
 10
28.16770072731941
 20
6.441143573081603
 10
28.16770072731941
 20
6.441143573081603
 97
        0
 75
     0
 76
     1
 98
        1
 10
35.4506325849583
 20
4.478644929418408
  0
HATCH
  5
CCE
102
{ACAD_REACTORS
330
CCA
102
}
330
CCC
100
AcDbEntity
  8
W
 62
     2
370
    30
100
AcDbHatch
 10
0.0
 20
0.0
 30
0.0
210
0.0
220
0.0
230
1.0
  2
SOLID
 70
     1
 71
     0
 91
        2
 92
       16
 93
        1
 72
     4
 94
        3
 73
     0
 74
     0
 95
       29
 96
       25
 40
0.0
 40
0.0
 40
0.0
 40
0.0
 40
1.0
 40
1.0
 40
1.0
 40
2.0
 40
2.0
 40
2.0
 40
3.0
 40
3.0
 40
3.0
 40
4.0
 40
4.0
 40
4.0
 40
5.0
 40
5.0
 40
5.0
 40
6.0
 40
6.0
 40
6.0
 40
7.0
 40
7.0
 40
7.0
 40
8.0
 40
8.0
 40
8.0
 40
8.0
 10
35.1247265519722
 20
6.78634214078994
 10
35.0385991648194
 20
6.873158547039935
 10
34.92973414745831
 20
6.916911259713543
 10
34.80019855718052
 20
6.916911259713543
 10
34.67066296690274
 20
6.916911259713543
 10
34.56179794954164
 20
6.873158547039935
 10
34.4742925241944
 20
6.78634214078994
 10
34.38816513704163
 20
6.700214753637169
 10
34.34544595301387
 20
6.591694245824669
 10
34.34544595301387
 20
6.461469636449663
 10
34.34544595301387
 20
6.331589536623255
 10
34.38816513704163
 20
6.22341353835938
 10
34.4742925241944
 20
6.136597132109386
 10
34.56179794954164
 20
6.049091706762169
 10
34.67066296690274
 20
6.00637252273438
 10
34.80019855718052
 20
6.00637252273438
 10
34.92973414745831
 20
6.00637252273438
 10
35.0385991648194
 20
6.049091706762169
 10
35.1247265519722
 20
6.136597132109386
 10
35.21223197731942
 20
6.22341353835938
 10
35.2556401804444
 20
6.331589536623255
 10
35.2556401804444
 20
6.461469636449663
 10
35.2556401804444
 20
6.591694245824669
 10
35.21223197731942
 20
6.700214753637169
 10
35.1247265519722
 20
6.78634214078994
 97
        0
 92
        1
 93
        1
 72
     4
 94
        3
 73
     0
 74
     0
 95
       62
 96
       58
 40
0.0
 40
0.0
 40
0.0
 40
0.0
 40
1.0
 40
1.0
 40
1.0
 40
2.0
 40
2.0
 40
2.0
 40
3.0
 40
3.0
 40
3.0
 40
4.0
 40
4.0
 40
4.0
 40
5.0
 40
5.0
 40
5.0
 40
6.0
 40
6.0
 40
6.0
 40
7.0
 40
7.0
 40
7.0
 40
8.0
 40
8.0
 40
8.0
 40
9.0
 40
9.0
 40
9.0
 40
10.0
 40
10.0
 40
10.0
 40
11.0
 40
11.0
 40
11.0
 40
12.0
 40
12.0
 40
12.0
 40
13.0
 40
13.0
 40
13.0
 40
14.0
 40
14.0
 40
14.0
 40
15.0
 40
15.0
 40
15.0
 40
16.0
 40
16.0
 40
16.0
 40
17.0
 40
17.0
 40
17.0
 40
18.0
 40
18.0
 40
18.0
 40
19.0
 40
19.0
 40
19.0
 40
19.0
 10
35.2335915693333
 20
6.028421133845483
 10
35.11783636099997
 20
5.913010435060755
 10
34.98141057974996
 20
5.854443811796869
 10
34.82224716829163
 20
5.854443811796869
 10
34.82224716829163
 20
5.854443811796869
 10
34.80019855718052
 20
5.615698694609392
 10
34.80019855718052
 20
5.615698694609392
 10
34.67066296690274
 20
4.618343551380206
 10
34.27309894780552
 20
3.787386520130212
 10
33.60750649988884
 20
3.12179407221356
 10
32.97223089224997
 20
2.485829445477435
 10
32.08959742870829
 20
2.102734827421869
 10
30.96167316655553
 20
1.972510218046892
 10
30.83213757627774
 20
1.972510218046892
 10
30.7597905710694
 20
2.023497631241326
 10
30.74532117002775
 20
2.124438928984375
 10
30.74532117002775
 20
2.240883156414923
 10
30.79561956412496
 20
2.305650951553815
 10
30.89690537141664
 20
2.320120352595495
 10
31.92285480718053
 20
2.463780834366332
 10
32.72625107454164
 20
2.825860369956615
 10
33.30364907801385
 20
3.403947392526049
 10
33.85348631759721
 20
3.954129141658
 10
34.20006292349996
 20
4.675876645998272
 10
34.34544595301387
 20
5.57229049148438
 10
34.34544595301387
 20
5.803456398602435
 10
34.25105033669442
 20
5.91921160693576
 10
34.06225910405553
 20
5.91921160693576
 10
34.06225910405553
 20
5.91921160693576
 10
30.50692056238884
 20
5.91921160693576
 10
30.50692056238884
 20
5.91921160693576
 10
30.39116535405552
 20
5.91921160693576
 10
30.33328774988885
 20
5.984323911623278
 10
30.33328774988885
 20
6.11385950190106
 10
30.33328774988885
 20
6.244428620824663
 10
30.39116535405552
 20
6.309885435060778
 10
30.50692056238884
 20
6.309885435060778
 10
30.50692056238884
 20
6.309885435060778
 10
34.21453232454164
 20
6.309885435060778
 10
34.21453232454164
 20
6.309885435060778
 10
34.20006292349996
 20
6.36776303922744
 10
34.19317273252776
 20
6.418061433324652
 10
34.19317273252776
 20
6.461469636449663
 10
34.19317273252776
 20
6.634757939401055
 10
34.25105033669442
 20
6.779451949817712
 10
34.36680554502775
 20
6.89486264860244
 10
34.48187173426385
 20
7.010617856935766
 10
34.62725476377776
 20
7.069184480199652
 10
34.80019855718052
 20
7.069184480199652
 10
34.97383136968051
 20
7.069184480199652
 10
35.11783636099997
 20
7.010617856935766
 10
35.2335915693333
 20
6.89486264860244
 10
35.35003579676385
 20
6.779451949817712
 10
35.40791340093051
 20
6.634757939401055
 10
35.40791340093051
 20
6.461469636449663
 10
35.40791340093051
 20
6.287836823949646
 10
35.35003579676385
 20
6.143487323081615
 10
35.2335915693333
 20
6.028421133845483
 97
        0
 75
     0
 76
     1
 98
        1
 10
35.4506325849583
 20
4.478644929418408
  0
HATCH
  5
CCF
102
{ACAD_REACTORS
330
CCA
102
}
330
CCC
100
AcDbEntity
  8
W
 62
     2
370
    30
100
AcDbHatch
 10
0.0
 20
0.0
 30
0.0
210
0.0
220
0.0
230
1.0
  2
SOLID
 70
     1
 71
     0
 91
        1
 92
        1
 93
        1
 72
     4
 94
        3
 73
     0
 74
     0
 95
       65
 96
       61
 40
0.0
 40
0.0
 40
0.0
 40
0.0
 40
1.0
 40
1.0
 40
1.0
 40
2.0
 40
2.0
 40
2.0
 40
3.0
 40
3.0
 40
3.0
 40
4.0
 40
4.0
 40
4.0
 40
5.0
 40
5.0
 40
5.0
 40
6.0
 40
6.0
 40
6.0
 40
7.0
 40
7.0
 40
7.0
 40
8.0
 40
8.0
 40
8.0
 40
9.0
 40
9.0
 40
9.0
 40
10.0
 40
10.0
 40
10.0
 40
11.0
 40
11.0
 40
11.0
 40
12.0
 40
12.0
 40
12.0
 40
13.0
 40
13.0
 40
13.0
 40
14.0
 40
14.0
 40
14.0
 40
15.0
 40
15.0
 40
15.0
 40
16.0
 40
16.0
 40
16.0
 40
17.0
 40
17.0
 40
17.0
 40
18.0
 40
18.0
 40
18.0
 40
19.0
 40
19.0
 40
19.0
 40
20.0
 40
20.0
 40
20.0
 40
20.0
 10
38.54846244606941
 20
6.527959979331598
 10
38.54846244606941
 20
6.673343008845478
 10
38.6132302412083
 20
6.744656485408
 10
38.74345485058331
 20
6.744656485408
 10
38.87367945995831
 20
6.744656485408
 10
38.93982529329162
 20
6.673343008845478
 10
38.93982529329162
 20
6.527959979331598
 10
38.93982529329162
 20
6.527959979331598
 10
38.93982529329162
 20
5.661173955026043
 10
38.93982529329162
 20
5.661173955026043
 10
38.93982529329162
 20
5.661173955026043
 10
40.52250215961106
 20
5.661173955026043
 10
40.52250215961106
 20
5.661173955026043
 10
40.63687932974997
 20
5.661173955026043
 10
40.69475693391663
 20
5.595717140789929
 10
40.69475693391663
 20
5.466526060060772
 10
40.69475693391663
 20
5.335612431588543
 10
40.63687932974997
 20
5.270155617352429
 10
40.52250215961106
 20
5.270155617352429
 10
40.52250215961106
 20
5.270155617352429
 10
38.93982529329162
 20
5.270155617352429
 10
38.93982529329162
 20
5.270155617352429
 10
38.93982529329162
 20
5.270155617352429
 10
38.93982529329162
 20
4.641425691137158
 10
38.93982529329162
 20
4.641425691137158
 10
38.93982529329162
 20
3.817358850859392
 10
38.70762585752775
 20
3.174504033151038
 10
38.24529404329164
 20
2.712172218914929
 10
37.85462021516662
 20
2.321842900338538
 10
37.3419900068333
 20
2.047957809192723
 10
36.70533636099998
 20
1.888105378637163
 10
36.58958115266663
 20
1.873635977595483
 10
36.50965493738886
 20
1.916355161623272
 10
36.46624673426385
 20
2.018329988012169
 10
36.4517773332222
 20
2.119271285755218
 10
36.48760632627776
 20
2.190929271866338
 10
36.57511175162497
 20
2.235026494088543
 10
37.16766817523609
 20
2.422784198081615
 10
37.62242077940275
 20
2.675654206762146
 10
37.94143662141664
 20
2.993636520130223
 10
38.34589083148609
 20
3.398435239748266
 10
38.54846244606941
 20
3.9696320713455
 10
38.54846244606941
 20
4.706537995824646
 10
38.54846244606941
 20
4.706537995824646
 10
38.54846244606941
 20
5.270155617352429
 10
38.54846244606941
 20
5.270155617352429
 10
38.54846244606941
 20
5.270155617352429
 10
35.94603731586108
 20
5.270155617352429
 10
35.94603731586108
 20
5.270155617352429
 10
35.83028210752775
 20
5.270155617352429
 10
35.77240450336109
 20
5.335612431588543
 10
35.77240450336109
 20
5.466526060060772
 10
35.77240450336109
 20
5.595717140789929
 10
35.83028210752775
 20
5.661173955026043
 10
35.94603731586108
 20
5.661173955026043
 10
35.94603731586108
 20
5.661173955026043
 10
38.54846244606941
 20
5.661173955026043
 10
38.54846244606941
 20
5.661173955026043
 10
38.54846244606941
 20
5.661173955026043
 10
38.54846244606941
 20
6.527959979331598
 10
38.54846244606941
 20
6.527959979331598
 97
        0
 75
     0
 76
     1
 98
        1
 10
35.4506325849583
 20
4.478644929418408
  0
HATCH
  5
CD0
102
{ACAD_REACTORS
330
CCA
102
}
330
CCC
100
AcDbEntity
  8
W
 62
     2
370
    30
100
AcDbHatch
 10
0.0
 20
0.0
 30
0.0
210
0.0
220
0.0
230
1.0
  2
SOLID
 70
     1
 71
     0
 91
        1
 92
        1
 93
        1
 72
     4
 94
        3
 73
     0
 74
     0
 95
       71
 96
       67
 40
0.0
 40
0.0
 40
0.0
 40
0.0
 40
1.0
 40
1.0
 40
1.0
 40
2.0
 40
2.0
 40
2.0
 40
3.0
 40
3.0
 40
3.0
 40
4.0
 40
4.0
 40
4.0
 40
5.0
 40
5.0
 40
5.0
 40
6.0
 40
6.0
 40
6.0
 40
7.0
 40
7.0
 40
7.0
 40
8.0
 40
8.0
 40
8.0
 40
9.0
 40
9.0
 40
9.0
 40
10.0
 40
10.0
 40
10.0
 40
11.0
 40
11.0
 40
11.0
 40
12.0
 40
12.0
 40
12.0
 40
13.0
 40
13.0
 40
13.0
 40
14.0
 40
14.0
 40
14.0
 40
15.0
 40
15.0
 40
15.0
 40
16.0
 40
16.0
 40
16.0
 40
17.0
 40
17.0
 40
17.0
 40
18.0
 40
18.0
 40
18.0
 40
19.0
 40
19.0
 40
19.0
 40
20.0
 40
20.0
 40
20.0
 40
21.0
 40
21.0
 40
21.0
 40
22.0
 40
22.0
 40
22.0
 40
22.0
 10
45.42280597905551
 20
6.287147804852423
 10
45.50893336620831
 20
6.22927020068576
 10
45.54614039745828
 20
6.142798303984392
 10
45.53167099641663
 20
6.027043095651038
 10
45.5027321943333
 20
5.752124475859375
 10
45.35734916481939
 20
5.390389449817718
 10
45.09758896516664
 20
4.943216055720483
 10
44.88054794954163
 20
4.567011628637146
 10
44.62078774988884
 20
4.19838641162326
 10
44.31693032801385
 20
3.836995895130201
 10
44.76479274120831
 20
3.591360586970495
 10
45.15477755023607
 20
3.337801559192712
 10
45.4875737741944
 20
3.078385869088549
 10
45.76318141308329
 20
2.861689363012146
 10
45.96437498947219
 20
2.680477340442706
 10
46.09528861794442
 20
2.536816858671869
 10
46.16694660405551
 20
2.42037263124132
 10
46.16694660405551
 20
2.31185212342882
 10
46.09528861794442
 20
2.211255335234369
 10
45.97815537141662
 20
2.109969527942723
 10
45.85688801030551
 20
2.116859718914923
 10
45.72666340093053
 20
2.232614927248278
 10
45.45174478113884
 20
2.520969419435772
 10
45.16993597037497
 20
2.788653338706609
 10
44.88054794954163
 20
3.034977665963538
 10
44.66419595301386
 20
3.207921459366332
 10
44.40443575336106
 20
3.395679163359375
 10
44.09920029329163
 20
3.59859528749132
 10
43.69543510231941
 20
3.222390860407983
 10
43.29856010231941
 20
2.91164324756076
 10
42.90719725509717
 20
2.665318920303832
 10
42.45933484190274
 20
2.376275409019115
 10
42.06866101377776
 20
2.167158113012163
 10
41.73655380891662
 20
2.036933503637158
 10
41.62010958148607
 20
2.008339211102423
 10
41.54156140440275
 20
2.036933503637158
 10
41.49815320127774
 20
2.124438928984375
 10
41.46921439919441
 20
2.225035717178826
 10
41.49815320127774
 20
2.297382722387169
 10
41.58496960752773
 20
2.340790925512152
 10
42.55373045822219
 20
2.818281159887163
 10
43.30545029329164
 20
3.330911368220483
 10
43.83944009363884
 20
3.880404098255212
 10
44.14329751551386
 20
4.19838641162326
 10
44.40443575336106
 20
4.545307527074669
 10
44.62078774988884
 20
4.920822935060755
 10
44.8364507273194
 20
5.311152253637146
 10
44.96736435579163
 20
5.607085955894092
 10
45.01146157801386
 20
5.811035608671886
 10
45.01146157801386
 20
5.911287887317712
 10
44.9604741648194
 20
5.962275300512146
 10
44.85849933843053
 20
5.962275300512146
 10
44.85849933843053
 20
5.962275300512146
 10
41.88882702940273
 20
5.962275300512146
 10
41.88882702940273
 20
5.962275300512146
 10
41.77238280197218
 20
5.962275300512146
 10
41.71450519780552
 20
6.027043095651038
 10
41.71450519780552
 20
6.157267705026043
 10
41.71450519780552
 20
6.287147804852423
 10
41.77238280197218
 20
6.351915599991315
 10
41.88882702940273
 20
6.351915599991315
 10
41.88882702940273
 20
6.351915599991315
 10
45.14099716829162
 20
6.351915599991315
 10
45.14099716829162
 20
6.351915599991315
 10
45.25606335752775
 20
6.351915599991315
 10
45.35045897384719
 20
6.330556007977435
 10
45.42280597905551
 20
6.287147804852423
 97
        0
 75
     0
 76
     1
 98
        1
 10
35.4506325849583
 20
4.478644929418408
  0
HATCH
  5
CD1
102
{ACAD_REACTORS
330
CCA
102
}
330
CCC
100
AcDbEntity
  8
W
 62
     2
370
    30
100
AcDbHatch
 10
0.0
 20
0.0
 30
0.0
210
0.0
220
0.0
230
1.0
  2
SOLID
 70
     1
 71
     0
 91
        2
 92
        1
 93
        1
 72
     4
 94
        3
 73
     0
 74
     0
 95
      152
 96
      148
 40
0.0
 40
0.0
 40
0.0
 40
0.0
 40
1.0
 40
1.0
 40
1.0
 40
2.0
 40
2.0
 40
2.0
 40
3.0
 40
3.0
 40
3.0
 40
4.0
 40
4.0
 40
4.0
 40
5.0
 40
5.0
 40
5.0
 40
6.0
 40
6.0
 40
6.0
 40
7.0
 40
7.0
 40
7.0
 40
8.0
 40
8.0
 40
8.0
 40
9.0
 40
9.0
 40
9.0
 40
10.0
 40
10.0
 40
10.0
 40
11.0
 40
11.0
 40
11.0
 40
12.0
 40
12.0
 40
12.0
 40
13.0
 40
13.0
 40
13.0
 40
14.0
 40
14.0
 40
14.0
 40
15.0
 40
15.0
 40
15.0
 40
16.0
 40
16.0
 40
16.0
 40
17.0
 40
17.0
 40
17.0
 40
18.0
 40
18.0
 40
18.0
 40
19.0
 40
19.0
 40
19.0
 40
20.0
 40
20.0
 40
20.0
 40
21.0
 40
21.0
 40
21.0
 40
22.0
 40
22.0
 40
22.0
 40
23.0
 40
23.0
 40
23.0
 40
24.0
 40
24.0
 40
24.0
 40
25.0
 40
25.0
 40
25.0
 40
26.0
 40
26.0
 40
26.0
 40
27.0
 40
27.0
 40
27.0
 40
28.0
 40
28.0
 40
28.0
 40
29.0
 40
29.0
 40
29.0
 40
30.0
 40
30.0
 40
30.0
 40
31.0
 40
31.0
 40
31.0
 40
32.0
 40
32.0
 40
32.0
 40
33.0
 40
33.0
 40
33.0
 40
34.0
 40
34.0
 40
34.0
 40
35.0
 40
35.0
 40
35.0
 40
36.0
 40
36.0
 40
36.0
 40
37.0
 40
37.0
 40
37.0
 40
38.0
 40
38.0
 40
38.0
 40
39.0
 40
39.0
 40
39.0
 40
40.0
 40
40.0
 40
40.0
 40
41.0
 40
41.0
 40
41.0
 40
42.0
 40
42.0
 40
42.0
 40
43.0
 40
43.0
 40
43.0
 40
44.0
 40
44.0
 40
44.0
 40
45.0
 40
45.0
 40
45.0
 40
46.0
 40
46.0
 40
46.0
 40
47.0
 40
47.0
 40
47.0
 40
48.0
 40
48.0
 40
48.0
 40
49.0
 40
49.0
 40
49.0
 40
49.0
 10
9.24379122211107
 20
5.477550365616309
 10
9.24379122211107
 20
5.586759892526032
 10
9.293400597111059
 20
5.641192401206609
 10
9.391930328013842
 20
5.641192401206609
 10
9.489771039819402
 20
5.641192401206609
 10
9.53938041481939
 20
5.586759892526032
 10
9.53938041481939
 20
5.477550365616309
 10
9.53938041481939
 20
5.477550365616309
 10
9.53938041481939
 20
5.05104754443576
 10
9.53938041481939
 20
5.05104754443576
 10
9.53938041481939
 20
5.05104754443576
 10
10.21048501551385
 20
5.05104754443576
 10
10.21048501551385
 20
5.05104754443576
 10
10.29867945995829
 20
5.05104754443576
 10
10.3420876630833
 20
5.013496003637158
 10
10.3420876630833
 20
4.936325864748255
 10
10.3420876630833
 20
4.859500235407978
 10
10.29867945995829
 20
4.821604185060749
 10
10.21048501551385
 20
4.821604185060749
 10
10.21048501551385
 20
4.821604185060749
 10
9.53938041481939
 20
4.821604185060749
 10
9.53938041481939
 20
4.821604185060749
 10
9.53938041481939
 20
4.821604185060749
 10
9.53938041481939
 20
4.051280834366309
 10
9.53938041481939
 20
4.051280834366309
 10
9.53938041481939
 20
4.051280834366309
 10
10.48953774988885
 20
4.051280834366309
 10
10.48953774988885
 20
4.051280834366309
 10
10.57704317523607
 20
4.051280834366309
 10
10.62045137836108
 20
4.013040274470483
 10
10.62045137836108
 20
3.936214645130206
 10
10.62045137836108
 20
3.860078034887152
 10
10.57704317523607
 20
3.821492965442701
 10
10.48953774988885
 20
3.821492965442701
 10
10.48953774988885
 20
3.821492965442701
 10
9.555227854055516
 20
3.821492965442701
 10
9.555227854055516
 20
3.821492965442701
 10
9.577276465166619
 20
3.733987540095483
 10
9.686830501624967
 20
3.554842574817712
 10
9.882511925236059
 20
3.280957483671869
 10
10.07957138704162
 20
3.02981002273438
 10
10.29867945995829
 20
2.789342357803832
 10
10.53914712488884
 20
2.560588017526043
 10
10.59357963356939
 20
2.505466489748272
 10
10.62045137836108
 20
2.45620162429688
 10
10.62045137836108
 20
2.412793421171869
 10
10.62045137836108
 20
2.313574671171863
 10
10.57704317523607
 20
2.264998824817695
 10
10.48953774988885
 20
2.264998824817695
 10
10.43441622211108
 20
2.264998824817695
 10
10.3799837134305
 20
2.291181550512163
 10
10.32624022384718
 20
2.346647587838532
 10
10.19463757627772
 20
2.47756121631076
 10
10.06372394780552
 20
2.631212474991315
 10
9.932810319333299
 20
2.805534306588526
 10
9.801207671763847
 20
2.969520851727423
 10
9.670983062388842
 20
3.155211498428826
 10
9.53938041481939
 20
3.363295265789929
 10
9.53938041481939
 20
3.363295265789929
 10
9.53938041481939
 20
2.051402904678809
 10
9.53938041481939
 20
2.051402904678809
 10
9.53938041481939
 20
1.942882396866309
 10
9.489771039819402
 20
1.888105378637163
 10
9.391930328013842
 20
1.888105378637163
 10
9.293400597111059
 20
1.888105378637163
 10
9.24379122211107
 20
1.942882396866309
 10
9.24379122211107
 20
2.051402904678809
 10
9.24379122211107
 20
2.051402904678809
 10
9.24379122211107
 20
3.280957483671869
 10
9.24379122211107
 20
3.280957483671869
 10
9.123901899194407
 20
3.084242531414929
 10
8.976451812388859
 20
2.887872088706586
 10
8.802129980791619
 20
2.691846155546869
 10
8.648478722111065
 20
2.53853940641494
 10
8.505851768986076
 20
2.406936758845489
 10
8.37562715961107
 20
2.298071741484363
 10
8.29914603981939
 20
2.243639232803815
 10
8.238512359263836
 20
2.215733959366332
 10
8.195104156138853
 20
2.215733959366332
 10
8.119312055444396
 20
2.215733959366332
 10
8.080726985999973
 20
2.253630009713532
 10
8.080726985999973
 20
2.329766619956586
 10
8.080726985999973
 20
2.385577166831609
 10
8.108287749888859
 20
2.434153013185749
 10
8.162720258569407
 20
2.47756121631076
 10
8.381139312388853
 20
2.631212474991315
 10
8.594046213430516
 20
2.833439580026038
 10
8.802129980791619
 20
3.084242531414929
 10
8.998500423499962
 20
3.336079011449641
 10
9.145261491208287
 20
3.581025300512152
 10
9.24379122211107
 20
3.821492965442701
 10
9.24379122211107
 20
3.821492965442701
 10
8.326706803708304
 20
3.821492965442701
 10
8.326706803708304
 20
3.821492965442701
 10
8.238512359263836
 20
3.821492965442701
 10
8.195104156138853
 20
3.860078034887152
 10
8.195104156138853
 20
3.936214645130206
 10
8.195104156138853
 20
4.013040274470483
 10
8.238512359263836
 20
4.051280834366309
 10
8.326706803708304
 20
4.051280834366309
 10
8.326706803708304
 20
4.051280834366309
 10
9.24379122211107
 20
4.051280834366309
 10
9.24379122211107
 20
4.051280834366309
 10
9.24379122211107
 20
4.051280834366309
 10
9.24379122211107
 20
4.821604185060749
 10
9.24379122211107
 20
4.821604185060749
 10
9.24379122211107
 20
4.821604185060749
 10
8.735984147458282
 20
4.821604185060749
 10
8.735984147458282
 20
4.821604185060749
 10
8.713935536347179
 20
4.745123065269098
 10
8.67603948599995
 20
4.64693784391494
 10
8.620917958222179
 20
4.527048520998249
 10
8.577509755097196
 20
4.439543095651032
 10
8.523077246416619
 20
4.346181007977435
 10
8.457620432180505
 20
4.248340296171875
 10
8.413523209958299
 20
4.204243073949641
 10
8.370115006833287
 20
4.183572501032983
 10
8.326706803708304
 20
4.183572501032983
 10
8.26124998947219
 20
4.183572501032983
 10
8.228177072805522
 20
4.215267379505206
 10
8.228177072805522
 20
4.281413212838543
 10
8.228177072805522
 20
4.324821415963526
 10
8.250225683916625
 20
4.373397262317695
 10
8.292944867944413
 20
4.428518790095495
 10
8.337042090166619
 20
4.493286585234386
 10
8.385962446069413
 20
4.598017488012146
 10
8.441083973847185
 20
4.739610912491315
 10
8.505851768986076
 20
4.936325864748255
 10
8.549948991208282
 20
5.095144766657995
 10
8.571997602319413
 20
5.215034089574658
 10
8.583710926972173
 20
5.269466598255206
 10
8.599558366208299
 20
5.330444788359386
 10
8.620917958222179
 20
5.395212583498249
 10
8.642966569333282
 20
5.428285500164918
 10
8.68086261968051
 20
5.444477448949641
 10
8.735984147458282
 20
5.444477448949641
 10
8.823489572805527
 20
5.444477448949641
 10
8.86689777593051
 20
5.395212583498249
 10
8.86689777593051
 20
5.297371871692718
 10
8.86689777593051
 20
5.253274649470483
 10
8.844849164819407
 20
5.170936867352423
 10
8.802129980791619
 20
5.05104754443576
 10
8.802129980791619
 20
5.05104754443576
 10
9.24379122211107
 20
5.05104754443576
 10
9.24379122211107
 20
5.05104754443576
 10
9.24379122211107
 20
5.05104754443576
 10
9.24379122211107
 20
5.477550365616309
 10
9.24379122211107
 20
5.477550365616309
 97
        0
 92
        1
 93
        1
 72
     4
 94
        3
 73
     0
 74
     0
 95
       95
 96
       91
 40
0.0
 40
0.0
 40
0.0
 40
0.0
 40
1.0
 40
1.0
 40
1.0
 40
2.0
 40
2.0
 40
2.0
 40
3.0
 40
3.0
 40
3.0
 40
4.0
 40
4.0
 40
4.0
 40
5.0
 40
5.0
 40
5.0
 40
6.0
 40
6.0
 40
6.0
 40
7.0
 40
7.0
 40
7.0
 40
8.0
 40
8.0
 40
8.0
 40
9.0
 40
9.0
 40
9.0
 40
10.0
 40
10.0
 40
10.0
 40
11.0
 40
11.0
 40
11.0
 40
12.0
 40
12.0
 40
12.0
 40
13.0
 40
13.0
 40
13.0
 40
14.0
 40
14.0
 40
14.0
 40
15.0
 40
15.0
 40
15.0
 40
16.0
 40
16.0
 40
16.0
 40
17.0
 40
17.0
 40
17.0
 40
18.0
 40
18.0
 40
18.0
 40
19.0
 40
19.0
 40
19.0
 40
20.0
 40
20.0
 40
20.0
 40
21.0
 40
21.0
 40
21.0
 40
22.0
 40
22.0
 40
22.0
 40
23.0
 40
23.0
 40
23.0
 40
24.0
 40
24.0
 40
24.0
 40
25.0
 40
25.0
 40
25.0
 40
26.0
 40
26.0
 40
26.0
 40
27.0
 40
27.0
 40
27.0
 40
28.0
 40
28.0
 40
28.0
 40
29.0
 40
29.0
 40
29.0
 40
30.0
 40
30.0
 40
30.0
 40
30.0
 10
7.457853722111082
 20
5.509934263185755
 10
7.457853722111082
 20
5.597439688532972
 10
7.495749772458282
 20
5.641192401206609
 10
7.572230892249962
 20
5.641192401206609
 10
7.64802299294439
 20
5.641192401206609
 10
7.686608062388842
 20
5.597439688532972
 10
7.686608062388842
 20
5.509934263185755
 10
7.686608062388842
 20
5.509934263185755
 10
7.686608062388842
 20
4.968709762317701
 10
7.686608062388842
 20
4.968709762317701
 10
7.686608062388842
 20
4.968709762317701
 10
8.146183800236059
 20
4.968709762317701
 10
8.146183800236059
 20
4.968709762317701
 10
8.233000206486082
 20
4.968709762317701
 10
8.276408409611065
 20
4.930469202421875
 10
8.276408409611065
 20
4.854677101727418
 10
8.276408409611065
 20
4.778195981935766
 10
8.233000206486082
 20
4.739610912491315
 10
8.146183800236059
 20
4.739610912491315
 10
8.146183800236059
 20
4.739610912491315
 10
7.686608062388842
 20
4.739610912491315
 10
7.686608062388842
 20
4.739610912491315
 10
7.686608062388842
 20
4.739610912491315
 10
7.686608062388842
 20
4.281413212838543
 10
7.686608062388842
 20
4.281413212838543
 10
7.829235015513859
 20
4.127761954157989
 10
7.959459624888836
 20
3.952751103463526
 10
8.080726985999973
 20
3.756725170303809
 10
8.179256716902727
 20
3.603073911623255
 10
8.228177072805522
 20
3.477327926380212
 10
8.228177072805522
 20
3.378798195477429
 10
8.228177072805522
 20
3.303695113880195
 10
8.200616308916636
 20
3.264765534887146
 10
8.146183800236059
 20
3.264765534887146
 10
8.080726985999973
 20
3.264765534887146
 10
8.031117610999956
 20
3.303695113880195
 10
7.999422732527733
 20
3.378798195477429
 10
7.965660796763842
 20
3.444255009713543
 10
7.916051421763853
 20
3.560354727595495
 10
7.850594607527739
 20
3.723652253637141
 10
7.80787542349995
 20
3.811157678984386
 10
7.752064876624956
 20
3.90383074756076
 10
7.686608062388842
 20
4.002704988012141
 10
7.686608062388842
 20
4.002704988012141
 10
7.686608062388842
 20
2.019019007109363
 10
7.686608062388842
 20
2.019019007109363
 10
7.686608062388842
 20
1.931858091310772
 10
7.64802299294439
 20
1.888105378637163
 10
7.572230892249962
 20
1.888105378637163
 10
7.495749772458282
 20
1.888105378637163
 10
7.457853722111082
 20
1.931858091310772
 10
7.457853722111082
 20
2.019019007109363
 10
7.457853722111082
 20
2.019019007109363
 10
7.457853722111082
 20
3.871102340442718
 10
7.457853722111082
 20
3.871102340442718
 10
7.391707888777744
 20
3.685411693741315
 10
7.32142794086107
 20
3.522114167699641
 10
7.244257801972196
 20
3.378798195477429
 10
7.200849598847185
 20
3.291292770130212
 10
7.15192924294439
 20
3.210333026206598
 10
7.097496734263842
 20
3.133162887317695
 10
7.064423817597173
 20
3.078730378637146
 10
7.014125423499962
 20
3.051514124296886
 10
6.950046647458293
 20
3.051514124296886
 10
6.905949425236059
 20
3.051514124296886
 10
6.883900814124956
 20
3.084242531414929
 10
6.883900814124956
 20
3.150043855199641
 10
6.883900814124956
 20
3.194141077421875
 10
6.900437272458304
 20
3.232381637317701
 10
6.934199208222196
 20
3.264765534887146
 10
7.053399512041636
 20
3.461135977595489
 10
7.157441395722173
 20
3.663363082630212
 10
7.244257801972196
 20
3.871102340442718
 10
7.386195735999962
 20
4.276245569609386
 10
7.457853722111082
 20
4.56460006179688
 10
7.457853722111082
 20
4.739610912491315
 10
7.457853722111082
 20
4.739610912491315
 10
6.981741525930516
 20
4.739610912491315
 10
6.981741525930516
 20
4.739610912491315
 10
6.894236100583299
 20
4.739610912491315
 10
6.850827897458287
 20
4.778195981935766
 10
6.850827897458287
 20
4.854677101727418
 10
6.850827897458287
 20
4.930469202421875
 10
6.894236100583299
 20
4.968709762317701
 10
6.981741525930516
 20
4.968709762317701
 10
6.981741525930516
 20
4.968709762317701
 10
7.457853722111082
 20
4.968709762317701
 10
7.457853722111082
 20
4.968709762317701
 10
7.457853722111082
 20
4.968709762317701
 10
7.457853722111082
 20
5.509934263185755
 10
7.457853722111082
 20
5.509934263185755
 97
        0
 75
     0
 76
     1
 98
        1
 10
15.02707301464579
 20
3.781874367352429
  0
HATCH
  5
CD2
102
{ACAD_REACTORS
330
CCA
102
}
330
CCC
100
AcDbEntity
  8
W
 62
     2
370
    30
100
AcDbHatch
 10
0.0
 20
0.0
 30
0.0
210
0.0
220
0.0
230
1.0
  2
SOLID
 70
     1
 71
     0
 91
        3
 92
        1
 93
        1
 72
     4
 94
        3
 73
     0
 74
     0
 95
       23
 96
       19
 40
0.0
 40
0.0
 40
0.0
 40
0.0
 40
1.0
 40
1.0
 40
1.0
 40
2.0
 40
2.0
 40
2.0
 40
3.0
 40
3.0
 40
3.0
 40
4.0
 40
4.0
 40
4.0
 40
5.0
 40
5.0
 40
5.0
 40
6.0
 40
6.0
 40
6.0
 40
6.0
 10
13.84850584884719
 20
5.477550365616309
 10
13.88226778461106
 20
5.543007179852423
 10
13.94772459884717
 20
5.554375994956586
 10
14.04556531065273
 20
5.509934263185755
 10
14.19852755023606
 20
5.444477448949641
 10
14.34115450336108
 20
5.362828685928832
 10
14.47206813183328
 20
5.264298955026049
 10
14.5375249460694
 20
5.198842140789935
 10
14.54303709884718
 20
5.13338532655382
 10
14.48791557106941
 20
5.067239493220483
 10
14.44450736794439
 20
5.023831290095472
 10
14.37905055370828
 20
5.023831290095472
 10
14.29154512836106
 20
5.067239493220483
 10
14.1716558054444
 20
5.154055899470478
 10
14.04005315787495
 20
5.242250343914918
 10
13.89811522384718
 20
5.330444788359386
 10
13.84368271516663
 20
5.362828685928832
 10
13.82714625683329
 20
5.411404532282972
 10
13.84850584884719
 20
5.477550365616309
 97
        0
 92
        1
 93
        1
 72
     4
 94
        3
 73
     0
 74
     0
 95
       53
 96
       49
 40
0.0
 40
0.0
 40
0.0
 40
0.0
 40
1.0
 40
1.0
 40
1.0
 40
2.0
 40
2.0
 40
2.0
 40
3.0
 40
3.0
 40
3.0
 40
4.0
 40
4.0
 40
4.0
 40
5.0
 40
5.0
 40
5.0
 40
6.0
 40
6.0
 40
6.0
 40
7.0
 40
7.0
 40
7.0
 40
8.0
 40
8.0
 40
8.0
 40
9.0
 40
9.0
 40
9.0
 40
10.0
 40
10.0
 40
10.0
 40
11.0
 40
11.0
 40
11.0
 40
12.0
 40
12.0
 40
12.0
 40
13.0
 40
13.0
 40
13.0
 40
14.0
 40
14.0
 40
14.0
 40
15.0
 40
15.0
 40
15.0
 40
16.0
 40
16.0
 40
16.0
 40
16.0
 10
12.99687824468051
 20
4.002704988012141
 10
13.08438367002773
 20
4.002704988012141
 10
13.12779187315274
 20
3.964464428116315
 10
13.12779187315274
 20
3.88729428922744
 10
13.12779187315274
 20
3.811157678984386
 10
13.08438367002773
 20
3.772228099991309
 10
12.99687824468051
 20
3.772228099991309
 10
12.99687824468051
 20
3.772228099991309
 10
12.3574685224583
 20
3.772228099991309
 10
12.3574685224583
 20
3.772228099991309
 10
12.3574685224583
 20
3.772228099991309
 10
12.3574685224583
 20
2.543707049644098
 10
12.3574685224583
 20
2.543707049644098
 10
12.68475259363885
 20
2.576090947213543
 10
13.02374998947218
 20
2.624666793567712
 10
13.37308267176385
 20
2.691846155546869
 10
13.46058809711107
 20
2.691846155546869
 10
13.50950845301383
 20
2.653261086102418
 10
13.5205327585694
 20
2.576090947213543
 10
13.5205327585694
 20
2.510634132977429
 10
13.48263670822217
 20
2.467225929852418
 10
13.40615558843052
 20
2.445177318741315
 10
12.6744173071805
 20
2.302894875164923
 10
11.94750215961107
 20
2.220901602595489
 10
11.22678818391662
 20
2.199197501032983
 10
11.12894747211106
 20
2.199197501032983
 10
11.07864907801385
 20
2.243639232803815
 10
11.07864907801385
 20
2.329766619956586
 10
11.07864907801385
 20
2.417961064401026
 10
11.12894747211106
 20
2.461369267526038
 10
11.22678818391662
 20
2.461369267526038
 10
11.48861544086108
 20
2.472393573081603
 10
11.76697915613886
 20
2.489274540963549
 10
12.06256834884718
 20
2.510634132977429
 10
12.06256834884718
 20
2.510634132977429
 10
12.06256834884718
 20
3.772228099991309
 10
12.06256834884718
 20
3.772228099991309
 10
12.06256834884718
 20
3.772228099991309
 10
11.42315862662496
 20
3.772228099991309
 10
11.42315862662496
 20
3.772228099991309
 10
11.33565320127775
 20
3.772228099991309
 10
11.29224499815274
 20
3.811157678984386
 10
11.29224499815274
 20
3.88729428922744
 10
11.29224499815274
 20
3.964464428116315
 10
11.33565320127775
 20
4.002704988012141
 10
11.42315862662496
 20
4.002704988012141
 10
11.42315862662496
 20
4.002704988012141
 10
12.99687824468051
 20
4.002704988012141
 10
12.99687824468051
 20
4.002704988012141
 97
        0
 92
        1
 93
        1
 72
     4
 94
        3
 73
     0
 74
     0
 95
       68
 96
       64
 40
0.0
 40
0.0
 40
0.0
 40
0.0
 40
1.0
 40
1.0
 40
1.0
 40
2.0
 40
2.0
 40
2.0
 40
3.0
 40
3.0
 40
3.0
 40
4.0
 40
4.0
 40
4.0
 40
5.0
 40
5.0
 40
5.0
 40
6.0
 40
6.0
 40
6.0
 40
7.0
 40
7.0
 40
7.0
 40
8.0
 40
8.0
 40
8.0
 40
9.0
 40
9.0
 40
9.0
 40
10.0
 40
10.0
 40
10.0
 40
11.0
 40
11.0
 40
11.0
 40
12.0
 40
12.0
 40
12.0
 40
13.0
 40
13.0
 40
13.0
 40
14.0
 40
14.0
 40
14.0
 40
15.0
 40
15.0
 40
15.0
 40
16.0
 40
16.0
 40
16.0
 40
17.0
 40
17.0
 40
17.0
 40
18.0
 40
18.0
 40
18.0
 40
19.0
 40
19.0
 40
19.0
 40
20.0
 40
20.0
 40
20.0
 40
21.0
 40
21.0
 40
21.0
 40
21.0
 10
13.38961913009717
 20
5.641192401206609
 10
13.47712455544439
 20
5.641192401206609
 10
13.52673393044441
 20
5.592272045303815
 10
13.53706921690275
 20
5.493742314401032
 10
13.54878254155551
 20
5.308396177248255
 10
13.56462998079164
 20
5.106169072213532
 10
13.58736761099996
 20
4.887060999296863
 10
13.58736761099996
 20
4.887060999296863
 10
14.66843857454162
 20
4.887060999296863
 10
14.66843857454162
 20
4.887060999296863
 10
14.75525498079162
 20
4.887060999296863
 10
14.80004122211107
 20
4.84950945849826
 10
14.80004122211107
 20
4.772339319609386
 10
14.80004122211107
 20
4.696202709366332
 10
14.75525498079162
 20
4.657962149470478
 10
14.66843857454162
 20
4.657962149470478
 10
14.66843857454162
 20
4.657962149470478
 10
13.61975150856941
 20
4.657962149470478
 10
13.61975150856941
 20
4.657962149470478
 10
13.78304903461108
 20
3.69643599929688
 10
14.01249239398606
 20
2.969520851727423
 10
14.30739256759719
 20
2.47756121631076
 10
14.36320311447218
 20
2.369385218046886
 10
14.40592229849997
 20
2.369385218046886
 10
14.43968423426383
 20
2.47756121631076
 10
14.49411674294441
 20
2.718028881241309
 10
14.53132377419439
 20
2.964697718046863
 10
14.5526833662083
 20
3.215500669435755
 10
14.56439669086106
 20
3.280957483671869
 10
14.60229274120829
 20
3.314030400338538
 10
14.66843857454162
 20
3.314030400338538
 10
14.74560871343053
 20
3.314030400338538
 10
14.7828157446805
 20
3.269933178116332
 10
14.7828157446805
 20
3.183116771866309
 10
14.76145615266662
 20
2.680477340442706
 10
14.71184677766663
 20
2.324598976727429
 10
14.63536565787495
 20
2.117548738012146
 10
14.5375249460694
 20
1.899129684192701
 10
14.39627603113885
 20
1.893617531414918
 10
14.20886283669441
 20
2.100667770130201
 10
14.1006868384305
 20
2.231925908151026
 10
14.00698024120828
 20
2.379031485407978
 10
13.93118814051385
 20
2.543707049644098
 10
13.67969617002774
 20
3.078730378637146
 10
13.48263670822217
 20
3.783941424644098
 10
13.34069877419441
 20
4.657962149470478
 10
13.34069877419441
 20
4.657962149470478
 10
11.19371526724995
 20
4.657962149470478
 10
11.19371526724995
 20
4.657962149470478
 10
11.10689886099996
 20
4.657962149470478
 10
11.06280163877773
 20
4.696202709366332
 10
11.06280163877773
 20
4.772339319609386
 10
11.06280163877773
 20
4.84950945849826
 10
11.10689886099996
 20
4.887060999296863
 10
11.19371526724995
 20
4.887060999296863
 10
11.19371526724995
 20
4.887060999296863
 10
13.30762585752774
 20
4.887060999296863
 10
13.30762585752774
 20
4.887060999296863
 10
13.28626626551386
 20
5.095144766657995
 10
13.26972980718051
 20
5.292204228463532
 10
13.25870550162497
 20
5.477550365616309
 10
13.25870550162497
 20
5.586759892526032
 10
13.30280272384718
 20
5.641192401206609
 10
13.38961913009717
 20
5.641192401206609
 97
        0
 75
     0
 76
     1
 98
        1
 10
15.02707301464579
 20
3.781874367352429
  0
HATCH
  5
CD3
102
{ACAD_REACTORS
330
CCA
102
}
330
CCC
100
AcDbEntity
  8
W
 62
     2
370
    30
100
AcDbHatch
 10
0.0
 20
0.0
 30
0.0
210
0.0
220
0.0
230
1.0
  2
SOLID
 70
     1
 71
     0
 91
        3
 92
        1
 93
        1
 72
     4
 94
        3
 73
     0
 74
     0
 95
       23
 96
       19
 40
0.0
 40
0.0
 40
0.0
 40
0.0
 40
1.0
 40
1.0
 40
1.0
 40
2.0
 40
2.0
 40
2.0
 40
3.0
 40
3.0
 40
3.0
 40
4.0
 40
4.0
 40
4.0
 40
5.0
 40
5.0
 40
5.0
 40
6.0
 40
6.0
 40
6.0
 40
6.0
 10
18.22102103981939
 20
4.414049389053815
 10
18.30783744606941
 20
4.414049389053815
 10
18.35262368738884
 20
4.375808829157989
 10
18.35262368738884
 20
4.299327709366309
 10
18.35262368738884
 20
4.222846589574658
 10
18.30783744606941
 20
4.183917010581609
 10
18.22102103981939
 20
4.183917010581609
 10
18.22102103981939
 20
4.183917010581609
 10
16.00926973773607
 20
4.183917010581609
 10
16.00926973773607
 20
4.183917010581609
 10
15.92107529329163
 20
4.183917010581609
 10
15.87766709016662
 20
4.222846589574658
 10
15.87766709016662
 20
4.299327709366309
 10
15.87766709016662
 20
4.375808829157989
 10
15.92107529329163
 20
4.414049389053815
 10
16.00926973773607
 20
4.414049389053815
 10
16.00926973773607
 20
4.414049389053815
 10
18.22102103981939
 20
4.414049389053815
 10
18.22102103981939
 20
4.414049389053815
 97
        0
 92
        1
 93
        1
 72
     4
 94
        3
 73
     0
 74
     0
 95
       68
 96
       64
 40
0.0
 40
0.0
 40
0.0
 40
0.0
 40
1.0
 40
1.0
 40
1.0
 40
2.0
 40
2.0
 40
2.0
 40
3.0
 40
3.0
 40
3.0
 40
4.0
 40
4.0
 40
4.0
 40
5.0
 40
5.0
 40
5.0
 40
6.0
 40
6.0
 40
6.0
 40
7.0
 40
7.0
 40
7.0
 40
8.0
 40
8.0
 40
8.0
 40
9.0
 40
9.0
 40
9.0
 40
10.0
 40
10.0
 40
10.0
 40
11.0
 40
11.0
 40
11.0
 40
12.0
 40
12.0
 40
12.0
 40
13.0
 40
13.0
 40
13.0
 40
14.0
 40
14.0
 40
14.0
 40
15.0
 40
15.0
 40
15.0
 40
16.0
 40
16.0
 40
16.0
 40
17.0
 40
17.0
 40
17.0
 40
18.0
 40
18.0
 40
18.0
 40
19.0
 40
19.0
 40
19.0
 40
20.0
 40
20.0
 40
20.0
 40
21.0
 40
21.0
 40
21.0
 40
21.0
 10
18.77912650856939
 20
3.659917987144098
 10
18.86594291481941
 20
3.659917987144098
 10
18.9093511179444
 20
3.622021936796869
 10
18.9093511179444
 20
3.54622983610244
 10
18.9093511179444
 20
3.468026168567718
 10
18.86594291481941
 20
3.431163646866309
 10
18.77912650856939
 20
3.431163646866309
 10
18.77912650856939
 20
3.431163646866309
 10
16.76236761099997
 20
3.431163646866309
 10
16.76236761099997
 20
3.431163646866309
 10
16.6211186960694
 20
3.125239167699646
 10
16.34757811447218
 20
2.748001211970489
 10
15.94312390440274
 20
2.299794289227435
 10
17.09034070127774
 20
2.299794289227435
 10
17.89856010231941
 20
2.33217818679688
 10
18.36847112662496
 20
2.398324020130218
 10
18.23755749815274
 20
2.594694462838532
 10
18.06323566655553
 20
2.802433720651038
 10
17.84343857454163
 20
3.021541793567706
 10
17.78969508495828
 20
3.086309588706598
 10
17.78418293218052
 20
3.146598759713526
 10
17.82759113530551
 20
3.201720287491326
 10
17.85997503287496
 20
3.234793204157995
 10
17.91578557974995
 20
3.234793204157995
 10
17.99226669954163
 20
3.201720287491326
 10
18.42910480718052
 20
2.862722891657995
 10
18.74054143912497
 20
2.513045699817695
 10
18.92588757627774
 20
2.152688711970483
 10
18.96998479849995
 20
2.065183286623266
 10
18.95344834016663
 20
1.993869810060772
 10
18.87696722037495
 20
1.940126320477418
 10
18.78946179502773
 20
1.895684588706586
 10
18.71780380891661
 20
1.911876537491309
 10
18.66337130023606
 20
1.988357657282989
 10
18.6206521162083
 20
2.053814471519103
 10
18.57104274120828
 20
2.119615795303815
 10
18.51592121343051
 20
2.185072609539929
 10
17.88202364398606
 20
2.119615795303815
 10
16.87123262836107
 20
2.05898211474826
 10
15.48423718565274
 20
2.004894115616309
 10
15.37468314919439
 20
2.004894115616309
 10
15.32025064051385
 20
2.053814471519103
 10
15.32025064051385
 20
2.152688711970483
 10
15.32025064051385
 20
2.260864710234386
 10
15.37468314919439
 20
2.315986238012158
 10
15.48423718565274
 20
2.315986238012158
 10
15.48423718565274
 20
2.315986238012158
 10
15.63237629155551
 20
2.315986238012158
 10
15.63237629155551
 20
2.315986238012158
 10
16.00306856586107
 20
2.731809263185766
 10
16.26007268912497
 20
3.103190556588543
 10
16.40201062315273
 20
3.431163646866309
 10
16.40201062315273
 20
3.431163646866309
 10
15.4518532880833
 20
3.431163646866309
 10
15.4518532880833
 20
3.431163646866309
 10
15.36434786273608
 20
3.431163646866309
 10
15.32025064051385
 20
3.468026168567718
 10
15.32025064051385
 20
3.54622983610244
 10
15.32025064051385
 20
3.622021936796869
 10
15.36434786273608
 20
3.659917987144098
 10
15.4518532880833
 20
3.659917987144098
 10
15.4518532880833
 20
3.659917987144098
 10
18.77912650856939
 20
3.659917987144098
 10
18.77912650856939
 20
3.659917987144098
 97
        0
 92
        1
 93
        1
 72
     4
 94
        3
 73
     0
 74
     0
 95
       47
 96
       43
 40
0.0
 40
0.0
 40
0.0
 40
0.0
 40
1.0
 40
1.0
 40
1.0
 40
2.0
 40
2.0
 40
2.0
 40
3.0
 40
3.0
 40
3.0
 40
4.0
 40
4.0
 40
4.0
 40
5.0
 40
5.0
 40
5.0
 40
6.0
 40
6.0
 40
6.0
 40
7.0
 40
7.0
 40
7.0
 40
8.0
 40
8.0
 40
8.0
 40
9.0
 40
9.0
 40
9.0
 40
10.0
 40
10.0
 40
10.0
 40
11.0
 40
11.0
 40
11.0
 40
12.0
 40
12.0
 40
12.0
 40
13.0
 40
13.0
 40
13.0
 40
14.0
 40
14.0
 40
14.0
 40
14.0
 10
17.40177733322218
 20
5.544729727595495
 10
17.60848306238884
 20
5.359383590442718
 10
17.78969508495828
 20
5.222613299644109
 10
17.94334634363884
 20
5.135107874296863
 10
18.2485818037083
 20
4.949072718046863
 10
18.58206704676385
 20
4.791631854331598
 10
18.94311305370829
 20
4.660029206762146
 10
19.04095376551385
 20
4.605252188532972
 10
19.06851452940273
 20
4.533938711970478
 10
19.0237282880833
 20
4.447122305720483
 10
18.99134439051386
 20
4.380976472387146
 10
18.93139972905553
 20
4.359616880373266
 10
18.84389430370828
 20
4.380976472387146
 10
18.57104274120828
 20
4.468481897734363
 10
18.31403861794439
 20
4.583548086970495
 10
18.07425997211106
 20
4.726175040095483
 10
17.83310328808329
 20
4.867423955026026
 10
17.5602517255833
 20
5.065172435928815
 10
17.25294920822219
 20
5.315975387317706
 10
17.19920571863883
 20
5.359383590442718
 10
17.13374890440275
 20
5.353871437664935
 10
17.05726778461107
 20
5.29909441943576
 10
16.63145398252774
 20
4.895329228463538
 10
16.0850618384305
 20
4.567011628637146
 10
15.41878037141663
 20
4.315519658151032
 10
15.33127494606941
 20
4.294160066137152
 10
15.27684243738884
 20
4.315519658151032
 10
15.25479382627773
 20
4.380976472387146
 10
15.23343423426385
 20
4.447122305720483
 10
15.25410480718051
 20
4.495698152074652
 10
15.32025064051385
 20
4.529115578289918
 10
15.82323458148607
 20
4.736165817005201
 10
16.23802407801384
 20
4.971810348255218
 10
16.56599716829163
 20
5.233637605199646
 10
16.65350259363885
 20
5.310118724991326
 10
16.76236761099997
 20
5.403136303116326
 10
16.8939702585694
 20
5.511656810928826
 10
17.00283527593052
 20
5.621210847387146
 10
17.09585285405552
 20
5.675643356067695
 10
17.1730229929444
 20
5.675643356067695
 10
17.22745550162497
 20
5.675643356067695
 10
17.3032476023194
 20
5.632579662491309
 10
17.40177733322218
 20
5.544729727595495
 97
        0
 75
     0
 76
     1
 98
        1
 10
15.02707301464579
 20
3.781874367352429
  0
HATCH
  5
CD4
102
{ACAD_REACTORS
330
CCA
102
}
330
CCC
100
AcDbEntity
  8
W
 62
     2
370
    30
100
AcDbHatch
 10
0.0
 20
0.0
 30
0.0
210
0.0
220
0.0
230
1.0
  2
SOLID
 70
     1
 71
     0
 91
        2
 92
        1
 93
        1
 72
     4
 94
        3
 73
     0
 74
     0
 95
       68
 96
       64
 40
0.0
 40
0.0
 40
0.0
 40
0.0
 40
1.0
 40
1.0
 40
1.0
 40
2.0
 40
2.0
 40
2.0
 40
3.0
 40
3.0
 40
3.0
 40
4.0
 40
4.0
 40
4.0
 40
5.0
 40
5.0
 40
5.0
 40
6.0
 40
6.0
 40
6.0
 40
7.0
 40
7.0
 40
7.0
 40
8.0
 40
8.0
 40
8.0
 40
9.0
 40
9.0
 40
9.0
 40
10.0
 40
10.0
 40
10.0
 40
11.0
 40
11.0
 40
11.0
 40
12.0
 40
12.0
 40
12.0
 40
13.0
 40
13.0
 40
13.0
 40
14.0
 40
14.0
 40
14.0
 40
15.0
 40
15.0
 40
15.0
 40
16.0
 40
16.0
 40
16.0
 40
17.0
 40
17.0
 40
17.0
 40
18.0
 40
18.0
 40
18.0
 40
19.0
 40
19.0
 40
19.0
 40
20.0
 40
20.0
 40
20.0
 40
21.0
 40
21.0
 40
21.0
 40
21.0
 10
21.97479708148606
 20
5.446199996692712
 10
21.97479708148606
 20
5.554375994956586
 10
22.02165038009718
 20
5.610186541831609
 10
22.12155814919441
 20
5.610186541831609
 10
22.21939886099995
 20
5.610186541831609
 10
22.26900823599996
 20
5.554375994956586
 10
22.26900823599996
 20
5.446199996692712
 10
22.26900823599996
 20
5.446199996692712
 10
22.26900823599996
 20
4.806101255373249
 10
22.26900823599996
 20
4.806101255373249
 10
22.26900823599996
 20
4.806101255373249
 10
22.99041123079164
 20
4.806101255373249
 10
22.99041123079164
 20
4.806101255373249
 10
23.07791665613885
 20
4.806101255373249
 10
23.12132485926384
 20
4.768549714574646
 10
23.12132485926384
 20
4.692068594782995
 10
23.12132485926384
 20
4.614898455894092
 10
23.07791665613885
 20
4.576657895998266
 10
22.99041123079164
 20
4.576657895998266
 10
22.99041123079164
 20
4.576657895998266
 10
22.26900823599996
 20
4.576657895998266
 10
22.26900823599996
 20
4.576657895998266
 10
22.26900823599996
 20
4.576657895998266
 10
22.26900823599996
 20
2.266721372560766
 10
22.26900823599996
 20
2.266721372560766
 10
22.26900823599996
 20
2.266721372560766
 10
23.07240450336107
 20
2.266721372560766
 10
23.07240450336107
 20
2.266721372560766
 10
23.15922090961107
 20
2.266721372560766
 10
23.2033181318333
 20
2.228136303116315
 10
23.2033181318333
 20
2.15096616422744
 10
23.2033181318333
 20
2.07448504443576
 10
23.15922090961107
 20
2.036244484539935
 10
23.07240450336107
 20
2.036244484539935
 10
23.07240450336107
 20
2.036244484539935
 10
21.00672524988886
 20
2.036244484539935
 10
21.00672524988886
 20
2.036244484539935
 10
20.91990884363884
 20
2.036244484539935
 10
20.87650064051385
 20
2.07448504443576
 10
20.87650064051385
 20
2.15096616422744
 10
20.87650064051385
 20
2.228136303116315
 10
20.91990884363884
 20
2.266721372560766
 10
21.00672524988886
 20
2.266721372560766
 10
21.00672524988886
 20
2.266721372560766
 10
21.97479708148606
 20
2.266721372560766
 10
21.97479708148606
 20
2.266721372560766
 10
21.97479708148606
 20
2.266721372560766
 10
21.97479708148606
 20
4.576657895998266
 10
21.97479708148606
 20
4.576657895998266
 10
21.97479708148606
 20
4.576657895998266
 10
21.36777125683329
 20
4.576657895998266
 10
21.36777125683329
 20
4.576657895998266
 10
21.28026583148608
 20
4.576657895998266
 10
21.23685762836107
 20
4.614898455894092
 10
21.23685762836107
 20
4.692068594782995
 10
21.23685762836107
 20
4.768549714574646
 10
21.28026583148608
 20
4.806101255373249
 10
21.36777125683329
 20
4.806101255373249
 10
21.36777125683329
 20
4.806101255373249
 10
21.97479708148606
 20
4.806101255373249
 10
21.97479708148606
 20
4.806101255373249
 10
21.97479708148606
 20
4.806101255373249
 10
21.97479708148606
 20
5.446199996692712
 10
21.97479708148606
 20
5.446199996692712
 97
        0
 92
        1
 93
        1
 72
     4
 94
        3
 73
     0
 74
     0
 95
       83
 96
       79
 40
0.0
 40
0.0
 40
0.0
 40
0.0
 40
1.0
 40
1.0
 40
1.0
 40
2.0
 40
2.0
 40
2.0
 40
3.0
 40
3.0
 40
3.0
 40
4.0
 40
4.0
 40
4.0
 40
5.0
 40
5.0
 40
5.0
 40
6.0
 40
6.0
 40
6.0
 40
7.0
 40
7.0
 40
7.0
 40
8.0
 40
8.0
 40
8.0
 40
9.0
 40
9.0
 40
9.0
 40
10.0
 40
10.0
 40
10.0
 40
11.0
 40
11.0
 40
11.0
 40
12.0
 40
12.0
 40
12.0
 40
13.0
 40
13.0
 40
13.0
 40
14.0
 40
14.0
 40
14.0
 40
15.0
 40
15.0
 40
15.0
 40
16.0
 40
16.0
 40
16.0
 40
17.0
 40
17.0
 40
17.0
 40
18.0
 40
18.0
 40
18.0
 40
19.0
 40
19.0
 40
19.0
 40
20.0
 40
20.0
 40
20.0
 40
21.0
 40
21.0
 40
21.0
 40
22.0
 40
22.0
 40
22.0
 40
23.0
 40
23.0
 40
23.0
 40
24.0
 40
24.0
 40
24.0
 40
25.0
 40
25.0
 40
25.0
 40
26.0
 40
26.0
 40
26.0
 40
26.0
 10
20.18748154329163
 20
5.527159740616326
 10
20.18748154329163
 20
5.614665165963543
 10
20.22606661273607
 20
5.658073369088526
 10
20.3018587134305
 20
5.658073369088526
 10
20.37833983322219
 20
5.658073369088526
 10
20.41692490266663
 20
5.614665165963543
 10
20.41692490266663
 20
5.527159740616326
 10
20.41692490266663
 20
5.527159740616326
 10
20.41692490266663
 20
5.035889124296886
 10
20.41692490266663
 20
5.035889124296886
 10
20.41692490266663
 20
5.035889124296886
 10
20.82689126551384
 20
5.035889124296886
 10
20.82689126551384
 20
5.035889124296886
 10
20.96882919954163
 20
5.035889124296886
 10
21.05082247211107
 20
4.986968768394092
 10
21.07287108322219
 20
4.888783547039935
 10
21.08389538877773
 20
4.789220287491332
 10
21.06184677766663
 20
4.692068594782995
 10
21.00672524988886
 20
4.593538863880212
 10
20.86478731586106
 20
4.319998282282995
 10
20.66910589224995
 20
4.069195330894103
 10
20.41692490266663
 20
3.840096481067718
 10
20.41692490266663
 20
3.840096481067718
 10
20.41692490266663
 20
3.807023564401049
 10
20.41692490266663
 20
3.807023564401049
 10
20.73456270648606
 20
3.654061324817718
 10
20.97434135231941
 20
3.506266728463543
 10
21.13832789745828
 20
3.363984284887152
 10
21.2037847116944
 20
3.298527470651038
 10
21.21480901724996
 20
3.227558503637141
 10
21.17140081412495
 20
3.151421893394086
 10
21.10594399988884
 20
3.096300365616315
 10
21.02946288009718
 20
3.096300365616315
 10
20.94126843565275
 20
3.151421893394086
 10
20.81035480718051
 20
3.271311216310749
 10
20.63534395648608
 20
3.396712692005195
 10
20.41692490266663
 20
3.528315339574646
 10
20.41692490266663
 20
3.528315339574646
 10
20.41692490266663
 20
2.020052535755212
 10
20.41692490266663
 20
2.020052535755212
 10
20.41692490266663
 20
1.933236129505218
 10
20.37833983322219
 20
1.88844988818576
 10
20.3018587134305
 20
1.88844988818576
 10
20.22606661273607
 20
1.88844988818576
 10
20.18748154329163
 20
1.933236129505218
 10
20.18748154329163
 20
2.020052535755212
 10
20.18748154329163
 20
2.020052535755212
 10
20.18748154329163
 20
3.643037019262152
 10
20.18748154329163
 20
3.643037019262152
 10
19.97939777593052
 20
3.478361455026032
 10
19.78853948599996
 20
3.347792336102429
 10
19.61421765440275
 20
3.249262605199646
 10
19.52602320995828
 20
3.205854402074663
 10
19.46125541481939
 20
3.216878707630201
 10
19.41715819259718
 20
3.282335521866315
 10
19.38477429502774
 20
3.358472132109369
 10
19.41233505891662
 20
3.418416793567701
 10
19.49915146516662
 20
3.461824996692712
 10
20.12202472905551
 20
3.845264124296875
 10
20.53750324468052
 20
4.249029315269098
 10
20.7448979929444
 20
4.675187626901049
 10
20.77728189051385
 20
4.762693052248266
 10
20.74972112662496
 20
4.806101255373249
 10
20.66359373947219
 20
4.806101255373249
 10
20.66359373947219
 20
4.806101255373249
 10
19.5976811960694
 20
4.806101255373249
 10
19.5976811960694
 20
4.806101255373249
 10
19.51017577072218
 20
4.806101255373249
 10
19.46676756759717
 20
4.844341815269103
 10
19.46676756759717
 20
4.920133915963532
 10
19.46676756759717
 20
4.997304054852435
 10
19.51017577072218
 20
5.035889124296886
 10
19.5976811960694
 20
5.035889124296886
 10
19.5976811960694
 20
5.035889124296886
 10
20.18748154329163
 20
5.035889124296886
 10
20.18748154329163
 20
5.035889124296886
 10
20.18748154329163
 20
5.035889124296886
 10
20.18748154329163
 20
5.527159740616326
 10
20.18748154329163
 20
5.527159740616326
 97
        0
 75
     0
 76
     1
 98
        1
 10
15.02707301464579
 20
3.781874367352429
  0
SPLINE
  5
CD5
102
{ACAD_REACTORS
330
CCA
102
}
330
CCC
100
AcDbEntity
  8
W
 62
     2
370
    30
100
AcDbSpline
210
0.0
220
0.0
230
1.0
 70
    11
 71
     3
 72
    53
 73
    49
 74
     0
 42
0.0000000001
 43
0.0000000001
 40
0.0
 40
0.0
 40
0.0
 40
0.0
 40
1.0
 40
1.0
 40
1.0
 40
2.0
 40
2.0
 40
2.0
 40
3.0
 40
3.0
 40
3.0
 40
4.0
 40
4.0
 40
4.0
 40
5.0
 40
5.0
 40
5.0
 40
6.0
 40
6.0
 40
6.0
 40
7.0
 40
7.0
 40
7.0
 40
8.0
 40
8.0
 40
8.0
 40
9.0
 40
9.0
 40
9.0
 40
10.0
 40
10.0
 40
10.0
 40
11.0
 40
11.0
 40
11.0
 40
12.0
 40
12.0
 40
12.0
 40
13.0
 40
13.0
 40
13.0
 40
14.0
 40
14.0
 40
14.0
 40
15.0
 40
15.0
 40
15.0
 40
16.0
 40
16.0
 40
16.0
 40
16.0
 10
42.58855100128525
 20
12.96946895369316
 30
0.0
 10
42.5677081735943
 20
12.92171993025567
 30
0.0
 10
41.28075830380263
 20
10.05147307695706
 30
0.0
 10
41.22997759633733
 20
9.946122056991782
 30
0.0
 10
41.21557709720542
 20
9.917321058727893
 30
0.0
 10
41.18450233592068
 20
9.897615112547327
 30
0.0
 10
41.14281668053871
 20
9.897615112547327
 30
0.0
 10
40.80933143748313
 20
9.897615112547327
 30
0.0
 10
39.34578597307342
 20
9.897615112547327
 30
0.0
 10
38.20322005510468
 20
9.897615112547327
 30
0.0
 10
37.18495318227482
 20
9.897615112547327
 30
0.0
 10
36.91740706682344
 20
10.6085450170612
 30
0.0
 10
37.12735118574708
 20
11.07239267331121
 30
0.0
 10
37.35245372480958
 20
11.566557169839
 30
0.0
 10
37.93794770267417
 20
12.85578080265148
 30
0.0
 10
37.99896034373319
 20
12.98614321584595
 30
0.0
 10
38.0137398033686
 20
13.02176550317234
 30
0.0
 10
38.05049897220536
 20
13.03692392331122
 30
0.0
 10
38.08384749651094
 20
13.03692392331122
 30
0.0
 10
38.21307302819497
 20
13.03692392331122
 30
0.0
 10
39.25483545224011
 20
13.03692392331122
 30
0.0
 10
39.40641965362903
 20
13.03692392331122
 30
0.0
 10
39.45568451908039
 20
13.03692392331122
 30
0.0
 10
39.47993799130262
 20
13.00281747799872
 30
0.0
 10
39.46629541317765
 20
12.96946895369316
 30
0.0
 10
39.44583154599011
 20
12.91565656220011
 30
0.0
 10
38.72770139191027
 20
11.34751799883207
 30
0.0
 10
38.57081174347275
 20
10.99963225664456
 30
0.0
 10
38.38625797828178
 20
10.59414451792929
 30
0.0
 10
38.53253673262205
 20
10.25459590681816
 30
0.0
 10
39.04375445180611
 20
10.25459590681816
 30
0.0
 10
39.40414589060817
 20
10.25459590681816
 30
0.0
 10
39.70807221439293
 20
10.25459590681816
 30
0.0
 10
39.82327620744843
 20
10.25459590681816
 30
0.0
 10
39.86913042836861
 20
10.25459590681816
 30
0.0
 10
39.89755246612901
 20
10.27505977400565
 30
0.0
 10
39.91498464928876
 20
10.30613453529038
 30
0.0
 10
39.95060693661514
 20
10.36676821584592
 30
0.0
 10
41.09052013105954
 20
12.92020408824177
 30
0.0
 10
41.11894216881998
 20
12.98311153181817
 30
0.0
 10
41.13789019399357
 20
13.02555510820704
 30
0.0
 10
41.17540728383736
 20
13.03692392331122
 30
0.0
 10
41.20648204512204
 20
13.03692392331122
 30
0.0
 10
41.27848454078182
 20
13.03692392331122
 30
0.0
 10
42.530570044254
 20
13.03692392331122
 30
0.0
 10
42.530570044254
 20
13.03692392331122
 30
0.0
 10
42.58059283071233
 20
13.03692392331122
 30
0.0
 10
42.59916189538247
 20
12.99220658390147
 30
0.0
 10
42.58855100128525
 20
12.96946895369316
 30
0.0
  0
SPLINE
  5
CD6
102
{ACAD_REACTORS
330
CCA
102
}
330
CCC
100
AcDbEntity
  8
W
 62
     2
370
    30
100
AcDbSpline
210
0.0
220
0.0
230
1.0
 70
    11
 71
     3
 72
    53
 73
    49
 74
     0
 42
0.0000000001
 43
0.0000000001
 40
0.0
 40
0.0
 40
0.0
 40
0.0
 40
1.0
 40
1.0
 40
1.0
 40
2.0
 40
2.0
 40
2.0
 40
3.0
 40
3.0
 40
3.0
 40
4.0
 40
4.0
 40
4.0
 40
5.0
 40
5.0
 40
5.0
 40
6.0
 40
6.0
 40
6.0
 40
7.0
 40
7.0
 40
7.0
 40
8.0
 40
8.0
 40
8.0
 40
9.0
 40
9.0
 40
9.0
 40
10.0
 40
10.0
 40
10.0
 40
11.0
 40
11.0
 40
11.0
 40
12.0
 40
12.0
 40
12.0
 40
13.0
 40
13.0
 40
13.0
 40
14.0
 40
14.0
 40
14.0
 40
15.0
 40
15.0
 40
15.0
 40
16.0
 40
16.0
 40
16.0
 40
16.0
 10
35.96924788713597
 20
13.02782887122787
 30
0.0
 10
34.63833859894152
 20
13.02782887122787
 30
0.0
 10
33.12931787411514
 20
13.02782887122787
 30
0.0
 10
32.99592377689291
 20
13.02782887122787
 30
0.0
 10
32.95575396352487
 20
13.02782887122787
 30
0.0
 10
32.92240543921932
 20
13.00812292504733
 30
0.0
 10
32.90762597958386
 20
12.97553232174871
 30
0.0
 10
32.86707720571232
 20
12.88837140595009
 30
0.0
 10
31.59414887454915
 20
10.06056812904037
 30
0.0
 10
31.55814762671932
 20
9.977196818276496
 30
0.0
 10
31.54602089060816
 20
9.949911662026494
 30
0.0
 10
31.56383203427135
 20
9.906710164630652
 30
0.0
 10
31.61650754425401
 20
9.906710164630652
 30
0.0
 10
31.92649723609426
 20
9.906710164630652
 30
0.0
 10
32.65485932376791
 20
9.906710164630652
 30
0.0
 10
32.94059554338597
 20
9.906710164630652
 30
0.0
 10
32.96750173913248
 20
9.906710164630652
 30
0.0
 10
33.00729259199707
 20
9.918078979734843
 30
0.0
 10
33.02624061717069
 20
9.96052255612372
 30
0.0
 10
33.21117334286512
 20
10.3728315839015
 30
0.0
 10
34.20329194095538
 20
12.5814133981376
 30
0.0
 10
34.22072412411515
 20
12.61779360647094
 30
0.0
 10
34.23815630727484
 20
12.65417381480427
 30
0.0
 10
34.25786225345539
 20
12.6700901559501
 30
0.0
 10
34.29272661977487
 20
12.6700901559501
 30
0.0
 10
34.3579078263721
 20
12.6700901559501
 30
0.0
 10
34.75430051300398
 20
12.6700901559501
 30
0.0
 10
35.21208480119847
 20
12.6700901559501
 30
0.0
 10
35.67555349694499
 20
12.6700901559501
 30
0.0
 10
35.72140771786511
 20
12.3153831247001
 30
0.0
 10
35.55390717533041
 20
11.92353796410984
 30
0.0
 10
35.35987939755262
 20
11.46878535994315
 30
0.0
 10
34.72625743574705
 20
10.07724239119315
 30
0.0
 10
34.68305593835121
 20
9.980986423311222
 30
0.0
 10
34.66486583418458
 20
9.941574530950106
 30
0.0
 10
34.70351980553869
 20
9.906710164630652
 30
0.0
 10
34.7368683298443
 20
9.906710164630652
 30
0.0
 10
34.92710650258735
 20
9.906710164630652
 30
0.0
 10
35.8911820234207
 20
9.906710164630652
 30
0.0
 10
36.06436697350748
 20
9.906710164630652
 30
0.0
 10
36.1011261423443
 20
9.906710164630652
 30
0.0
 10
36.13485362715329
 20
9.925658189804266
 30
0.0
 10
36.14849620527835
 20
9.95673295108898
 30
0.0
 10
36.1769182430387
 20
10.01812455265151
 30
0.0
 10
36.78249712758733
 20
11.36495018199177
 30
0.0
 10
36.98031451039986
 20
11.80909189206122
 30
0.0
 10
37.2921990047575
 20
12.51016882348485
 30
0.0
 10
36.69912581682345
 20
13.02782887122787
 30
0.0
 10
35.96924788713597
 20
13.02782887122787
 30
0.0
  0
SPLINE
  5
CD7
102
{ACAD_REACTORS
330
CCA
102
}
330
CCC
100
AcDbEntity
  8
W
 62
     2
370
    30
100
AcDbSpline
210
0.0
220
0.0
230
1.0
 70
    11
 71
     3
 72
    53
 73
    49
 74
     0
 42
0.0000000001
 43
0.0000000001
 40
0.0
 40
0.0
 40
0.0
 40
0.0
 40
1.0
 40
1.0
 40
1.0
 40
2.0
 40
2.0
 40
2.0
 40
3.0
 40
3.0
 40
3.0
 40
4.0
 40
4.0
 40
4.0
 40
5.0
 40
5.0
 40
5.0
 40
6.0
 40
6.0
 40
6.0
 40
7.0
 40
7.0
 40
7.0
 40
8.0
 40
8.0
 40
8.0
 40
9.0
 40
9.0
 40
9.0
 40
10.0
 40
10.0
 40
10.0
 40
11.0
 40
11.0
 40
11.0
 40
12.0
 40
12.0
 40
12.0
 40
13.0
 40
13.0
 40
13.0
 40
14.0
 40
14.0
 40
14.0
 40
15.0
 40
15.0
 40
15.0
 40
16.0
 40
16.0
 40
16.0
 40
16.0
 10
47.15388818661511
 20
12.97704816376262
 30
0.0
 10
47.16677284373318
 20
13.00963876706123
 30
0.0
 10
47.15237234460118
 20
13.04753481740843
 30
0.0
 10
47.09931787411514
 20
13.04753481740843
 30
0.0
 10
47.01367280033042
 20
13.04753481740843
 30
0.0
 10
44.96122271352485
 20
13.04753481740843
 30
0.0
 10
43.92741846005259
 20
13.04753481740843
 30
0.0
 10
43.06566227515676
 20
13.04753481740843
 30
0.0
 10
42.40020763105954
 20
12.22064299883206
 30
0.0
 10
43.23316281769149
 20
11.60142153615844
 30
0.0
 10
43.85617388539981
 20
11.13833180091539
 30
0.0
 10
44.37459185414986
 20
10.74193911428344
 30
0.0
 10
44.50647010935816
 20
10.63658809431818
 30
0.0
 10
44.66335975779566
 20
10.51001528615842
 30
0.0
 10
44.59817855119843
 20
10.24474293372789
 30
0.0
 10
44.28439925432349
 20
10.24474293372789
 30
0.0
 10
43.38777870310815
 20
10.24474293372789
 30
0.0
 10
41.96137136803876
 20
10.24246917070705
 30
0.0
 10
41.93484413279565
 20
10.24398501272094
 30
0.0
 10
41.90831689755262
 20
10.24474293372789
 30
0.0
 10
41.86966292619842
 20
10.23640580265149
 30
0.0
 10
41.84919905901094
 20
10.19775183129732
 30
0.0
 10
41.83366167836857
 20
10.16743499101955
 30
0.0
 10
41.74839556508731
 20
9.991597317408434
 30
0.0
 10
41.73247922394151
 20
9.96052255612372
 30
0.0
 10
41.71883664581653
 20
9.934753241887591
 30
0.0
 10
41.73702674998316
 20
9.887004218450087
 30
0.0
 10
41.78932329946232
 20
9.887004218450087
 30
0.0
 10
42.22967540449704
 20
9.887004218450087
 30
0.0
 10
43.93802935414984
 20
9.887004218450087
 30
0.0
 10
44.97334944963592
 20
9.887004218450087
 30
0.0
 10
45.85102197567763
 20
9.887004218450087
 30
0.0
 10
46.4391686770665
 20
10.69646385386679
 30
0.0
 10
45.73884966664985
 20
11.23004024275566
 30
0.0
 10
45.30152924564288
 20
11.56276756480426
 30
0.0
 10
44.58680973609429
 20
12.10619692678344
 30
0.0
 10
44.27985172828178
 20
12.34342620195704
 30
0.0
 10
44.10249821265679
 20
12.48136782522093
 30
0.0
 10
44.19875418053874
 20
12.69131194414453
 30
0.0
 10
44.44128890276092
 20
12.69131194414453
 30
0.0
 10
45.05596283939289
 20
12.69131194414453
 30
0.0
 10
46.92954356855955
 20
12.68979610213065
 30
0.0
 10
46.96819753991374
 20
12.69055402313759
 30
0.0
 10
47.00609359026097
 20
12.69131194414453
 30
0.0
 10
47.03944211456652
 20
12.71025996931817
 30
0.0
 10
47.05308469269147
 20
12.73830304657511
 30
0.0
 10
47.0667272708165
 20
12.767104044839
 30
0.0
 10
47.14100352949708
 20
12.944457560464
 30
0.0
 10
47.15388818661511
 20
12.97704816376262
 30
0.0
  0
SPLINE
  5
CD8
102
{ACAD_REACTORS
330
CCA
102
}
330
CCC
100
AcDbEntity
  8
W
 62
     2
370
    30
100
AcDbSpline
210
0.0
220
0.0
230
1.0
 70
     8
 71
     3
 72
    11
 73
     7
 74
     0
 42
0.0000000001
 43
0.0000000001
 40
0.0
 40
0.0
 40
0.0
 40
0.0
 40
1.0
 40
1.0
 40
1.0
 40
2.0
 40
2.0
 40
2.0
 40
2.0
 10
30.39473888105957
 20
13.04753481740843
 30
0.0
 10
29.38821978383737
 20
13.04753481740843
 30
0.0
 10
28.07474267880264
 20
13.04753481740843
 30
0.0
 10
27.97318126387208
 20
13.04753481740843
 30
0.0
 10
27.94362234460124
 20
13.04753481740843
 30
0.0
 10
27.9019366892193
 20
13.03313431827649
 30
0.0
 10
27.87995698001791
 20
12.98614321584595
 30
0.0
  0
SPLINE
  5
CD9
102
{ACAD_REACTORS
330
CCA
102
}
330
CCC
100
AcDbEntity
  8
W
 62
     2
370
    30
100
AcDbSpline
210
0.0
220
0.0
230
1.0
 70
     8
 71
     3
 72
     8
 73
     4
 74
     0
 42
0.0000000001
 43
0.0000000001
 40
2.0
 40
2.0
 40
2.0
 40
2.0
 40
3.0
 40
3.0
 40
3.0
 40
3.0
 10
27.87995698001791
 20
12.98614321584595
 30
0.0
 10
27.85911415232693
 20
12.94218379744316
 30
0.0
 10
25.71533458418457
 20
8.448470147269574
 30
0.0
 10
25.70548161109432
 20
8.424216675047318
 30
0.0
  0
SPLINE
  5
CDA
102
{ACAD_REACTORS
330
CCA
102
}
330
CCC
100
AcDbEntity
  8
W
 62
     2
370
    30
100
AcDbSpline
210
0.0
220
0.0
230
1.0
 70
     8
 71
     3
 72
    17
 73
    13
 74
     0
 42
0.0000000001
 43
0.0000000001
 40
3.0
 40
3.0
 40
3.0
 40
3.0
 40
4.0
 40
4.0
 40
4.0
 40
5.0
 40
5.0
 40
5.0
 40
6.0
 40
6.0
 40
6.0
 40
7.0
 40
7.0
 40
7.0
 40
7.0
 10
25.70548161109432
 20
8.424216675047318
 30
0.0
 10
25.69070215145885
 20
8.393899834769541
 30
0.0
 10
25.71381874217067
 20
8.350698337373728
 30
0.0
 10
25.75702023956651
 20
8.350698337373728
 30
0.0
 10
25.79946381595542
 20
8.350698337373728
 30
0.0
 10
27.05230724043455
 20
8.349940416366791
 30
0.0
 10
27.08489784373319
 20
8.349940416366791
 30
0.0
 10
27.12355181508733
 20
8.349940416366791
 30
0.0
 10
27.15386865536513
 20
8.368130520533441
 30
0.0
 10
27.16978499651097
 20
8.397689439804281
 30
0.0
 10
27.18570133765681
 20
8.427248359075093
 30
0.0
 10
29.14871674564293
 20
12.54882279483902
 30
0.0
 10
29.19078136152834
 20
12.64128915768623
 30
0.0
  0
SPLINE
  5
CDB
102
{ACAD_REACTORS
330
CCA
102
}
330
CCC
100
AcDbEntity
  8
W
 62
     2
370
    30
100
AcDbSpline
210
0.0
220
0.0
230
1.0
 70
     8
 71
     3
 72
    14
 73
    10
 74
     0
 42
0.0000000001
 43
0.0000000001
 40
7.0
 40
7.0
 40
7.0
 40
7.0
 40
8.0
 40
8.0
 40
8.0
 40
9.0
 40
9.0
 40
9.0
 40
10.0
 40
10.0
 40
10.0
 40
10.0
 10
29.19078136152834
 20
12.64128915768623
 30
0.0
 10
29.20328705814291
 20
12.67084807695704
 30
0.0
 10
29.22375092533039
 20
12.68979610213065
 30
0.0
 10
29.2646786597054
 20
12.68979610213065
 30
0.0
 10
29.54662527428872
 20
12.68979610213065
 30
0.0
 10
29.7012411597054
 20
12.69055402313759
 30
0.0
 10
29.9468075659554
 20
12.69055402313759
 30
0.0
 10
30.49251069095542
 20
12.69055402313759
 30
0.0
 10
30.6808540611811
 20
12.37450096324179
 30
0.0
 10
30.52206961022623
 20
11.87882062470011
 30
0.0
  0
SPLINE
  5
CDC
102
{ACAD_REACTORS
330
CCA
102
}
330
CCC
100
AcDbEntity
  8
W
 62
     2
370
    30
100
AcDbSpline
210
0.0
220
0.0
230
1.0
 70
     8
 71
     3
 72
     8
 73
     4
 74
     0
 42
0.0000000001
 43
0.0000000001
 40
10.0
 40
10.0
 40
10.0
 40
10.0
 40
11.0
 40
11.0
 40
11.0
 40
11.0
 10
30.52206961022623
 20
11.87882062470011
 30
0.0
 10
30.39625472307347
 20
11.48773338511678
 30
0.0
 10
30.16584673696238
 20
11.04586543806817
 30
0.0
 10
29.7944654435596
 20
10.71541187904037
 30
0.0
  0
SPLINE
  5
CDD
102
{ACAD_REACTORS
330
CCA
102
}
330
CCC
100
AcDbEntity
  8
W
 62
     2
370
    30
100
AcDbSpline
210
0.0
220
0.0
230
1.0
 70
     8
 71
     3
 72
     8
 73
     4
 74
     0
 42
0.0000000001
 43
0.0000000001
 40
11.0
 40
11.0
 40
11.0
 40
11.0
 40
12.0
 40
12.0
 40
12.0
 40
12.0
 10
29.7944654435596
 20
10.71541187904037
 30
0.0
 10
29.33137570831653
 20
10.30310285126259
 30
0.0
 10
28.90390826039985
 20
10.16970875404038
 30
0.0
 10
28.50107324520889
 20
10.18789885820706
 30
0.0
  0
SPLINE
  5
CDE
102
{ACAD_REACTORS
330
CCA
102
}
330
CCC
100
AcDbEntity
  8
W
 62
     2
370
    30
100
AcDbSpline
210
0.0
220
0.0
230
1.0
 70
     8
 71
     3
 72
     8
 73
     4
 74
     0
 42
0.0000000001
 43
0.0000000001
 40
12.0
 40
12.0
 40
12.0
 40
12.0
 40
13.0
 40
13.0
 40
13.0
 40
13.0
 10
28.50107324520889
 20
10.18789885820706
 30
0.0
 10
28.39079573869847
 20
10.19320430525567
 30
0.0
 10
28.36047889842067
 20
10.04995723494318
 30
0.0
 10
28.51054725779568
 20
9.99235523841537
 30
0.0
  0
SPLINE
  5
CDF
102
{ACAD_REACTORS
330
CCA
102
}
330
CCC
100
AcDbEntity
  8
W
 62
     2
370
    30
100
AcDbSpline
210
0.0
220
0.0
230
1.0
 70
     8
 71
     3
 72
     8
 73
     4
 74
     0
 42
0.0000000001
 43
0.0000000001
 40
13.0
 40
13.0
 40
13.0
 40
13.0
 40
14.0
 40
14.0
 40
14.0
 40
14.0
 10
28.51054725779568
 20
9.99235523841537
 30
0.0
 10
28.80537852949709
 20
9.878667087373713
 30
0.0
 10
29.90777463409779
 20
9.883972534422355
 30
0.0
 10
30.68161198218806
 20
10.31371374535983
 30
0.0
  0
SPLINE
  5
CE0
102
{ACAD_REACTORS
330
CCA
102
}
330
CCC
100
AcDbEntity
  8
W
 62
     2
370
    30
100
AcDbSpline
210
0.0
220
0.0
230
1.0
 70
     8
 71
     3
 72
     8
 73
     4
 74
     0
 42
0.0000000001
 43
0.0000000001
 40
14.0
 40
14.0
 40
14.0
 40
14.0
 40
15.0
 40
15.0
 40
15.0
 40
15.0
 10
30.68161198218806
 20
10.31371374535983
 30
0.0
 10
31.24057872480956
 20
10.62597720022094
 30
0.0
 10
31.58353798045195
 20
10.98295799449177
 30
0.0
 10
31.81432492706651
 20
11.54609330265151
 30
0.0
  0
SPLINE
  5
CE1
102
{ACAD_REACTORS
330
CCA
102
}
330
CCC
100
AcDbEntity
  8
W
 62
     2
370
    30
100
AcDbSpline
210
0.0
220
0.0
230
1.0
 70
     8
 71
     3
 72
     8
 73
     4
 74
     0
 42
0.0000000001
 43
0.0000000001
 40
15.0
 40
15.0
 40
15.0
 40
15.0
 40
16.0
 40
16.0
 40
16.0
 40
16.0
 10
31.81432492706651
 20
11.54609330265151
 30
0.0
 10
32.24103445397626
 20
12.58747676619315
 30
0.0
 10
31.29325423479222
 20
13.04753481740843
 30
0.0
 10
30.39473888105957
 20
13.04753481740843
 30
0.0
  0
SPLINE
  5
CE2
102
{ACAD_REACTORS
330
CCA
102
}
330
CCC
100
AcDbEntity
  8
W
 62
     2
370
    30
100
AcDbSpline
210
0.0
220
0.0
230
1.0
 70
     8
 71
     3
 72
     8
 73
     4
 74
     0
 42
0.0000000001
 43
0.0000000001
 40
0.0
 40
0.0
 40
0.0
 40
0.0
 40
1.0
 40
1.0
 40
1.0
 40
1.0
 10
24.84675711022624
 20
13.23701506914455
 30
0.0
 10
24.69289914581648
 20
13.22488833303345
 30
0.0
 10
24.65386621395888
 20
13.10968433997789
 30
0.0
 10
24.78612342967068
 20
13.06648284258205
 30
0.0
  0
SPLINE
  5
CE3
102
{ACAD_REACTORS
330
CCA
102
}
330
CCC
100
AcDbEntity
  8
W
 62
     2
370
    30
100
AcDbSpline
210
0.0
220
0.0
230
1.0
 70
     8
 71
     3
 72
     8
 73
     4
 74
     0
 42
0.0000000001
 43
0.0000000001
 40
1.0
 40
1.0
 40
1.0
 40
1.0
 40
2.0
 40
2.0
 40
2.0
 40
2.0
 10
24.78612342967068
 20
13.06648284258205
 30
0.0
 10
25.35077457984428
 20
12.87927635386678
 30
0.0
 10
25.60088851213598
 20
12.35858462209594
 30
0.0
 10
25.24618148088598
 20
11.61354827226955
 30
0.0
  0
SPLINE
  5
CE4
102
{ACAD_REACTORS
330
CCA
102
}
330
CCC
100
AcDbEntity
  8
W
 62
     2
370
    30
100
AcDbSpline
210
0.0
220
0.0
230
1.0
 70
     8
 71
     3
 72
     8
 73
     4
 74
     0
 42
0.0000000001
 43
0.0000000001
 40
2.0
 40
2.0
 40
2.0
 40
2.0
 40
3.0
 40
3.0
 40
3.0
 40
3.0
 10
25.24618148088598
 20
11.61354827226955
 30
0.0
 10
24.85585216230953
 20
10.79499358476954
 30
0.0
 10
23.81408973826442
 20
10.16819291202648
 30
0.0
 10
22.71927284373319
 20
10.19472014726956
 30
0.0
  0
SPLINE
  5
CE5
102
{ACAD_REACTORS
330
CCA
102
}
330
CCC
100
AcDbEntity
  8
W
 62
     2
370
    30
100
AcDbSpline
210
0.0
220
0.0
230
1.0
 70
     8
 71
     3
 72
     8
 73
     4
 74
     0
 42
0.0000000001
 43
0.0000000001
 40
3.0
 40
3.0
 40
3.0
 40
3.0
 40
4.0
 40
4.0
 40
4.0
 40
4.0
 10
22.71927284373319
 20
10.19472014726956
 30
0.0
 10
21.93861420658041
 20
10.21291025143622
 30
0.0
 10
21.27846500953177
 20
10.78210892765149
 30
0.0
 10
21.44255490753526
 20
11.53548240855427
 30
0.0
  0
SPLINE
  5
CE6
102
{ACAD_REACTORS
330
CCA
102
}
330
CCC
100
AcDbEntity
  8
W
 62
     2
370
    30
100
AcDbSpline
210
0.0
220
0.0
230
1.0
 70
     8
 71
     3
 72
     8
 73
     4
 74
     0
 42
0.0000000001
 43
0.0000000001
 40
4.0
 40
4.0
 40
4.0
 40
4.0
 40
5.0
 40
5.0
 40
5.0
 40
5.0
 10
21.44255490753526
 20
11.53548240855427
 30
0.0
 10
21.57329628123321
 20
12.13878753008205
 30
0.0
 10
22.06973454078181
 20
12.54351734779038
 30
0.0
 10
22.38124007463597
 20
12.74285057261679
 30
0.0
  0
SPLINE
  5
CE7
102
{ACAD_REACTORS
330
CCA
102
}
330
CCC
100
AcDbEntity
  8
W
 62
     2
370
    30
100
AcDbSpline
210
0.0
220
0.0
230
1.0
 70
     8
 71
     3
 72
     8
 73
     4
 74
     0
 42
0.0000000001
 43
0.0000000001
 40
5.0
 40
5.0
 40
5.0
 40
5.0
 40
6.0
 40
6.0
 40
6.0
 40
6.0
 10
22.38124007463597
 20
12.74285057261679
 30
0.0
 10
23.05427392880261
 20
13.17259178355428
 30
0.0
 10
23.9796954782818
 20
13.38026213945704
 30
0.0
 10
24.54889415449708
 20
13.42497947886679
 30
0.0
  0
SPLINE
  5
CE8
102
{ACAD_REACTORS
330
CCA
102
}
330
CCC
100
AcDbEntity
  8
W
 62
     2
370
    30
100
AcDbSpline
210
0.0
220
0.0
230
1.0
 70
     8
 71
     3
 72
     8
 73
     4
 74
     0
 42
0.0000000001
 43
0.0000000001
 40
6.0
 40
6.0
 40
6.0
 40
6.0
 40
7.0
 40
7.0
 40
7.0
 40
7.0
 10
24.54889415449708
 20
13.42497947886679
 30
0.0
 10
24.84675711022624
 20
13.449232951089
 30
0.0
 10
25.01046804772625
 20
13.56746862817235
 30
0.0
 10
25.10482921309086
 20
13.75922264292927
 30
0.0
  0
SPLINE
  5
CE9
102
{ACAD_REACTORS
330
CCA
102
}
330
CCC
100
AcDbEntity
  8
W
 62
     2
370
    30
100
AcDbSpline
210
0.0
220
0.0
230
1.0
 70
     8
 71
     3
 72
     8
 73
     4
 74
     0
 42
0.0000000001
 43
0.0000000001
 40
7.0
 40
7.0
 40
7.0
 40
7.0
 40
8.0
 40
8.0
 40
8.0
 40
8.0
 10
25.10482921309086
 20
13.75922264292927
 30
0.0
 10
25.20146414147624
 20
13.95552418372787
 30
0.0
 10
25.28369857072971
 20
14.1230247262626
 30
0.0
 10
25.40723969486166
 20
14.40724510386678
 30
0.0
  0
SPLINE
  5
CEA
102
{ACAD_REACTORS
330
CCA
102
}
330
CCC
100
AcDbEntity
  8
W
 62
     2
370
    30
100
AcDbSpline
210
0.0
220
0.0
230
1.0
 70
     8
 71
     3
 72
     8
 73
     4
 74
     0
 42
0.0000000001
 43
0.0000000001
 40
8.0
 40
8.0
 40
8.0
 40
8.0
 40
9.0
 40
9.0
 40
9.0
 40
9.0
 10
25.40723969486166
 20
14.40724510386678
 30
0.0
 10
25.44475678470542
 20
14.49971146671399
 30
0.0
 10
25.39473399824709
 20
14.56034514726957
 30
0.0
 10
25.27725624217069
 20
14.56034514726957
 30
0.0
  0
SPLINE
  5
CEB
102
{ACAD_REACTORS
330
CCA
102
}
330
CCC
100
AcDbEntity
  8
W
 62
     2
370
    30
100
AcDbSpline
210
0.0
220
0.0
230
1.0
 70
     8
 71
     3
 72
     8
 73
     4
 74
     0
 42
0.0000000001
 43
0.0000000001
 40
9.0
 40
9.0
 40
9.0
 40
9.0
 40
10.0
 40
10.0
 40
10.0
 40
10.0
 10
25.27725624217069
 20
14.56034514726957
 30
0.0
 10
22.7465579999832
 20
14.55655554223486
 30
0.0
 10
20.5061435034554
 20
13.44013789900565
 30
0.0
 10
20.28710433244842
 20
11.89776864987374
 30
0.0
  0
SPLINE
  5
CEC
102
{ACAD_REACTORS
330
CCA
102
}
330
CCC
100
AcDbEntity
  8
W
 62
     2
370
    30
100
AcDbSpline
210
0.0
220
0.0
230
1.0
 70
     8
 71
     3
 72
     8
 73
     4
 74
     0
 42
0.0000000001
 43
0.0000000001
 40
10.0
 40
10.0
 40
10.0
 40
10.0
 40
11.0
 40
11.0
 40
11.0
 40
11.0
 10
20.28710433244842
 20
11.89776864987374
 30
0.0
 10
20.14613102515682
 20
10.90110252574177
 30
0.0
 10
21.0670050485943
 20
9.96052255612372
 30
0.0
 10
22.84508773088592
 20
9.850624010116774
 30
0.0
  0
SPLINE
  5
CED
102
{ACAD_REACTORS
330
CCA
102
}
330
CCC
100
AcDbEntity
  8
W
 62
     2
370
    30
100
AcDbSpline
210
0.0
220
0.0
230
1.0
 70
     8
 71
     3
 72
     8
 73
     4
 74
     0
 42
0.0000000001
 43
0.0000000001
 40
11.0
 40
11.0
 40
11.0
 40
11.0
 40
12.0
 40
12.0
 40
12.0
 40
12.0
 10
22.84508773088592
 20
9.850624010116774
 30
0.0
 10
25.15712576256999
 20
9.70661901879734
 30
0.0
 10
26.65401975128523
 20
10.72526485213066
 30
0.0
 10
26.8541108971186
 20
11.92581172713068
 30
0.0
  0
SPLINE
  5
CEE
102
{ACAD_REACTORS
330
CCA
102
}
330
CCC
100
AcDbEntity
  8
W
 62
     2
370
    30
100
AcDbSpline
210
0.0
220
0.0
230
1.0
 70
     8
 71
     3
 72
     8
 73
     4
 74
     0
 42
0.0000000001
 43
0.0000000001
 40
12.0
 40
12.0
 40
12.0
 40
12.0
 40
13.0
 40
13.0
 40
13.0
 40
13.0
 10
26.8541108971186
 20
11.92581172713068
 30
0.0
 10
26.96855696916723
 20
12.60869855438761
 30
0.0
 10
26.14734955814291
 20
13.34463985213065
 30
0.0
 10
24.84675711022624
 20
13.23701506914455
 30
0.0
  0
SPLINE
  5
CEF
102
{ACAD_REACTORS
330
CCA
102
}
330
CCC
100
AcDbEntity
  8
W
 62
     2
370
    30
100
AcDbSpline
210
0.0
220
0.0
230
1.0
 70
     8
 71
     3
 72
     8
 73
     4
 74
     0
 42
0.0000000001
 43
0.0000000001
 40
0.0
 40
0.0
 40
0.0
 40
0.0
 40
1.0
 40
1.0
 40
1.0
 40
1.0
 10
16.62786171092071
 20
13.65311370195707
 30
0.0
 10
16.23525862932345
 20
13.93960784258206
 30
0.0
 10
15.56866710371582
 20
13.93430239553345
 30
0.0
 10
15.2196444800179
 20
14.12378264726953
 30
0.0
  0
SPLINE
  5
CF0
102
{ACAD_REACTORS
330
CCA
102
}
330
CCC
100
AcDbEntity
  8
W
 62
     2
370
    30
100
AcDbSpline
210
0.0
220
0.0
230
1.0
 70
     8
 71
     3
 72
     8
 73
     4
 74
     0
 42
0.0000000001
 43
0.0000000001
 40
1.0
 40
1.0
 40
1.0
 40
1.0
 40
2.0
 40
2.0
 40
2.0
 40
2.0
 10
15.2196444800179
 20
14.12378264726953
 30
0.0
 10
14.92405528730955
 20
14.28521982174874
 30
0.0
 10
14.7842188615283
 20
14.50198522973483
 30
0.0
 10
14.74291216664986
 20
14.717992716714
 30
0.0
  0
SPLINE
  5
CF1
102
{ACAD_REACTORS
330
CCA
102
}
330
CCC
100
AcDbEntity
  8
W
 62
     2
370
    30
100
AcDbSpline
210
0.0
220
0.0
230
1.0
 70
     8
 71
     3
 72
     8
 73
     4
 74
     0
 42
0.0000000001
 43
0.0000000001
 40
2.0
 40
2.0
 40
2.0
 40
2.0
 40
3.0
 40
3.0
 40
3.0
 40
3.0
 10
14.74291216664986
 20
14.717992716714
 30
0.0
 10
14.68834185414988
 20
15.01130814640149
 30
0.0
 10
14.68682601213598
 20
15.37586815074178
 30
0.0
 10
14.25177935414984
 20
15.67827863251261
 30
0.0
  0
SPLINE
  5
CF2
102
{ACAD_REACTORS
330
CCA
102
}
330
CCC
100
AcDbEntity
  8
W
 62
     2
370
    30
100
AcDbSpline
210
0.0
220
0.0
230
1.0
 70
     8
 71
     3
 72
     8
 73
     4
 74
     0
 42
0.0000000001
 43
0.0000000001
 40
3.0
 40
3.0
 40
3.0
 40
3.0
 40
4.0
 40
4.0
 40
4.0
 40
4.0
 10
14.25177935414984
 20
15.67827863251261
 30
0.0
 10
13.81824853817761
 20
15.97917327226955
 30
0.0
 10
13.15127805206651
 20
16.03753318980426
 30
0.0
 10
12.57677392880265
 20
16.00797427053345
 30
0.0
  0
SPLINE
  5
CF3
102
{ACAD_REACTORS
330
CCA
102
}
330
CCC
100
AcDbEntity
  8
W
 62
     2
370
    30
100
AcDbSpline
210
0.0
220
0.0
230
1.0
 70
     8
 71
     3
 72
     8
 73
     4
 74
     0
 42
0.0000000001
 43
0.0000000001
 40
4.0
 40
4.0
 40
4.0
 40
4.0
 40
5.0
 40
5.0
 40
5.0
 40
5.0
 10
12.57677392880265
 20
16.00797427053345
 30
0.0
 10
9.282091311615118
 20
15.83819996497789
 30
0.0
 10
6.721076229149844
 20
14.00478904917929
 30
0.0
 10
6.012420087656806
 20
12.18274694848482
 30
0.0
  0
SPLINE
  5
CF4
102
{ACAD_REACTORS
330
CCA
102
}
330
CCC
100
AcDbEntity
  8
W
 62
     2
370
    30
100
AcDbSpline
210
0.0
220
0.0
230
1.0
 70
     8
 71
     3
 72
     8
 73
     4
 74
     0
 42
0.0000000001
 43
0.0000000001
 40
5.0
 40
5.0
 40
5.0
 40
5.0
 40
6.0
 40
6.0
 40
6.0
 40
6.0
 10
6.012420087656806
 20
12.18274694848482
 30
0.0
 10
5.468611765174188
 20
10.78210892765149
 30
0.0
 10
6.244722876285294
 20
9.536844713241777
 30
0.0
 10
8.051227596337355
 20
8.999478719318176
 30
0.0
  0
SPLINE
  5
CF5
102
{ACAD_REACTORS
330
CCA
102
}
330
CCC
100
AcDbEntity
  8
W
 62
     2
370
    30
100
AcDbSpline
210
0.0
220
0.0
230
1.0
 70
     8
 71
     3
 72
    11
 73
     7
 74
     0
 42
0.0000000001
 43
0.0000000001
 40
6.0
 40
6.0
 40
6.0
 40
6.0
 40
7.0
 40
7.0
 40
7.0
 40
8.0
 40
8.0
 40
8.0
 40
8.0
 10
8.051227596337355
 20
8.999478719318176
 30
0.0
 10
8.120198407969297
 20
8.980530694144562
 30
0.0
 10
8.149757327240138
 20
9.022216349526502
 30
0.0
 10
8.160368221337364
 20
9.051017347790391
 30
0.0
 10
8.17097911543459
 20
9.079818346054281
 30
0.0
 10
8.176663522986672
 20
9.126051527477898
 30
0.0
 10
8.109587513872071
 20
9.161673814804288
 30
0.0
  0
SPLINE
  5
CF6
102
{ACAD_REACTORS
330
CCA
102
}
330
CCC
100
AcDbEntity
  8
W
 62
     2
370
    30
100
AcDbSpline
210
0.0
220
0.0
230
1.0
 70
     8
 71
     3
 72
     8
 73
     4
 74
     0
 42
0.0000000001
 43
0.0000000001
 40
8.0
 40
8.0
 40
8.0
 40
8.0
 40
9.0
 40
9.0
 40
9.0
 40
9.0
 10
8.109587513872071
 20
9.161673814804288
 30
0.0
 10
6.923441138004022
 20
9.79605369761677
 30
0.0
 10
6.823395565087338
 20
11.03222285994316
 30
0.0
 10
7.577148006493615
 20
12.06754295542927
 30
0.0
  0
SPLINE
  5
CF7
102
{ACAD_REACTORS
330
CCA
102
}
330
CCC
100
AcDbEntity
  8
W
 62
     2
370
    30
100
AcDbSpline
210
0.0
220
0.0
230
1.0
 70
     8
 71
     3
 72
     8
 73
     4
 74
     0
 42
0.0000000001
 43
0.0000000001
 40
9.0
 40
9.0
 40
9.0
 40
9.0
 40
10.0
 40
10.0
 40
10.0
 40
10.0
 10
7.577148006493615
 20
12.06754295542927
 30
0.0
 10
8.612847062483211
 20
13.49091860647094
 30
0.0
 10
10.76799544572972
 20
14.45954165334592
 30
0.0
 10
12.64422889842066
 20
14.19047969588064
 30
0.0
  0
SPLINE
  5
CF8
102
{ACAD_REACTORS
330
CCA
102
}
330
CCC
100
AcDbEntity
  8
W
 62
     2
370
    30
100
AcDbSpline
210
0.0
220
0.0
230
1.0
 70
     8
 71
     3
 72
     8
 73
     4
 74
     0
 42
0.0000000001
 43
0.0000000001
 40
10.0
 40
10.0
 40
10.0
 40
10.0
 40
11.0
 40
11.0
 40
11.0
 40
11.0
 10
12.64422889842066
 20
14.19047969588064
 30
0.0
 10
14.29573877255262
 20
13.95325042070703
 30
0.0
 10
15.25337196482692
 20
12.35176333303343
 30
0.0
 10
14.15135482072972
 20
10.72678069414455
 30
0.0
  0
SPLINE
  5
CF9
102
{ACAD_REACTORS
330
CCA
102
}
330
CCC
100
AcDbEntity
  8
W
 62
     2
370
    30
100
AcDbSpline
210
0.0
220
0.0
230
1.0
 70
     8
 71
     3
 72
     8
 73
     4
 74
     0
 42
0.0000000001
 43
0.0000000001
 40
11.0
 40
11.0
 40
11.0
 40
11.0
 40
12.0
 40
12.0
 40
12.0
 40
12.0
 10
14.15135482072972
 20
10.72678069414455
 30
0.0
 10
13.6833385989415
 20
10.03783049883205
 30
0.0
 10
12.88903738366375
 20
9.442862508380684
 30
0.0
 10
12.14551687585126
 20
9.106345581297318
 30
0.0
  0
SPLINE
  5
CFA
102
{ACAD_REACTORS
330
CCA
102
}
330
CCC
100
AcDbEntity
  8
W
 62
     2
370
    30
100
AcDbSpline
210
0.0
220
0.0
230
1.0
 70
     8
 71
     3
 72
     8
 73
     4
 74
     0
 42
0.0000000001
 43
0.0000000001
 40
12.0
 40
12.0
 40
12.0
 40
12.0
 40
13.0
 40
13.0
 40
13.0
 40
13.0
 10
12.14551687585126
 20
9.106345581297318
 30
0.0
 10
12.09663097090333
 20
9.084365872095943
 30
0.0
 10
12.08639903730957
 20
9.027521796575115
 30
0.0
 10
12.10534706248319
 20
8.988109904214013
 30
0.0
  0
SPLINE
  5
CFB
102
{ACAD_REACTORS
330
CCA
102
}
330
CCC
100
AcDbEntity
  8
W
 62
     2
370
    30
100
AcDbSpline
210
0.0
220
0.0
230
1.0
 70
     8
 71
     3
 72
     8
 73
     4
 74
     0
 42
0.0000000001
 43
0.0000000001
 40
13.0
 40
13.0
 40
13.0
 40
13.0
 40
14.0
 40
14.0
 40
14.0
 40
14.0
 10
12.10534706248319
 20
8.988109904214013
 30
0.0
 10
12.1216423641325
 20
8.955519300915398
 30
0.0
 10
12.15764361196235
 20
8.935813354734818
 30
0.0
 10
12.20273991187557
 20
8.941876722790382
 30
0.0
  0
SPLINE
  5
CFC
102
{ACAD_REACTORS
330
CCA
102
}
330
CCC
100
AcDbEntity
  8
W
 62
     2
370
    30
100
AcDbSpline
210
0.0
220
0.0
230
1.0
 70
     8
 71
     3
 72
     8
 73
     4
 74
     0
 42
0.0000000001
 43
0.0000000001
 40
14.0
 40
14.0
 40
14.0
 40
14.0
 40
15.0
 40
15.0
 40
15.0
 40
15.0
 10
12.20273991187557
 20
8.941876722790382
 30
0.0
 10
12.26147878991375
 20
8.95021385386677
 30
0.0
 10
12.28762706465332
 20
8.955519300915398
 30
0.0
 10
12.44679047611166
 20
8.992657430255675
 30
0.0
  0
SPLINE
  5
CFD
102
{ACAD_REACTORS
330
CCA
102
}
330
CCC
100
AcDbEntity
  8
W
 62
     2
370
    30
100
AcDbSpline
210
0.0
220
0.0
230
1.0
 70
     8
 71
     3
 72
     8
 73
     4
 74
     0
 42
0.0000000001
 43
0.0000000001
 40
15.0
 40
15.0
 40
15.0
 40
15.0
 40
16.0
 40
16.0
 40
16.0
 40
16.0
 10
12.44679047611166
 20
8.992657430255675
 30
0.0
 10
14.47460813019154
 20
9.466358059595933
 30
0.0
 10
16.32583018965332
 20
10.69115840681816
 30
0.0
 10
16.88479693227487
 20
12.19790536862372
 30
0.0
  0
SPLINE
  5
CFE
102
{ACAD_REACTORS
330
CCA
102
}
330
CCC
100
AcDbEntity
  8
W
 62
     2
370
    30
100
AcDbSpline
210
0.0
220
0.0
230
1.0
 70
     8
 71
     3
 72
     8
 73
     4
 74
     0
 42
0.0000000001
 43
0.0000000001
 40
16.0
 40
16.0
 40
16.0
 40
16.0
 40
17.0
 40
17.0
 40
17.0
 40
17.0
 10
16.88479693227487
 20
12.19790536862372
 30
0.0
 10
17.1735648359207
 20
12.97325855872789
 30
0.0
 10
16.93140907420192
 20
13.42952700490846
 30
0.0
 10
16.62786171092071
 20
13.65311370195707
 30
0.0
  0
SPLINE
  5
CFF
102
{ACAD_REACTORS
330
CCA
102
}
330
CCC
100
AcDbEntity
  8
W
 62
     2
370
    30
100
AcDbSpline
210
0.0
220
0.0
230
1.0
 70
    24
 71
     3
 72
     8
 73
     4
 74
     0
 42
0.0000000001
 43
0.0000000001
 40
0.0
 40
0.0
 40
0.0
 40
0.0
 40
1.0
 40
1.0
 40
1.0
 40
1.0
 10
9.932387535573468
 20
9.264751071748733
 30
0.0
 10
9.932387535573468
 20
9.264751071748733
 30
0.0
 10
9.932387535573468
 20
12.65265797279038
 30
0.0
 10
9.932387535573468
 20
12.65265797279038
 30
0.0
  0
SPLINE
  5
D00
102
{ACAD_REACTORS
330
CCA
102
}
330
CCC
100
AcDbEntity
  8
W
 62
     2
370
    30
100
AcDbSpline
210
0.0
220
0.0
230
1.0
 70
     8
 71
     3
 72
    11
 73
     7
 74
     0
 42
0.0000000001
 43
0.0000000001
 40
1.0
 40
1.0
 40
1.0
 40
1.0
 40
2.0
 40
2.0
 40
2.0
 40
3.0
 40
3.0
 40
3.0
 40
3.0
 10
9.932387535573468
 20
12.65265797279038
 30
0.0
 10
9.932387535573468
 20
13.15743336341539
 30
0.0
 10
10.34014903730957
 20
13.56671070716538
 30
0.0
 10
10.86121972958386
 20
13.56671070716538
 30
0.0
 10
11.38304834286515
 20
13.56671070716538
 30
0.0
 10
11.77640934546932
 20
13.15743336341539
 30
0.0
 10
11.77640934546932
 20
12.65265797279038
 30
0.0
  0
SPLINE
  5
D01
102
{ACAD_REACTORS
330
CCA
102
}
330
CCC
100
AcDbEntity
  8
W
 62
     2
370
    30
100
AcDbSpline
210
0.0
220
0.0
230
1.0
 70
    24
 71
     3
 72
     8
 73
     4
 74
     0
 42
0.0000000001
 43
0.0000000001
 40
3.0
 40
3.0
 40
3.0
 40
3.0
 40
4.0
 40
4.0
 40
4.0
 40
4.0
 10
11.77640934546932
 20
12.65265797279038
 30
0.0
 10
11.77640934546932
 20
12.65265797279038
 30
0.0
 10
11.77640934546932
 20
9.264751071748733
 30
0.0
 10
11.77640934546932
 20
9.264751071748733
 30
0.0
  0
SPLINE
  5
D02
102
{ACAD_REACTORS
330
CCA
102
}
330
CCC
100
AcDbEntity
  8
W
 62
     2
370
    30
100
AcDbSpline
210
0.0
220
0.0
230
1.0
 70
     8
 71
     3
 72
    11
 73
     7
 74
     0
 42
0.0000000001
 43
0.0000000001
 40
4.0
 40
4.0
 40
4.0
 40
4.0
 40
5.0
 40
5.0
 40
5.0
 40
6.0
 40
6.0
 40
6.0
 40
6.0
 10
11.77640934546932
 20
9.264751071748733
 30
0.0
 10
11.77640934546932
 20
8.759975681123734
 30
0.0
 10
11.37433225128527
 20
8.349940416366791
 30
0.0
 10
10.86121972958386
 20
8.349940416366791
 30
0.0
 10
10.34810720788249
 20
8.349940416366791
 30
0.0
 10
9.932387535573468
 20
8.759975681123734
 30
0.0
 10
9.932387535573468
 20
9.264751071748733
 30
0.0
  0
ENDBLK
  5
D04
330
CCC
100
AcDbEntity
  8
0
100
AcDbBlockEnd
  0
BLOCK
  5
D22
330
D18
100
AcDbEntity
  8
0
100
AcDbBlockBegin
  2
*D25
 70
     1
 10
0.0
 20
0.0
 30
0.0
  3
*D25
  1

  0
LINE
  5
E19
330
D18
100
AcDbEntity
  8
0
 62
     6
370
    15
100
AcDbLine
 10
-418.5926571869713
 20
-178.1130173743153
 30
0.0
 11
-451.0
 21
-178.1130173743153
 31
0.0
  0
LINE
  5
E1A
330
D18
100
AcDbEntity
  8
0
 62
     6
370
    15
100
AcDbLine
 10
-418.5926571869713
 20
-163.1130173743153
 30
0.0
 11
-451.0
 21
-163.1130173743153
 31
0.0
  0
LINE
  5
E1B
330
D18
100
AcDbEntity
  8
0
 62
     6
370
    15
100
AcDbLine
 10
-450.0
 20
-175.1130173743153
 30
0.0
 11
-450.0
 21
-166.1130173743153
 31
0.0
  0
SOLID
  5
E1C
330
D18
100
AcDbEntity
  8
0
 62
     6
100
AcDbTrace
 10
-450.4999999999999
 20
-175.1130173743153
 30
0.0
 11
-449.5
 21
-175.1130173743153
 31
0.0
 12
-450.0
 22
-178.1130173743153
 32
0.0
 13
-450.0
 23
-178.1130173743153
 33
0.0
  0
SOLID
  5
E1D
330
D18
100
AcDbEntity
  8
0
 62
     6
100
AcDbTrace
 10
-450.4999999999999
 20
-166.1130173743153
 30
0.0
 11
-449.5
 21
-166.1130173743153
 31
0.0
 12
-450.0
 22
-163.1130173743153
 32
0.0
 13
-450.0
 23
-163.1130173743153
 33
0.0
  0
MTEXT
  5
E1E
330
D18
100
AcDbEntity
  8
0
 62
     2
100
AcDbMText
 10
-452.4517045454545
 20
-170.6130173743154
 30
0.0
 40
3.0
 41
0.0
 71
     5
 72
     1
  1
\A1;φ15
  7
OPNUS
 11
0.0000000000000001
 21
1.0
 31
0.0
 73
     1
 44
1.0
1001
ACAD
1000
MTEXTBEGIN
1070
    73
1070
     1
1070
    44
1040
1.0
1070
    74
1070
     0
1000
MTEXTEND
  0
POINT
  5
E1F
330
D18
100
AcDbEntity
  8
Defpoints
 62
     0
100
AcDbPoint
 10
-417.5926571869713
 20
-178.1130173743153
 30
0.0
  0
POINT
  5
E20
330
D18
100
AcDbEntity
  8
Defpoints
 62
     0
100
AcDbPoint
 10
-417.5926571869713
 20
-163.1130173743153
 30
0.0
  0
POINT
  5
E21
330
D18
100
AcDbEntity
  8
Defpoints
 62
     0
100
AcDbPoint
 10
-450.0
 20
-163.1130173743153
 30
0.0
  0
ENDBLK
  5
D23
330
D18
100
AcDbEntity
  8
0
100
AcDbBlockEnd
  0
BLOCK
  5
D2E
330
D24
100
AcDbEntity
  8
0
100
AcDbBlockBegin
  2
*D26
 70
     1
 10
0.0
 20
0.0
 30
0.0
  3
*D26
  1

  0
LINE
  5
E22
330
D24
100
AcDbEntity
  8
0
 62
     6
370
    15
100
AcDbLine
 10
-418.5926571869713
 20
-153.1130173743153
 30
0.0
 11
-457.0
 21
-153.1130173743153
 31
0.0
  0
LINE
  5
E23
330
D24
100
AcDbEntity
  8
0
 62
     6
370
    15
100
AcDbLine
 10
-418.5926571869713
 20
-188.1130173743153
 30
0.0
 11
-457.0
 21
-188.1130173743153
 31
0.0
  0
LINE
  5
E24
330
D24
100
AcDbEntity
  8
0
 62
     6
370
    15
100
AcDbLine
 10
-456.0
 20
-156.1130173743153
 30
0.0
 11
-456.0
 21
-185.1130173743153
 31
0.0
  0
SOLID
  5
E25
330
D24
100
AcDbEntity
  8
0
 62
     6
100
AcDbTrace
 10
-456.5
 20
-156.1130173743153
 30
0.0
 11
-455.4999999999999
 21
-156.1130173743153
 31
0.0
 12
-456.0
 22
-153.1130173743153
 32
0.0
 13
-456.0
 23
-153.1130173743153
 33
0.0
  0
SOLID
  5
E26
330
D24
100
AcDbEntity
  8
0
 62
     6
100
AcDbTrace
 10
-456.5
 20
-185.1130173743153
 30
0.0
 11
-455.4999999999999
 21
-185.1130173743153
 31
0.0
 12
-456.0
 22
-188.1130173743153
 32
0.0
 13
-456.0
 23
-188.1130173743153
 33
0.0
  0
MTEXT
  5
E27
330
D24
100
AcDbEntity
  8
0
 62
     2
100
AcDbMText
 10
-458.4517045454544
 20
-170.6130173743154
 30
0.0
 40
3.0
 41
0.0
 71
     5
 72
     1
  1
\A1;φ35
  7
OPNUS
 11
0.0000000000000001
 21
1.0
 31
0.0
 73
     1
 44
1.0
1001
ACAD
1000
MTEXTBEGIN
1070
    73
1070
     1
1070
    44
1040
1.0
1070
    74
1070
     0
1000
MTEXTEND
  0
POINT
  5
E28
330
D24
100
AcDbEntity
  8
Defpoints
 62
     0
100
AcDbPoint
 10
-417.5926571869713
 20
-153.1130173743153
 30
0.0
  0
POINT
  5
E29
330
D24
100
AcDbEntity
  8
Defpoints
 62
     0
100
AcDbPoint
 10
-417.5926571869713
 20
-188.1130173743153
 30
0.0
  0
POINT
  5
E2A
330
D24
100
AcDbEntity
  8
Defpoints
 62
     0
100
AcDbPoint
 10
-456.0
 20
-188.1130173743153
 30
0.0
  0
ENDBLK
  5
D2F
330
D24
100
AcDbEntity
  8
0
100
AcDbBlockEnd
  0
BLOCK
  5
D37
330
D30
100
AcDbEntity
  8
0
100
AcDbBlockBegin
  2
*D27
 70
     1
 10
0.0
 20
0.0
 30
0.0
  3
*D27
  1

  0
LINE
  5
E2B
330
D30
100
AcDbEntity
  8
0
 62
     6
370
    15
100
AcDbLine
 10
-384.5961322740338
 20
-163.8890452782475
 30
0.0
 11
-392.2940554275815
 21
-166.9343755064036
 31
0.0
  0
MTEXT
  5
E2C
330
D30
100
AcDbEntity
  8
0
 62
     2
100
AcDbMText
 10
-387.7860029295821
 20
-163.0001550523928
 30
0.0
 40
3.0
 41
0.0
 71
     5
 72
     1
  1
\A1;R7
  7
OPNUS
 11
0.929879529872605
 21
0.3678641867916786
 31
0.0
 73
     1
 44
1.0
1001
ACAD
1000
MTEXTBEGIN
1070
    73
1070
     1
1070
    44
1040
1.0
1070
    74
1070
     0
1000
MTEXTEND
  0
LINE
  5
E2D
330
D30
100
AcDbEntity
  8
0
 62
     6
370
    15
100
AcDbLine
 10
-401.5928507263071
 20
-170.6130173743202
 30
0.0
 11
-395.0836940171993
 21
-168.0379680667787
 31
0.0
  0
SOLID
  5
E2E
330
D30
100
AcDbEntity
  8
0
 62
     6
100
AcDbTrace
 10
-392.4779875209774
 20
-166.4694357414673
 30
0.0
 11
-392.1101233341857
 21
-167.3993152713399
 31
0.0
 12
-395.0836940171993
 22
-168.0379680667787
 32
0.0
 13
-395.0836940171993
 23
-168.0379680667787
 33
0.0
  0
POINT
  5
E2F
330
D30
100
AcDbEntity
  8
Defpoints
 62
     0
100
AcDbPoint
 10
-395.0836940171993
 20
-168.0379680667787
 30
0.0
  0
POINT
  5
E30
330
D30
100
AcDbEntity
  8
Defpoints
 62
     0
100
AcDbPoint
 10
-401.5928507263071
 20
-170.6130173743202
 30
0.0
  0
ENDBLK
  5
D38
330
D30
100
AcDbEntity
  8
0
100
AcDbBlockEnd
  0
BLOCK
  5
D43
330
D39
100
AcDbEntity
  8
0
100
AcDbBlockBegin
  2
*D28
 70
     1
 10
0.0
 20
0.0
 30
0.0
  3
*D28
  1

  0
LINE
  5
E31
330
D39
100
AcDbEntity
  8
0
 62
     6
370
    15
100
AcDbLine
 10
-354.0786126429842
 20
-187.7305171353377
 30
0.0
 11
-379.0288773288881
 21
-187.7305171353377
 31
0.0
  0
LINE
  5
E32
330
D39
100
AcDbEntity
  8
0
 62
     6
370
    15
100
AcDbLine
 10
-354.0497353141347
 20
-153.4964688671415
 30
0.0
 11
-379.0288773288881
 21
-153.4964688671415
 31
0.0
  0
LINE
  5
E33
330
D39
100
AcDbEntity
  8
0
 62
     6
370
    15
100
AcDbLine
 10
-378.0288773288881
 20
-184.7305171353377
 30
0.0
 11
-378.0288773288881
 21
-156.4964688671415
 31
0.0
  0
SOLID
  5
E34
330
D39
100
AcDbEntity
  8
0
 62
     6
100
AcDbTrace
 10
-378.5288773288881
 20
-184.7305171353377
 30
0.0
 11
-377.5288773288881
 21
-184.7305171353377
 31
0.0
 12
-378.0288773288881
 22
-187.7305171353377
 32
0.0
 13
-378.0288773288881
 23
-187.7305171353377
 33
0.0
  0
SOLID
  5
E35
330
D39
100
AcDbEntity
  8
0
 62
     6
100
AcDbTrace
 10
-378.5288773288881
 20
-156.4964688671415
 30
0.0
 11
-377.5288773288881
 21
-156.4964688671415
 31
0.0
 12
-378.0288773288881
 22
-153.4964688671415
 32
0.0
 13
-378.0288773288881
 23
-153.4964688671415
 33
0.0
  0
MTEXT
  5
E36
330
D39
100
AcDbEntity
  8
0
 62
     2
100
AcDbMText
 10
-380.3868318743426
 20
-170.6517234857783
 30
0.0
 40
3.0
 41
0.0
 71
     5
 72
     1
  1
\A1;(34)
  7
OPNUS
 11
0.0000000000000001
 21
1.0
 31
0.0
 73
     1
 44
1.0
1001
ACAD
1000
MTEXTBEGIN
1070
    73
1070
     1
1070
    44
1040
1.0
1070
    74
1070
     0
1000
MTEXTEND
  0
POINT
  5
E37
330
D39
100
AcDbEntity
  8
Defpoints
 62
     0
100
AcDbPoint
 10
-353.0786126429843
 20
-187.7305171353377
 30
0.0
  0
POINT
  5
E38
330
D39
100
AcDbEntity
  8
Defpoints
 62
     0
100
AcDbPoint
 10
-353.0497353141348
 20
-153.4964688671415
 30
0.0
  0
POINT
  5
E39
330
D39
100
AcDbEntity
  8
Defpoints
 62
     0
100
AcDbPoint
 10
-378.0288773288881
 20
-153.4964688671415
 30
0.0
  0
ENDBLK
  5
D44
330
D39
100
AcDbEntity
  8
0
100
AcDbBlockEnd
  0
BLOCK
  5
D4F
330
D45
100
AcDbEntity
  8
0
100
AcDbBlockBegin
  2
*D29
 70
     1
 10
0.0
 20
0.0
 30
0.0
  3
*D29
  1

  0
LINE
  5
E3A
330
D45
100
AcDbEntity
  8
0
 62
     6
370
    15
100
AcDbLine
 10
-417.5926571869713
 20
-195.6130173743158
 30
0.0
 11
-417.5926571869713
 21
-210.9999999999999
 31
0.0
  0
LINE
  5
E3B
330
D45
100
AcDbEntity
  8
0
 62
     6
370
    15
100
AcDbLine
 10
-394.5926601514634
 20
-171.6194596471281
 30
0.0
 11
-394.5926601514634
 21
-210.9999999999999
 31
0.0
  0
LINE
  5
E3C
330
D45
100
AcDbEntity
  8
0
 62
     6
370
    15
100
AcDbLine
 10
-414.5926571869713
 20
-210.0
 30
0.0
 11
-397.5926601514634
 21
-210.0
 31
0.0
  0
SOLID
  5
E3D
330
D45
100
AcDbEntity
  8
0
 62
     6
100
AcDbTrace
 10
-414.5926571869713
 20
-209.4999999999999
 30
0.0
 11
-414.5926571869713
 21
-210.4999999999999
 31
0.0
 12
-417.5926571869713
 22
-210.0
 32
0.0
 13
-417.5926571869713
 23
-210.0
 33
0.0
  0
SOLID
  5
E3E
330
D45
100
AcDbEntity
  8
0
 62
     6
100
AcDbTrace
 10
-397.5926601514634
 20
-209.4999999999999
 30
0.0
 11
-397.5926601514634
 21
-210.4999999999999
 31
0.0
 12
-394.5926601514634
 22
-210.0
 32
0.0
 13
-394.5926601514634
 23
-210.0
 33
0.0
  0
MTEXT
  5
E3F
330
D45
100
AcDbEntity
  8
0
 62
     2
100
AcDbMText
 10
-406.0926586692174
 20
-208.0
 30
0.0
 40
3.0
 41
0.0
 71
     5
 72
     1
  1
\A1;23
  7
OPNUS
 73
     1
 44
1.0
1001
ACAD
1000
MTEXTBEGIN
1070
    73
1070
     1
1070
    44
1040
1.0
1070
    74
1070
     0
1000
MTEXTEND
  0
POINT
  5
E40
330
D45
100
AcDbEntity
  8
Defpoints
 62
     0
100
AcDbPoint
 10
-417.5926571869713
 20
-194.6130173743158
 30
0.0
  0
POINT
  5
E41
330
D45
100
AcDbEntity
  8
Defpoints
 62
     0
100
AcDbPoint
 10
-394.5926601514634
 20
-170.6194596471281
 30
0.0
  0
POINT
  5
E42
330
D45
100
AcDbEntity
  8
Defpoints
 62
     0
100
AcDbPoint
 10
-394.5926601514634
 20
-210.0
 30
0.0
  0
ENDBLK
  5
D50
330
D45
100
AcDbEntity
  8
0
100
AcDbBlockEnd
  0
BLOCK
  5
D5F
330
D51
100
AcDbEntity
  8
0
100
AcDbBlockBegin
  2
*D30
 70
     1
 10
0.0
 20
0.0
 30
0.0
  3
*D30
  1

  0
LINE
  5
E43
330
D51
100
AcDbEntity
  8
0
 62
     6
370
    15
100
AcDbLine
 10
-351.7873722022334
 20
-190.5289213960656
 30
0.0
 11
-371.93519706383
 21
-185.1303268395488
 31
0.0
  0
LINE
  5
E44
330
D51
100
AcDbEntity
  8
0
 62
     6
370
    15
100
AcDbLine
 10
-337.5453209925231
 20
-194.6130175829316
 30
0.0
 11
-373.1836172421728
 21
-194.613017582931
 31
0.0
  0
ARC
  5
E45
330
D51
100
AcDbEntity
  8
0
 62
     6
370
    15
100
AcDbCircle
 10
-336.5453209925231
 20
-194.6130175829316
 30
0.0
 40
35.63829624964971
100
AcDbArc
 50
155.350931308059
 51
160.1754641209572
  0
ARC
  5
E46
330
D51
100
AcDbEntity
  8
0
 62
     6
370
    15
100
AcDbCircle
 10
-336.5453209925231
 20
-194.6130175829316
 30
0.0
 40
35.63829624964971
100
AcDbArc
 50
184.8245328128973
 51
189.6490656257953
  0
ARC
  5
E47
330
D51
100
AcDbEntity
  8
0
 62
     6
370
    15
100
AcDbCircle
 10
-336.5453209925231
 20
-194.6130175829316
 30
0.0
 40
35.63829624964971
100
AcDbArc
 50
164.9999969338552
 51
179.9999999999991
  0
SOLID
  5
E48
330
D51
100
AcDbEntity
  8
0
 62
     6
100
AcDbTrace
 10
-369.5944477297946
 20
-182.6762396931292
 30
0.0
 11
-370.5486239990312
 21
-182.3769945641363
 31
0.0
 12
-370.9692712513915
 22
-185.3891459363421
 32
0.0
 13
-370.9692712513915
 23
-185.3891459363421
 33
0.0
  0
SOLID
  5
E49
330
D51
100
AcDbEntity
  8
0
 62
     6
100
AcDbTrace
 10
-372.556905500746
 20
-197.6314038862414
 30
0.0
 11
-371.5577916586684
 21
-197.5893143320861
 31
0.0
 12
-372.1836172421729
 22
-194.613017582931
 32
0.0
 13
-372.1836172421729
 23
-194.613017582931
 33
0.0
  0
MTEXT
  5
E4A
330
D51
100
AcDbEntity
  8
0
 62
     2
100
AcDbMText
 10
-373.8616162686513
 20
-189.7002330933362
 30
0.0
 40
3.0
 41
0.0
 71
     5
 72
     1
  1
\A1;15°
  7
OPNUS
 11
0.1305262187483007
 21
0.9914448578812997
 31
0.0
 73
     1
 44
1.0
1001
ACAD
1000
MTEXTBEGIN
1070
    73
1070
     1
1070
    44
1040
1.0
1070
    74
1070
     0
1000
MTEXTEND
  0
POINT
  5
E4B
330
D51
100
AcDbEntity
  8
Defpoints
 62
     0
100
AcDbPoint
 10
-371.6421912225409
 20
-188.4244911319021
 30
0.0
  0
POINT
  5
E4C
330
D51
100
AcDbEntity
  8
Defpoints
 62
     0
100
AcDbPoint
 10
-336.4945852615837
 20
-194.6130175829316
 30
0.0
  0
POINT
  5
E4D
330
D51
100
AcDbEntity
  8
Defpoints
 62
     0
100
AcDbPoint
 10
-350.8214463897949
 20
-190.7877404928589
 30
0.0
  0
POINT
  5
E4E
330
D51
100
AcDbEntity
  8
Defpoints
 62
     0
100
AcDbPoint
 10
-344.7463491418366
 20
-192.4155582428361
 30
0.0
  0
POINT
  5
E4F
330
D51
100
AcDbEntity
  8
Defpoints
 62
     0
100
AcDbPoint
 10
-335.4945850976709
 20
-194.6130175829316
 30
0.0
  0
ENDBLK
  5
D60
330
D51
100
AcDbEntity
  8
0
100
AcDbBlockEnd
  0
BLOCK
  5
D6A
330
D61
100
AcDbEntity
  8
0
100
AcDbBlockBegin
  2
*D31
 70
     1
 10
0.0
 20
0.0
 30
0.0
  3
*D31
  1

  0
LINE
  5
E50
330
D61
100
AcDbEntity
  8
0
 62
     6
370
    15
100
AcDbLine
 10
-280.647367941377
 20
-194.4643552261338
 30
0.0
 11
-261.0051365385888
 21
-174.3347513915673
 31
0.0
  0
LINE
  5
E51
330
D61
100
AcDbEntity
  8
0
 62
     6
370
    15
100
AcDbLine
 10
-253.7418877049523
 20
-166.8912833570637
 30
0.0
 11
-251.6467197721726
 21
-164.7441291163415
 31
0.0
  0
MTEXT
  5
E52
330
D61
100
AcDbEntity
  8
0
 62
     2
100
AcDbMText
 10
-277.7356955745337
 20
-188.6167047927835
 30
0.0
 40
3.0
 41
0.0
 71
     5
 72
     1
  1
\A1;2-\U+22054.4
  7
OPNUS
 11
0.6983893109265831
 21
0.7157180802407415
 31
0.0
 73
     1
 44
1.0
1001
ACAD
1000
MTEXTBEGIN
1070
    73
1070
     1
1070
    44
1040
1.0
1070
    74
1070
     0
1000
MTEXTEND
  0
LINE
  5
E53
330
D61
100
AcDbEntity
  8
0
 62
     6
370
    15
100
AcDbLine
 10
-255.8370556377321
 20
-169.0384375977859
 30
0.0
 11
-258.909968605809
 21
-172.1875971508451
 31
0.0
  0
SOLID
  5
E54
330
D61
100
AcDbEntity
  8
0
 62
     6
100
AcDbTrace
 10
-254.0997467450727
 20
-166.5420887016004
 30
0.0
 11
-253.384028664832
 21
-167.240478012527
 31
0.0
 12
-255.8370556377321
 22
-169.0384375977859
 32
0.0
 13
-255.8370556377321
 23
-169.0384375977859
 33
0.0
  0
SOLID
  5
E55
330
D61
100
AcDbEntity
  8
0
 62
     6
100
AcDbTrace
 10
-261.3629955787091
 20
-173.9855567361041
 30
0.0
 11
-260.6472774984684
 21
-174.6839460470306
 31
0.0
 12
-258.909968605809
 22
-172.1875971508451
 32
0.0
 13
-258.909968605809
 23
-172.1875971508451
 33
0.0
  0
POINT
  5
E56
330
D61
100
AcDbEntity
  8
Defpoints
 62
     0
100
AcDbPoint
 10
-258.909968605809
 20
-172.1875971508451
 30
-0.0000000000000107
  0
POINT
  5
E57
330
D61
100
AcDbEntity
  8
Defpoints
 62
     0
100
AcDbPoint
 10
-255.8370556377321
 20
-169.0384375977859
 30
0.0000000000000107
  0
ENDBLK
  5
D6B
330
D61
100
AcDbEntity
  8
0
100
AcDbBlockEnd
  0
BLOCK
  5
D73
330
D6C
100
AcDbEntity
  8
0
100
AcDbBlockBegin
  2
*D32
 70
     1
 10
0.0
 20
0.0
 30
0.0
  3
*D32
  1

  0
LINE
  5
E58
330
D6C
100
AcDbEntity
  8
0
 62
     6
370
    15
100
AcDbLine
 10
-318.1232674897029
 20
-177.184339584727
 30
0.0
 11
-310.827612618626
 21
-184.4800080450179
 31
0.0
  0
SOLID
  5
E59
330
D6C
100
AcDbEntity
  8
0
 62
     6
100
AcDbTrace
 10
-317.7697137698379
 20
-176.8307865234057
 30
0.0
 11
-318.476821209568
 21
-177.5378926460482
 31
0.0
 12
-320.2445858576303
 22
-175.0630172655369
 32
0.0
 13
-320.2445858576303
 23
-175.0630172655369
 33
0.0
  0
MTEXT
  5
E5A
330
D6C
100
AcDbEntity
  8
0
 62
     2
100
AcDbMText
 10
-314.0577993174311
 20
-178.4213855705972
 30
0.0
 40
3.0
 41
0.0
 71
     5
 72
     1
  1
\A1;4-C0.5
  7
OPNUS
 11
0.7071061226424539
 21
-0.707107439730028
 31
0.0
 73
     1
 44
1.0
1001
ACAD
1000
MTEXTBEGIN
1070
    73
1070
     1
1070
    44
1040
1.0
1070
    74
1070
     0
1000
MTEXTEND
  0
POINT
  5
E5B
330
D6C
100
AcDbEntity
  8
Defpoints
 62
     0
100
AcDbPoint
 10
-320.2445858576302
 20
-175.0630172655369
 30
0.0
  0
POINT
  5
E5C
330
D6C
100
AcDbEntity
  8
Defpoints
 62
     0
100
AcDbPoint
 10
-310.699442536152
 20
-184.6081783662272
 30
0.0
  0
POINT
  5
E5D
330
D6C
100
AcDbEntity
  8
Defpoints
 62
     0
100
AcDbPoint
 10
-310.699442536152
 20
-184.6081783662272
 30
0.0
  0
ENDBLK
  5
D74
330
D6C
100
AcDbEntity
  8
0
100
AcDbBlockEnd
  0
BLOCK
  5
D7F
330
D75
100
AcDbEntity
  8
0
100
AcDbBlockBegin
  2
*D33
 70
     1
 10
0.0
 20
0.0
 30
0.0
  3
*D33
  1

  0
LINE
  5
E5E
330
D75
100
AcDbEntity
  8
0
 62
     6
370
    15
100
AcDbLine
 10
-245.8735121217705
 20
-165.913017374315
 30
0.0
 11
-280.0000000000001
 21
-165.913017374315
 31
0.0
  0
LINE
  5
E5F
330
D75
100
AcDbEntity
  8
0
 62
     6
370
    15
100
AcDbLine
 10
-245.8735121217705
 20
-175.3130173743156
 30
0.0
 11
-280.0000000000001
 21
-175.3130173743156
 31
0.0
  0
LINE
  5
E60
330
D75
100
AcDbEntity
  8
0
 62
     6
370
    15
100
AcDbLine
 10
-279.0
 20
-168.913017374315
 30
0.0
 11
-279.0
 21
-172.3130173743156
 31
0.0
  0
SOLID
  5
E61
330
D75
100
AcDbEntity
  8
0
 62
     6
100
AcDbTrace
 10
-279.5000000000001
 20
-168.913017374315
 30
0.0
 11
-278.5000000000001
 21
-168.913017374315
 31
0.0
 12
-279.0
 22
-165.913017374315
 32
0.0
 13
-279.0
 23
-165.913017374315
 33
0.0
  0
SOLID
  5
E62
330
D75
100
AcDbEntity
  8
0
 62
     6
100
AcDbTrace
 10
-279.5000000000001
 20
-172.3130173743156
 30
0.0
 11
-278.5000000000001
 21
-172.3130173743156
 31
0.0
 12
-279.0
 22
-175.3130173743156
 32
0.0
 13
-279.0
 23
-175.3130173743156
 33
0.0
  0
MTEXT
  5
E63
330
D75
100
AcDbEntity
  8
0
 62
     2
100
AcDbMText
 10
-281.4517045454546
 20
-170.6130173743154
 30
0.0
 40
3.0
 41
0.0
 71
     5
 72
     1
  1
\A1;φ9.4
  7
OPNUS
 11
0.0000000000000001
 21
1.0
 31
0.0
 73
     1
 44
1.0
1001
ACAD
1000
MTEXTBEGIN
1070
    73
1070
     1
1070
    44
1040
1.0
1070
    74
1070
     0
1000
MTEXTEND
  0
POINT
  5
E64
330
D75
100
AcDbEntity
  8
Defpoints
 62
     0
100
AcDbPoint
 10
-244.8735121217705
 20
-165.913017374315
 30
0.0
  0
POINT
  5
E65
330
D75
100
AcDbEntity
  8
Defpoints
 62
     0
100
AcDbPoint
 10
-244.8735121217705
 20
-175.3130173743156
 30
0.0
  0
POINT
  5
E66
330
D75
100
AcDbEntity
  8
Defpoints
 62
     0
100
AcDbPoint
 10
-279.0
 20
-175.3130173743156
 30
0.0
  0
ENDBLK
  5
D80
330
D75
100
AcDbEntity
  8
0
100
AcDbBlockEnd
  0
BLOCK
  5
D8D
330
D81
100
AcDbEntity
  8
0
100
AcDbBlockBegin
  2
*D34
 70
     1
 10
0.0
 20
0.0
 30
0.0
  3
*D34
  1

  0
LINE
  5
E67
330
D81
100
AcDbEntity
  8
0
 62
     6
370
    15
100
AcDbLine
 10
-239.5114598152375
 20
-168.8630173202988
 30
0.0
 11
-209.0
 21
-168.8630173202988
 31
0.0
  0
LINE
  5
E68
330
D81
100
AcDbEntity
  8
0
 62
     6
370
    15
100
AcDbLine
 10
-239.5114598152379
 20
-172.3630174283323
 30
0.0
 11
-209.0
 21
-172.3630174283323
 31
0.0
  0
LINE
  5
E69
330
D81
100
AcDbEntity
  8
0
 62
     6
370
    15
100
AcDbLine
 10
-210.0
 20
-165.8630173202988
 30
0.0
 11
-210.0
 21
-162.8630173202988
 31
0.0
  0
LINE
  5
E6A
330
D81
100
AcDbEntity
  8
0
 62
     6
370
    15
100
AcDbLine
 10
-210.0
 20
-175.3630174283323
 30
0.0
 11
-210.0
 21
-184.1698356101504
 31
0.0
  0
LINE
  5
E6B
330
D81
100
AcDbEntity
  8
0
 62
     6
370
    15
100
AcDbLine
 10
-210.0
 20
-168.8630173202988
 30
0.0
 11
-210.0
 21
-172.3630174283323
 31
0.0
  0
SOLID
  5
E6C
330
D81
100
AcDbEntity
  8
0
 62
     6
100
AcDbTrace
 10
-210.5
 20
-165.8630173202988
 30
0.0
 11
-209.5
 21
-165.8630173202988
 31
0.0
 12
-210.0
 22
-168.8630173202988
 32
0.0
 13
-210.0
 23
-168.8630173202988
 33
0.0
  0
SOLID
  5
E6D
330
D81
100
AcDbEntity
  8
0
 62
     6
100
AcDbTrace
 10
-210.5
 20
-175.3630174283323
 30
0.0
 11
-209.5
 21
-175.3630174283323
 31
0.0
 12
-210.0
 22
-172.3630174283323
 32
0.0
 13
-210.0
 23
-172.3630174283323
 33
0.0
  0
MTEXT
  5
E6E
330
D81
100
AcDbEntity
  8
0
 62
     2
100
AcDbMText
 10
-212.0
 20
-181.2664265192414
 30
0.0
 40
3.0
 41
0.0
 71
     5
 72
     1
  1
\A1;3.5
  7
OPNUS
 11
0.0000000000000001
 21
1.0
 31
0.0
 73
     1
 44
1.0
1001
ACAD
1000
MTEXTBEGIN
1070
    73
1070
     1
1070
    44
1040
1.0
1070
    74
1070
     0
1000
MTEXTEND
  0
POINT
  5
E6F
330
D81
100
AcDbEntity
  8
Defpoints
 62
     0
100
AcDbPoint
 10
-240.5114598152375
 20
-168.8630173202988
 30
0.0
  0
POINT
  5
E70
330
D81
100
AcDbEntity
  8
Defpoints
 62
     0
100
AcDbPoint
 10
-240.5114598152379
 20
-172.3630174283323
 30
0.0
  0
POINT
  5
E71
330
D81
100
AcDbEntity
  8
Defpoints
 62
     0
100
AcDbPoint
 10
-210.0
 20
-172.3630174283323
 30
0.0
  0
ENDBLK
  5
D8E
330
D81
100
AcDbEntity
  8
0
100
AcDbBlockEnd
  0
BLOCK
  5
D9B
330
D8F
100
AcDbEntity
  8
0
100
AcDbBlockBegin
  2
*D35
 70
     1
 10
0.0
 20
0.0
 30
0.0
  3
*D35
  1

  0
LINE
  5
E72
330
D8F
100
AcDbEntity
  8
0
 62
     6
370
    15
100
AcDbLine
 10
-246.6235121757868
 20
-175.9750696808487
 30
0.0
 11
-246.6235121757868
 21
-204.9999999999999
 31
0.0
  0
LINE
  5
E73
330
D8F
100
AcDbEntity
  8
0
 62
     6
370
    15
100
AcDbLine
 10
-243.1235120677541
 20
-175.9750696808484
 30
0.0
 11
-243.1235120677541
 21
-204.9999999999999
 31
0.0
  0
LINE
  5
E74
330
D8F
100
AcDbEntity
  8
0
 62
     6
370
    15
100
AcDbLine
 10
-249.6235121757868
 20
-204.0
 30
0.0
 11
-252.6235121757868
 21
-204.0
 31
0.0
  0
LINE
  5
E75
330
D8F
100
AcDbEntity
  8
0
 62
     6
370
    15
100
AcDbLine
 10
-240.1235120677541
 20
-204.0
 30
0.0
 11
-231.3166938859359
 21
-204.0
 31
0.0
  0
LINE
  5
E76
330
D8F
100
AcDbEntity
  8
0
 62
     6
370
    15
100
AcDbLine
 10
-246.6235121757868
 20
-204.0
 30
0.0
 11
-243.1235120677541
 21
-204.0
 31
0.0
  0
SOLID
  5
E77
330
D8F
100
AcDbEntity
  8
0
 62
     6
100
AcDbTrace
 10
-249.6235121757868
 20
-203.4999999999999
 30
0.0
 11
-249.6235121757868
 21
-204.4999999999999
 31
0.0
 12
-246.6235121757868
 22
-204.0
 32
0.0
 13
-246.6235121757868
 23
-204.0
 33
0.0
  0
SOLID
  5
E78
330
D8F
100
AcDbEntity
  8
0
 62
     6
100
AcDbTrace
 10
-240.1235120677541
 20
-203.4999999999999
 30
0.0
 11
-240.1235120677541
 21
-204.4999999999999
 31
0.0
 12
-243.1235120677541
 22
-204.0
 32
0.0
 13
-243.1235120677541
 23
-204.0
 33
0.0
  0
MTEXT
  5
E79
330
D8F
100
AcDbEntity
  8
0
 62
     2
100
AcDbMText
 10
-234.220102976845
 20
-202.0
 30
0.0
 40
3.0
 41
0.0
 71
     5
 72
     1
  1
\A1;3.5
  7
OPNUS
 73
     1
 44
1.0
1001
ACAD
1000
MTEXTBEGIN
1070
    73
1070
     1
1070
    44
1040
1.0
1070
    74
1070
     0
1000
MTEXTEND
  0
POINT
  5
E7A
330
D8F
100
AcDbEntity
  8
Defpoints
 62
     0
100
AcDbPoint
 10
-246.6235121757868
 20
-174.9750696808487
 30
0.0
  0
POINT
  5
E7B
330
D8F
100
AcDbEntity
  8
Defpoints
 62
     0
100
AcDbPoint
 10
-243.1235120677541
 20
-174.9750696808484
 30
0.0
  0
POINT
  5
E7C
330
D8F
100
AcDbEntity
  8
Defpoints
 62
     0
100
AcDbPoint
 10
-243.1235120677541
 20
-204.0
 30
0.0
  0
ENDBLK
  5
D9C
330
D8F
100
AcDbEntity
  8
0
100
AcDbBlockEnd
  0
BLOCK
  5
DA7
330
D9D
100
AcDbEntity
  8
0
100
AcDbBlockBegin
  2
*D36
 70
     1
 10
0.0
 20
0.0
 30
0.0
  3
*D36
  1

  0
LINE
  5
E7D
330
D9D
100
AcDbEntity
  8
0
 62
     6
370
    15
100
AcDbLine
 10
-334.494585097671
 20
-146.6130173743149
 30
0.0
 11
-299.0
 21
-146.6130173743149
 31
0.0
  0
LINE
  5
E7E
330
D9D
100
AcDbEntity
  8
0
 62
     6
370
    15
100
AcDbLine
 10
-334.494585097671
 20
-194.6130173743158
 30
0.0
 11
-299.0
 21
-194.6130173743158
 31
0.0
  0
LINE
  5
E7F
330
D9D
100
AcDbEntity
  8
0
 62
     6
370
    15
100
AcDbLine
 10
-300.0
 20
-149.6130173743149
 30
0.0
 11
-300.0
 21
-191.6130173743158
 31
0.0
  0
SOLID
  5
E80
330
D9D
100
AcDbEntity
  8
0
 62
     6
100
AcDbTrace
 10
-300.5
 20
-149.6130173743149
 30
0.0
 11
-299.5
 21
-149.6130173743149
 31
0.0
 12
-300.0
 22
-146.6130173743149
 32
0.0
 13
-300.0
 23
-146.6130173743149
 33
0.0
  0
SOLID
  5
E81
330
D9D
100
AcDbEntity
  8
0
 62
     6
100
AcDbTrace
 10
-300.5
 20
-191.6130173743158
 30
0.0
 11
-299.5
 21
-191.6130173743158
 31
0.0
 12
-300.0
 22
-194.6130173743158
 32
0.0
 13
-300.0
 23
-194.6130173743158
 33
0.0
  0
MTEXT
  5
E82
330
D9D
100
AcDbEntity
  8
0
 62
     2
100
AcDbMText
 10
-302.4517045454545
 20
-170.6130173743154
 30
0.0
 40
3.0
 41
0.0
 71
     5
 72
     1
  1
\A1;φ48
  7
OPNUS
 11
0.0000000000000001
 21
1.0
 31
0.0
 73
     1
 44
1.0
1001
ACAD
1000
MTEXTBEGIN
1070
    73
1070
     1
1070
    44
1040
1.0
1070
    74
1070
     0
1000
MTEXTEND
  0
POINT
  5
E83
330
D9D
100
AcDbEntity
  8
Defpoints
 62
     0
100
AcDbPoint
 10
-335.494585097671
 20
-146.6130173743149
 30
0.0
  0
POINT
  5
E84
330
D9D
100
AcDbEntity
  8
Defpoints
 62
     0
100
AcDbPoint
 10
-335.494585097671
 20
-194.6130173743158
 30
0.0
  0
POINT
  5
E85
330
D9D
100
AcDbEntity
  8
Defpoints
 62
     0
100
AcDbPoint
 10
-300.0
 20
-194.6130173743158
 30
0.0
  0
ENDBLK
  5
DA8
330
D9D
100
AcDbEntity
  8
0
100
AcDbBlockEnd
  0
BLOCK
  5
DB3
330
DA9
100
AcDbEntity
  8
0
100
AcDbBlockBegin
  2
*D37
 70
     1
 10
0.0
 20
0.0
 30
0.0
  3
*D37
  1

  0
LINE
  5
E86
330
DA9
100
AcDbEntity
  8
0
 62
     6
370
    15
100
AcDbLine
 10
-335.494585097671
 20
-145.6130173743149
 30
0.0
 11
-335.494585097671
 21
-133.9999999999999
 31
0.0
  0
LINE
  5
E87
330
DA9
100
AcDbEntity
  8
0
 62
     6
370
    15
100
AcDbLine
 10
-344.4945856415634
 20
-148.0388831056657
 30
0.0
 11
-344.4945856415634
 21
-133.9999999999999
 31
0.0
  0
LINE
  5
E88
330
DA9
100
AcDbEntity
  8
0
 62
     6
370
    15
100
AcDbLine
 10
-338.494585097671
 20
-134.9999999999999
 30
0.0
 11
-341.4945856415634
 21
-134.9999999999999
 31
0.0
  0
SOLID
  5
E89
330
DA9
100
AcDbEntity
  8
0
 62
     6
100
AcDbTrace
 10
-338.494585097671
 20
-134.4999999999999
 30
0.0
 11
-338.494585097671
 21
-135.4999999999999
 31
0.0
 12
-335.494585097671
 22
-134.9999999999999
 32
0.0
 13
-335.494585097671
 23
-134.9999999999999
 33
0.0
  0
SOLID
  5
E8A
330
DA9
100
AcDbEntity
  8
0
 62
     6
100
AcDbTrace
 10
-341.4945856415634
 20
-134.4999999999999
 30
0.0
 11
-341.4945856415634
 21
-135.4999999999999
 31
0.0
 12
-344.4945856415634
 22
-134.9999999999999
 32
0.0
 13
-344.4945856415634
 23
-134.9999999999999
 33
0.0
  0
MTEXT
  5
E8B
330
DA9
100
AcDbEntity
  8
0
 62
     2
100
AcDbMText
 10
-339.9945853696172
 20
-132.9999999999999
 30
0.0
 40
3.0
 41
0.0
 71
     5
 72
     1
  1
\A1;8
  7
OPNUS
 73
     1
 44
1.0
1001
ACAD
1000
MTEXTBEGIN
1070
    73
1070
     1
1070
    44
1040
1.0
1070
    74
1070
     0
1000
MTEXTEND
  0
POINT
  5
E8C
330
DA9
100
AcDbEntity
  8
Defpoints
 62
     0
100
AcDbPoint
 10
-335.494585097671
 20
-146.6130173743149
 30
0.0
  0
POINT
  5
E8D
330
DA9
100
AcDbEntity
  8
Defpoints
 62
     0
100
AcDbPoint
 10
-344.4945856415634
 20
-149.0388831056657
 30
0.0
  0
POINT
  5
E8E
330
DA9
100
AcDbEntity
  8
Defpoints
 62
     0
100
AcDbPoint
 10
-344.4945856415634
 20
-134.9999999999999
 30
0.0
  0
ENDBLK
  5
DB4
330
DA9
100
AcDbEntity
  8
0
100
AcDbBlockEnd
  0
BLOCK
  5
DBF
330
DB5
100
AcDbEntity
  8
0
100
AcDbBlockBegin
  2
*D38
 70
     1
 10
0.0
 20
0.0
 30
0.0
  3
*D38
  1

  0
LINE
  5
E8F
330
DB5
100
AcDbEntity
  8
0
 62
     6
370
    15
100
AcDbLine
 10
-352.4945855298047
 20
-169.6130173743153
 30
0.0
 11
-352.4945855298047
 21
-127.9999999999999
 31
0.0
  0
LINE
  5
E90
330
DB5
100
AcDbEntity
  8
0
 62
     6
370
    15
100
AcDbLine
 10
-335.494585097671
 20
-145.6130173743149
 30
0.0
 11
-335.494585097671
 21
-127.9999999999999
 31
0.0
  0
LINE
  5
E91
330
DB5
100
AcDbEntity
  8
0
 62
     6
370
    15
100
AcDbLine
 10
-349.4945855298047
 20
-128.9999999999999
 30
0.0
 11
-338.494585097671
 21
-128.9999999999999
 31
0.0
  0
SOLID
  5
E92
330
DB5
100
AcDbEntity
  8
0
 62
     6
100
AcDbTrace
 10
-349.4945855298047
 20
-128.4999999999999
 30
0.0
 11
-349.4945855298047
 21
-129.4999999999999
 31
0.0
 12
-352.4945855298047
 22
-128.9999999999999
 32
0.0
 13
-352.4945855298047
 23
-128.9999999999999
 33
0.0
  0
SOLID
  5
E93
330
DB5
100
AcDbEntity
  8
0
 62
     6
100
AcDbTrace
 10
-338.494585097671
 20
-128.4999999999999
 30
0.0
 11
-338.494585097671
 21
-129.4999999999999
 31
0.0
 12
-335.494585097671
 22
-128.9999999999999
 32
0.0
 13
-335.494585097671
 23
-128.9999999999999
 33
0.0
  0
MTEXT
  5
E94
330
DB5
100
AcDbEntity
  8
0
 62
     2
100
AcDbMText
 10
-343.9945853137378
 20
-126.9999999999999
 30
0.0
 40
3.0
 41
0.0
 71
     5
 72
     1
  1
\A1;17
  7
OPNUS
 73
     1
 44
1.0
1001
ACAD
1000
MTEXTBEGIN
1070
    73
1070
     1
1070
    44
1040
1.0
1070
    74
1070
     0
1000
MTEXTEND
  0
POINT
  5
E95
330
DB5
100
AcDbEntity
  8
Defpoints
 62
     0
100
AcDbPoint
 10
-352.4945855298047
 20
-170.6130173743153
 30
0.0
  0
POINT
  5
E96
330
DB5
100
AcDbEntity
  8
Defpoints
 62
     0
100
AcDbPoint
 10
-335.494585097671
 20
-146.6130173743149
 30
0.0
  0
POINT
  5
E97
330
DB5
100
AcDbEntity
  8
Defpoints
 62
     0
100
AcDbPoint
 10
-335.494585097671
 20
-128.9999999999999
 30
0.0
  0
ENDBLK
  5
DC0
330
DB5
100
AcDbEntity
  8
0
100
AcDbBlockEnd
  0
BLOCK
  5
DCB
330
DC1
100
AcDbEntity
  8
0
100
AcDbBlockBegin
  2
*D39
 70
     1
 10
0.0
 20
0.0
 30
0.0
  3
*D39
  1

  0
LINE
  5
E98
330
DC1
100
AcDbEntity
  8
0
 62
     6
370
    15
100
AcDbLine
 10
-372.494585097671
 20
-169.6130173743153
 30
0.0
 11
-372.494585097671
 21
-127.9999999999999
 31
0.0
  0
LINE
  5
E99
330
DC1
100
AcDbEntity
  8
0
 62
     6
370
    15
100
AcDbLine
 10
-352.4945855298047
 20
-169.6130173743153
 30
0.0
 11
-352.4945855298047
 21
-127.9999999999999
 31
0.0
  0
LINE
  5
E9A
330
DC1
100
AcDbEntity
  8
0
 62
     6
370
    15
100
AcDbLine
 10
-369.494585097671
 20
-128.9999999999999
 30
0.0
 11
-355.4945855298047
 21
-128.9999999999999
 31
0.0
  0
SOLID
  5
E9B
330
DC1
100
AcDbEntity
  8
0
 62
     6
100
AcDbTrace
 10
-369.494585097671
 20
-128.4999999999999
 30
0.0
 11
-369.494585097671
 21
-129.4999999999999
 31
0.0
 12
-372.494585097671
 22
-128.9999999999999
 32
0.0
 13
-372.494585097671
 23
-128.9999999999999
 33
0.0
  0
SOLID
  5
E9C
330
DC1
100
AcDbEntity
  8
0
 62
     6
100
AcDbTrace
 10
-355.4945855298047
 20
-128.4999999999999
 30
0.0
 11
-355.4945855298047
 21
-129.4999999999999
 31
0.0
 12
-352.4945855298047
 22
-128.9999999999999
 32
0.0
 13
-352.4945855298047
 23
-128.9999999999999
 33
0.0
  0
MTEXT
  5
E9D
330
DC1
100
AcDbEntity
  8
0
 62
     2
100
AcDbMText
 10
-362.4945853137378
 20
-126.6420454545454
 30
0.0
 40
3.0
 41
0.0
 71
     5
 72
     1
  1
\A1;(20)
  7
OPNUS
 73
     1
 44
1.0
1001
ACAD
1000
MTEXTBEGIN
1070
    73
1070
     1
1070
    44
1040
1.0
1070
    74
1070
     0
1000
MTEXTEND
  0
POINT
  5
E9E
330
DC1
100
AcDbEntity
  8
Defpoints
 62
     0
100
AcDbPoint
 10
-372.494585097671
 20
-170.6130173743153
 30
0.0
  0
POINT
  5
E9F
330
DC1
100
AcDbEntity
  8
Defpoints
 62
     0
100
AcDbPoint
 10
-352.4945855298047
 20
-170.6130173743153
 30
0.0
  0
POINT
  5
EA0
330
DC1
100
AcDbEntity
  8
Defpoints
 62
     0
100
AcDbPoint
 10
-352.4945855298047
 20
-128.9999999999999
 30
0.0
  0
ENDBLK
  5
DCC
330
DC1
100
AcDbEntity
  8
0
100
AcDbBlockEnd
  0
BLOCK
  5
DD7
330
DCD
100
AcDbEntity
  8
0
100
AcDbBlockBegin
  2
*D40
 70
     1
 10
0.0
 20
0.0
 30
0.0
  3
*D40
  1

  0
LINE
  5
EA1
330
DCD
100
AcDbEntity
  8
0
 62
     6
370
    15
100
AcDbLine
 10
-352.4945855298047
 20
-171.6130173743153
 30
0.0
 11
-352.4945855298047
 21
-210.9999999999999
 31
0.0
  0
LINE
  5
EA2
330
DCD
100
AcDbEntity
  8
0
 62
     6
370
    15
100
AcDbLine
 10
-319.9945853509908
 20
-175.8130172245587
 30
0.0
 11
-319.9945853509908
 21
-210.9999999999999
 31
0.0
  0
LINE
  5
EA3
330
DCD
100
AcDbEntity
  8
0
 62
     6
370
    15
100
AcDbLine
 10
-349.4945855298047
 20
-210.0
 30
0.0
 11
-322.9945853509907
 21
-210.0
 31
0.0
  0
SOLID
  5
EA4
330
DCD
100
AcDbEntity
  8
0
 62
     6
100
AcDbTrace
 10
-349.4945855298047
 20
-209.4999999999999
 30
0.0
 11
-349.4945855298047
 21
-210.4999999999999
 31
0.0
 12
-352.4945855298047
 22
-210.0
 32
0.0
 13
-352.4945855298047
 23
-210.0
 33
0.0
  0
SOLID
  5
EA5
330
DCD
100
AcDbEntity
  8
0
 62
     6
100
AcDbTrace
 10
-322.9945853509907
 20
-209.4999999999999
 30
0.0
 11
-322.9945853509907
 21
-210.4999999999999
 31
0.0
 12
-319.9945853509908
 22
-210.0
 32
0.0
 13
-319.9945853509908
 23
-210.0
 33
0.0
  0
MTEXT
  5
EA6
330
DCD
100
AcDbEntity
  8
0
 62
     2
100
AcDbMText
 10
-336.2445854403977
 20
-208.0
 30
0.0
 40
3.0
 41
0.0
 71
     5
 72
     1
  1
\A1;32.5
  7
OPNUS
 73
     1
 44
1.0
1001
ACAD
1000
MTEXTBEGIN
1070
    73
1070
     1
1070
    44
1040
1.0
1070
    74
1070
     0
1000
MTEXTEND
  0
POINT
  5
EA7
330
DCD
100
AcDbEntity
  8
Defpoints
 62
     0
100
AcDbPoint
 10
-352.4945855298047
 20
-170.6130173743153
 30
0.0
  0
POINT
  5
EA8
330
DCD
100
AcDbEntity
  8
Defpoints
 62
     0
100
AcDbPoint
 10
-319.9945853509908
 20
-174.8130172245587
 30
0.0
  0
POINT
  5
EA9
330
DCD
100
AcDbEntity
  8
Defpoints
 62
     0
100
AcDbPoint
 10
-319.9945853509908
 20
-210.0
 30
0.0
  0
ENDBLK
  5
DD8
330
DCD
100
AcDbEntity
  8
0
100
AcDbBlockEnd
  0
BLOCK
  5
DE5
330
DD9
100
AcDbEntity
  8
0
100
AcDbBlockBegin
  2
*D41
 70
     1
 10
0.0
 20
0.0
 30
0.0
  3
*D41
  1

  0
LINE
  5
EAA
330
DD9
100
AcDbEntity
  8
0
 62
     6
370
    15
100
AcDbLine
 10
-335.494585097671
 20
-195.6130173743158
 30
0.0
 11
-335.494585097671
 21
-204.9999999999999
 31
0.0
  0
LINE
  5
EAB
330
DD9
100
AcDbEntity
  8
0
 62
     6
370
    15
100
AcDbLine
 10
-333.4945855298047
 20
-188.6130173743153
 30
0.0
 11
-333.4945855298047
 21
-204.9999999999999
 31
0.0
  0
LINE
  5
EAC
330
DD9
100
AcDbEntity
  8
0
 62
     6
370
    15
100
AcDbLine
 10
-335.494585097671
 20
-204.0
 30
0.0
 11
-338.494585097671
 21
-204.0
 31
0.0
  0
LINE
  5
EAD
330
DD9
100
AcDbEntity
  8
0
 62
     6
370
    15
100
AcDbLine
 10
-330.4945855298047
 20
-204.0
 30
0.0
 11
-327.4945855298047
 21
-204.0
 31
0.0
  0
MTEXT
  5
EAE
330
DD9
100
AcDbEntity
  8
0
 62
     2
100
AcDbMText
 10
-327.8291697200921
 20
-201.943481443458
 30
0.0
 40
3.0
 41
0.0
 71
     5
 72
     1
  1
\A1;2
  7
OPNUS
 73
     1
 44
1.0
1001
ACAD
1000
MTEXTBEGIN
1070
    73
1070
     1
1070
    44
1040
1.0
1070
    74
1070
     0
1000
MTEXTEND
  0
LINE
  5
EAF
330
DD9
100
AcDbEntity
  8
0
 62
     6
370
    15
100
AcDbLine
 10
-335.494585097671
 20
-204.0
 30
0.0
 11
-333.4945855298047
 21
-204.0
 31
0.0
  0
INSERT
  5
EB0
330
DD9
100
AcDbEntity
  8
0
 62
     6
370
    15
100
AcDbBlockReference
  2
_DotSmall
 10
-335.494585097671
 20
-204.0
 30
0.0
 41
3.0
 42
3.0
 43
3.0
  0
SOLID
  5
EB1
330
DD9
100
AcDbEntity
  8
0
 62
     6
100
AcDbTrace
 10
-330.4945855298047
 20
-203.4999999999999
 30
0.0
 11
-330.4945855298047
 21
-204.4999999999999
 31
0.0
 12
-333.4945855298047
 22
-204.0
 32
0.0
 13
-333.4945855298047
 23
-204.0
 33
0.0
  0
POINT
  5
EB2
330
DD9
100
AcDbEntity
  8
Defpoints
 62
     0
100
AcDbPoint
 10
-335.494585097671
 20
-194.6130173743158
 30
0.0
  0
POINT
  5
EB3
330
DD9
100
AcDbEntity
  8
Defpoints
 62
     0
100
AcDbPoint
 10
-333.4945855298047
 20
-187.6130173743153
 30
0.0
  0
POINT
  5
EB4
330
DD9
100
AcDbEntity
  8
Defpoints
 62
     0
100
AcDbPoint
 10
-333.4945855298047
 20
-204.0
 30
0.0
  0
ENDBLK
  5
DE6
330
DD9
100
AcDbEntity
  8
0
100
AcDbBlockEnd
  0
BLOCK
  5
DF3
330
DE7
100
AcDbEntity
  8
0
100
AcDbBlockBegin
  2
*D42
 70
     1
 10
0.0
 20
0.0
 30
0.0
  3
*D42
  1

  0
LINE
  5
EB5
330
DE7
100
AcDbEntity
  8
0
 62
     6
370
    15
100
AcDbLine
 10
-336.494585097671
 20
-195.6130173743158
 30
0.0
 11
-336.494585097671
 21
-204.9999999999999
 31
0.0
  0
LINE
  5
EB6
330
DE7
100
AcDbEntity
  8
0
 62
     6
370
    15
100
AcDbLine
 10
-335.494585097671
 20
-195.6130173743158
 30
0.0
 11
-335.494585097671
 21
-204.9999999999999
 31
0.0
  0
LINE
  5
EB7
330
DE7
100
AcDbEntity
  8
0
 62
     6
370
    15
100
AcDbLine
 10
-335.494585097671
 20
-204.0
 30
0.0
 11
-329.494585097671
 21
-204.0
 31
0.0
  0
LINE
  5
EB8
330
DE7
100
AcDbEntity
  8
0
 62
     6
370
    15
100
AcDbLine
 10
-339.494585097671
 20
-204.0
 30
0.0
 11
-344.3979941885801
 21
-204.0
 31
0.0
  0
LINE
  5
EB9
330
DE7
100
AcDbEntity
  8
0
 62
     6
370
    15
100
AcDbLine
 10
-335.494585097671
 20
-204.0
 30
0.0
 11
-336.494585097671
 21
-204.0
 31
0.0
  0
INSERT
  5
EBA
330
DE7
100
AcDbEntity
  8
0
 62
     6
370
    15
100
AcDbBlockReference
  2
_DotSmall
 10
-335.494585097671
 20
-204.0
 30
0.0
 41
3.0
 42
3.0
 43
3.0
 50
180.0
  0
SOLID
  5
EBB
330
DE7
100
AcDbEntity
  8
0
 62
     6
100
AcDbTrace
 10
-339.494585097671
 20
-203.4999999999999
 30
0.0
 11
-339.494585097671
 21
-204.4999999999999
 31
0.0
 12
-336.494585097671
 22
-204.0
 32
0.0
 13
-336.494585097671
 23
-204.0
 33
0.0
  0
MTEXT
  5
EBC
330
DE7
100
AcDbEntity
  8
0
 62
     2
100
AcDbMText
 10
-343.4462896431256
 20
-202.0
 30
0.0
 40
3.0
 41
0.0
 71
     5
 72
     1
  1
\A1;1
  7
OPNUS
 73
     1
 44
1.0
1001
ACAD
1000
MTEXTBEGIN
1070
    73
1070
     1
1070
    44
1040
1.0
1070
    74
1070
     0
1000
MTEXTEND
  0
POINT
  5
EBD
330
DE7
100
AcDbEntity
  8
Defpoints
 62
     0
100
AcDbPoint
 10
-336.494585097671
 20
-194.6130173743158
 30
0.0
  0
POINT
  5
EBE
330
DE7
100
AcDbEntity
  8
Defpoints
 62
     0
100
AcDbPoint
 10
-335.494585097671
 20
-194.6130173743158
 30
0.0
  0
POINT
  5
EBF
330
DE7
100
AcDbEntity
  8
Defpoints
 62
     0
100
AcDbPoint
 10
-335.494585097671
 20
-204.0
 30
0.0
  0
ENDBLK
  5
DF4
330
DE7
100
AcDbEntity
  8
0
100
AcDbBlockEnd
  0
BLOCK
  5
DFF
330
DF5
100
AcDbEntity
  8
0
100
AcDbBlockBegin
  2
*D43
 70
     1
 10
0.0
 20
0.0
 30
0.0
  3
*D43
  1

  0
LINE
  5
EC0
330
DF5
100
AcDbEntity
  8
0
 62
     6
370
    15
100
AcDbLine
 10
-328.9945849635606
 20
-165.8015215300406
 30
0.0
 11
-328.9945849635606
 21
-157.9999999999999
 31
0.0
  0
LINE
  5
EC1
330
DF5
100
AcDbEntity
  8
0
 62
     6
370
    15
100
AcDbLine
 10
-319.9945853509908
 20
-165.413017524072
 30
0.0
 11
-319.9945853509908
 21
-157.9999999999999
 31
0.0
  0
LINE
  5
EC2
330
DF5
100
AcDbEntity
  8
0
 62
     6
370
    15
100
AcDbLine
 10
-325.9945849635605
 20
-158.9999999999999
 30
0.0
 11
-322.9945853509907
 21
-158.9999999999999
 31
0.0
  0
SOLID
  5
EC3
330
DF5
100
AcDbEntity
  8
0
 62
     6
100
AcDbTrace
 10
-325.9945849635605
 20
-158.4999999999999
 30
0.0
 11
-325.9945849635605
 21
-159.4999999999999
 31
0.0
 12
-328.9945849635606
 22
-158.9999999999999
 32
0.0
 13
-328.9945849635606
 23
-158.9999999999999
 33
0.0
  0
SOLID
  5
EC4
330
DF5
100
AcDbEntity
  8
0
 62
     6
100
AcDbTrace
 10
-322.9945853509907
 20
-158.4999999999999
 30
0.0
 11
-322.9945853509907
 21
-159.4999999999999
 31
0.0
 12
-319.9945853509908
 22
-158.9999999999999
 32
0.0
 13
-319.9945853509908
 23
-158.9999999999999
 33
0.0
  0
MTEXT
  5
EC5
330
DF5
100
AcDbEntity
  8
0
 62
     2
100
AcDbMText
 10
-324.4945851572757
 20
-156.9999999999999
 30
0.0
 40
3.0
 41
0.0
 71
     5
 72
     1
  1
\A1;9
  7
OPNUS
 73
     1
 44
1.0
1001
ACAD
1000
MTEXTBEGIN
1070
    73
1070
     1
1070
    44
1040
1.0
1070
    74
1070
     0
1000
MTEXTEND
  0
POINT
  5
EC6
330
DF5
100
AcDbEntity
  8
Defpoints
 62
     0
100
AcDbPoint
 10
-328.9945849635606
 20
-166.8015215300406
 30
0.0
  0
POINT
  5
EC7
330
DF5
100
AcDbEntity
  8
Defpoints
 62
     0
100
AcDbPoint
 10
-319.9945853509908
 20
-166.413017524072
 30
0.0
  0
POINT
  5
EC8
330
DF5
100
AcDbEntity
  8
Defpoints
 62
     0
100
AcDbPoint
 10
-319.9945853509908
 20
-158.9999999999999
 30
0.0
  0
ENDBLK
  5
E00
330
DF5
100
AcDbEntity
  8
0
100
AcDbBlockEnd
  0
BLOCK
  5
E0B
330
E01
100
AcDbEntity
  8
0
100
AcDbBlockBegin
  2
*D44
 70
     1
 10
0.0
 20
0.0
 30
0.0
  3
*D44
  1

  0
LINE
  5
EC9
330
E01
100
AcDbEntity
  8
0
 62
     6
370
    15
100
AcDbLine
 10
-332.9945857831244
 20
-153.1130172998095
 30
0.0
 11
-305.0
 21
-153.1130172998095
 31
0.0
  0
LINE
  5
ECA
330
E01
100
AcDbEntity
  8
0
 62
     6
370
    15
100
AcDbLine
 10
-332.9945855261334
 20
-188.1130173743153
 30
0.0
 11
-305.0
 21
-188.1130173743154
 31
0.0
  0
LINE
  5
ECB
330
E01
100
AcDbEntity
  8
0
 62
     6
370
    15
100
AcDbLine
 10
-306.0
 20
-156.1130172998096
 30
0.0
 11
-306.0
 21
-185.1130173743154
 31
0.0
  0
SOLID
  5
ECC
330
E01
100
AcDbEntity
  8
0
 62
     6
100
AcDbTrace
 10
-306.5
 20
-156.1130172998096
 30
0.0
 11
-305.5
 21
-156.1130172998096
 31
0.0
 12
-306.0
 22
-153.1130172998095
 32
0.0
 13
-306.0
 23
-153.1130172998095
 33
0.0
  0
SOLID
  5
ECD
330
E01
100
AcDbEntity
  8
0
 62
     6
100
AcDbTrace
 10
-306.5
 20
-185.1130173743154
 30
0.0
 11
-305.5
 21
-185.1130173743154
 31
0.0
 12
-306.0
 22
-188.1130173743154
 32
0.0
 13
-306.0
 23
-188.1130173743154
 33
0.0
  0
MTEXT
  5
ECE
330
E01
100
AcDbEntity
  8
0
 62
     2
100
AcDbMText
 10
-308.4517045454545
 20
-170.6130173370625
 30
0.0
 40
3.0
 41
0.0
 71
     5
 72
     1
  1
\A1;φ35
  7
OPNUS
 11
0.0000000000000001
 21
1.0
 31
0.0
 73
     1
 44
1.0
1001
ACAD
1000
MTEXTBEGIN
1070
    73
1070
     1
1070
    44
1040
1.0
1070
    74
1070
     0
1000
MTEXTEND
  0
POINT
  5
ECF
330
E01
100
AcDbEntity
  8
Defpoints
 62
     0
100
AcDbPoint
 10
-333.9945857831244
 20
-153.1130172998095
 30
0.0
  0
POINT
  5
ED0
330
E01
100
AcDbEntity
  8
Defpoints
 62
     0
100
AcDbPoint
 10
-333.9945855261334
 20
-188.1130173743153
 30
0.0
  0
POINT
  5
ED1
330
E01
100
AcDbEntity
  8
Defpoints
 62
     0
100
AcDbPoint
 10
-306.0
 20
-188.1130173743154
 30
0.0
  0
ENDBLK
  5
E0C
330
E01
100
AcDbEntity
  8
0
100
AcDbBlockEnd
  0
BLOCK
  5
E17
330
E0D
100
AcDbEntity
  8
0
100
AcDbBlockBegin
  2
*D45
 70
     1
 10
0.0
 20
0.0
 30
0.0
  3
*D45
  1

  0
LINE
  5
ED2
330
E0D
100
AcDbEntity
  8
0
 62
     6
370
    15
100
AcDbLine
 10
-257.3735121217705
 20
-163.3923354654141
 30
0.0
 11
-257.3735121217705
 21
-127.9999999999999
 31
0.0
  0
LINE
  5
ED3
330
E0D
100
AcDbEntity
  8
0
 62
     6
370
    15
100
AcDbLine
 10
-232.3735121217705
 20
-163.3923354654141
 30
0.0
 11
-232.3735121217705
 21
-127.9999999999999
 31
0.0
  0
LINE
  5
ED4
330
E0D
100
AcDbEntity
  8
0
 62
     6
370
    15
100
AcDbLine
 10
-254.3735121217705
 20
-128.9999999999999
 30
0.0
 11
-235.3735121217706
 21
-128.9999999999999
 31
0.0
  0
SOLID
  5
ED5
330
E0D
100
AcDbEntity
  8
0
 62
     6
100
AcDbTrace
 10
-254.3735121217705
 20
-128.4999999999999
 30
0.0
 11
-254.3735121217705
 21
-129.4999999999999
 31
0.0
 12
-257.3735121217705
 22
-128.9999999999999
 32
0.0
 13
-257.3735121217705
 23
-128.9999999999999
 33
0.0
  0
SOLID
  5
ED6
330
E0D
100
AcDbEntity
  8
0
 62
     6
100
AcDbTrace
 10
-235.3735121217706
 20
-128.4999999999999
 30
0.0
 11
-235.3735121217706
 21
-129.4999999999999
 31
0.0
 12
-232.3735121217705
 22
-128.9999999999999
 32
0.0
 13
-232.3735121217705
 23
-128.9999999999999
 33
0.0
  0
MTEXT
  5
ED7
330
E0D
100
AcDbEntity
  8
0
 62
     2
100
AcDbMText
 10
-244.8735121217705
 20
-126.9999999999999
 30
0.0
 40
3.0
 41
0.0
 71
     5
 72
     1
  1
\A1;25
  7
OPNUS
 73
     1
 44
1.0
1001
ACAD
1000
MTEXTBEGIN
1070
    73
1070
     1
1070
    44
1040
1.0
1070
    74
1070
     0
1000
MTEXTEND
  0
POINT
  5
ED8
330
E0D
100
AcDbEntity
  8
Defpoints
 62
     0
100
AcDbPoint
 10
-257.3735121217705
 20
-164.3923354654141
 30
0.0
  0
POINT
  5
ED9
330
E0D
100
AcDbEntity
  8
Defpoints
 62
     0
100
AcDbPoint
 10
-232.3735121217705
 20
-164.3923354654141
 30
0.0
  0
POINT
  5
EDA
330
E0D
100
AcDbEntity
  8
Defpoints
 62
     0
100
AcDbPoint
 10
-232.3735121217705
 20
-128.9999999999999
 30
0.0
  0
ENDBLK
  5
E18
330
E0D
100
AcDbEntity
  8
0
100
AcDbBlockEnd
  0
ENDSEC
  0
SECTION
  2
ENTITIES
  0
LINE
  5
93
330
2
100
AcDbEntity
  8
0
100
AcDbLine
 10
-124.0669869999999
 20
-139.0499999999999
 30
0.0
 11
-124.0669869999999
 21
-137.5499999999999
 31
0.0
  0
LINE
  5
94
330
2
100
AcDbEntity
  8
0
100
AcDbLine
 10
-124.0669869999999
 20
-137.5499999999999
 30
0.0
 11
-124.0669869999999
 21
-136.0499999999999
 31
0.0
  0
LINE
  5
99
330
2
100
AcDbEntity
  8
0
100
AcDbLine
 10
-124.0669869999999
 20
-136.0499999999999
 30
0.0
 11
-134.0669870000013
 21
-136.0499999999998
 31
0.0
  0
LINE
  5
9A
330
2
100
AcDbEntity
  8
0
100
AcDbLine
 10
-134.0669870000003
 20
-139.0499999999999
 30
0.0
 11
-124.0669869999999
 21
-139.0499999999999
 31
0.0
  0
CIRCLE
  5
B4
330
2
100
AcDbEntity
  8
0
100
AcDbCircle
 10
-145.230668777288
 20
-152.1392250438282
 30
0.0
 40
4.199999999999988
  0
LINE
  5
B6
330
2
100
AcDbEntity
  8
0
100
AcDbLine
 10
-145.7257845367806
 20
-149.890789133237
 30
0.0
 11
-145.742843108614
 21
-151.0330810163054
 31
0.0
  0
LINE
  5
B7
330
2
100
AcDbEntity
  8
0
100
AcDbLine
 10
-145.742843108614
 20
-151.0330810163054
 30
0.0
 11
-145.9311876904596
 21
-151.4387061306566
 31
0.0
  0
LINE
  5
B8
330
2
100
AcDbEntity
  8
0
100
AcDbLine
 10
-145.9311876904596
 20
-151.4387061306566
 30
0.0
 11
-146.3368128048107
 21
-151.6270507125021
 31
0.0
  0
LINE
  5
B9
330
2
100
AcDbEntity
  8
0
100
AcDbLine
 10
-146.3368128048107
 20
-151.6270507125021
 30
0.0
 11
-147.4791046878791
 21
-151.6441092843355
 31
0.0
  0
ARC
  5
BA
330
2
100
AcDbEntity
  8
0
100
AcDbCircle
 10
-145.230668777288
 20
-152.139225043828
 30
0.0
 40
2.302303989340647
100
AcDbArc
 50
167.5814045740984
 51
192.4185954259033
  0
LINE
  5
BB
330
2
100
AcDbEntity
  8
0
100
AcDbLine
 10
-147.4791046878791
 20
-152.6343408033208
 30
0.0
 11
-146.3368128048107
 21
-152.6513993751541
 31
0.0
  0
LINE
  5
BC
330
2
100
AcDbEntity
  8
0
100
AcDbLine
 10
-146.3368128048107
 20
-152.6513993751541
 30
0.0
 11
-145.9311876904596
 21
-152.8397439569998
 31
0.0
  0
LINE
  5
BD
330
2
100
AcDbEntity
  8
0
100
AcDbLine
 10
-145.9311876904596
 20
-152.8397439569998
 30
0.0
 11
-145.7428431086139
 21
-153.2453690713508
 31
0.0
  0
LINE
  5
BE
330
2
100
AcDbEntity
  8
0
100
AcDbLine
 10
-145.7428431086139
 20
-153.2453690713508
 30
0.0
 11
-145.7257845367806
 21
-154.3876609544193
 31
0.0
  0
ARC
  5
BF
330
2
100
AcDbEntity
  8
0
100
AcDbCircle
 10
-145.230668777288
 20
-152.139225043828
 30
0.0
 40
2.302303989340661
100
AcDbArc
 50
257.5814045740976
 51
282.4185954259047
  0
LINE
  5
C0
330
2
100
AcDbEntity
  8
0
100
AcDbLine
 10
-144.7355530177954
 20
-154.3876609544193
 30
0.0
 11
-144.718494445962
 21
-153.2453690713508
 31
0.0
  0
LINE
  5
C1
330
2
100
AcDbEntity
  8
0
100
AcDbLine
 10
-144.718494445962
 20
-153.2453690713508
 30
0.0
 11
-144.5301498641162
 21
-152.8397439569993
 31
0.0
  0
LINE
  5
C2
330
2
100
AcDbEntity
  8
0
100
AcDbLine
 10
-144.5301498641162
 20
-152.8397439569993
 30
0.0
 11
-144.1245247497653
 21
-152.6513993751541
 31
0.0
  0
LINE
  5
C3
330
2
100
AcDbEntity
  8
0
100
AcDbLine
 10
-144.1245247497653
 20
-152.6513993751541
 30
0.0
 11
-142.9822328666968
 21
-152.6343408033207
 31
0.0
  0
ARC
  5
C4
330
2
100
AcDbEntity
  8
0
100
AcDbCircle
 10
-145.230668777288
 20
-152.139225043828
 30
0.0
 40
2.30230398934063
100
AcDbArc
 50
347.5814045740977
 51
12.41859542590288
  0
LINE
  5
C5
330
2
100
AcDbEntity
  8
0
100
AcDbLine
 10
-142.9822328666968
 20
-151.6441092843356
 30
0.0
 11
-144.1245247497653
 21
-151.6270507125021
 31
0.0
  0
LINE
  5
C6
330
2
100
AcDbEntity
  8
0
100
AcDbLine
 10
-144.1245247497653
 20
-151.6270507125021
 30
0.0
 11
-144.5301498641168
 21
-151.4387061306564
 31
0.0
  0
LINE
  5
C7
330
2
100
AcDbEntity
  8
0
100
AcDbLine
 10
-144.5301498641168
 20
-151.4387061306564
 30
0.0
 11
-144.718494445962
 21
-151.0330810163054
 31
0.0
  0
LINE
  5
C8
330
2
100
AcDbEntity
  8
0
100
AcDbLine
 10
-144.718494445962
 20
-151.0330810163054
 30
0.0
 11
-144.7355530177954
 21
-149.890789133237
 31
0.0
  0
ARC
  5
C9
330
2
100
AcDbEntity
  8
0
100
AcDbCircle
 10
-145.230668777288
 20
-152.139225043828
 30
0.0
 40
2.30230398934061
100
AcDbArc
 50
77.58140457409753
 51
102.4185954259047
  0
LINE
  5
CA
330
2
100
AcDbEntity
  8
0
100
AcDbLine
 10
-135.566987
 20
-156.339225043828
 30
0.0
 11
-133.3669869999999
 21
-154.139225043828
 31
0.0
  0
LINE
  5
CB
330
2
100
AcDbEntity
  8
0
100
AcDbLine
 10
-133.3669869999999
 20
-150.139225043828
 30
0.0
 11
-135.566987
 21
-147.939225043828
 31
0.0
  0
LINE
  5
CC
330
2
100
AcDbEntity
  8
0
100
AcDbLine
 10
-136.066987
 20
-156.339225043828
 30
0.0
 11
-135.566987
 21
-156.339225043828
 31
0.0
  0
LINE
  5
CD
330
2
100
AcDbEntity
  8
0
100
AcDbLine
 10
-135.566987
 20
-147.939225043828
 30
0.0
 11
-136.066987
 21
-147.939225043828
 31
0.0
  0
LINE
  5
CE
330
2
100
AcDbEntity
  8
0
100
AcDbLine
 10
-133.3669869999999
 20
-154.139225043828
 30
0.0
 11
-124.0669869999999
 21
-154.139225043828
 31
0.0
  0
LINE
  5
CF
330
2
100
AcDbEntity
  8
0
100
AcDbLine
 10
-124.0669869999999
 20
-150.139225043828
 30
0.0
 11
-133.3669869999999
 21
-150.139225043828
 31
0.0
  0
LINE
  5
D0
330
2
100
AcDbEntity
  8
0
100
AcDbLine
 10
-135.566987
 20
-152.139225043828
 30
0.0
 11
-135.566987
 21
-147.939225043828
 31
0.0
  0
LINE
  5
D1
330
2
100
AcDbEntity
  8
0
100
AcDbLine
 10
-135.566987
 20
-156.339225043828
 30
0.0
 11
-135.566987
 21
-152.139225043828
 31
0.0
  0
LINE
  5
D2
330
2
100
AcDbEntity
  8
0
100
AcDbLine
 10
-136.066987
 20
-152.139225043828
 30
0.0
 11
-136.066987
 21
-147.939225043828
 31
0.0
  0
LINE
  5
D3
330
2
100
AcDbEntity
  8
0
100
AcDbLine
 10
-136.066987
 20
-156.339225043828
 30
0.0
 11
-136.066987
 21
-152.139225043828
 31
0.0
  0
LINE
  5
D4
330
2
100
AcDbEntity
  8
0
100
AcDbLine
 10
-124.0669869999999
 20
-152.139225043828
 30
0.0
 11
-124.0669869999999
 21
-150.139225043828
 31
0.0
  0
LINE
  5
D5
330
2
100
AcDbEntity
  8
0
100
AcDbLine
 10
-124.0669869999999
 20
-154.139225043828
 30
0.0
 11
-124.0669869999999
 21
-152.139225043828
 31
0.0
  0
LINE
  5
D6
330
2
100
AcDbEntity
  8
0
100
AcDbLine
 10
-133.366987
 20
-152.139225043828
 30
0.0
 11
-133.3669869999999
 21
-150.139225043828
 31
0.0
  0
LINE
  5
D7
330
2
100
AcDbEntity
  8
0
100
AcDbLine
 10
-133.3669869999999
 20
-154.139225043828
 30
0.0
 11
-133.366987
 21
-152.139225043828
 31
0.0
  0
LINE
  5
11A
330
2
100
AcDbEntity
  8
T
100
AcDbLine
 10
-232.3735121217705
 20
-164.3923354654141
 30
0.0
 11
-232.3735121217705
 21
-176.833699283217
 31
0.0
  0
LINE
  5
11D
330
2
100
AcDbEntity
  8
T
100
AcDbLine
 10
-257.3735121217705
 20
-164.3923354654141
 30
0.0
 11
-257.3735121217705
 21
-176.8336992832171
 31
0.0
  0
CIRCLE
  5
13A
330
2
100
AcDbEntity
  8
0
100
AcDbCircle
 10
244.8735121217705
 20
-170.6130173743155
 30
-0.0000000000017099
 40
17.5
210
0.000000000000007
220
0.0
230
-1.0
  0
CIRCLE
  5
13B
330
2
100
AcDbEntity
  8
0
100
AcDbCircle
 10
-253.700552842397
 20
-182.1166408085384
 30
0.0
 40
1.375
  0
CIRCLE
  5
13C
330
2
100
AcDbEntity
  8
0
100
AcDbCircle
 10
253.700552842397
 20
-159.1093939400927
 30
-0.0000000000017716
 40
1.375
210
0.000000000000007
220
0.0
230
-1.0
  0
CIRCLE
  5
13D
330
2
100
AcDbEntity
  8
0
100
AcDbCircle
 10
-236.0464714011441
 20
-159.1093939400927
 30
0.0
 40
1.374999999999971
  0
CIRCLE
  5
13E
330
2
100
AcDbEntity
  8
0
100
AcDbCircle
 10
236.0464714011441
 20
-182.1166408085384
 30
-0.0000000000016483
 40
1.374999999999971
210
0.000000000000007
220
0.0
230
-1.0
  0
CIRCLE
  5
13F
330
2
100
AcDbEntity
  8
0
100
AcDbCircle
 10
-244.8735121217705
 20
-170.6130173743155
 30
0.0
 40
24.0
  0
CIRCLE
  5
140
330
2
100
AcDbEntity
  8
0
100
AcDbCircle
 10
244.8735121217705
 20
-170.6130173743155
 30
-0.0000000000017099
 40
5.000000000000014
210
0.000000000000007
220
0.0
230
-1.0
  0
LINE
  5
141
330
2
100
AcDbEntity
  8
0
100
AcDbLine
 10
-335.494585097671
 20
-146.6130171656991
 30
0.0
 11
-336.4945852615838
 21
-146.6130171656991
 31
0.0
  0
LINE
  5
142
330
2
100
AcDbEntity
  8
0
100
AcDbLine
 10
-336.4945852615838
 20
-194.6130175829316
 30
0.0
 11
-335.494585097671
 21
-194.6130175829316
 31
0.0
  0
LINE
  5
143
330
2
100
AcDbEntity
  8
0
100
AcDbLine
 10
-336.4945852615838
 20
-146.6130171656991
 30
0.0
 11
-344.3463493556683
 21
-148.7168916255618
 31
0.0
  0
LINE
  5
144
330
2
100
AcDbEntity
  8
0
100
AcDbLine
 10
-344.3463493556683
 20
-192.5091431230689
 30
0.0
 11
-336.4945852615838
 21
-194.6130175829316
 31
0.0
  0
ARC
  5
145
330
2
100
AcDbEntity
  8
0
100
AcDbCircle
 10
-344.2945855298049
 20
-148.9100763113601
 30
0.0
 40
0.2000000000000149
100
AcDbArc
 50
104.9999999999944
 51
180.0
  0
ARC
  5
146
330
2
100
AcDbEntity
  8
0
100
AcDbCircle
 10
-344.2945855298049
 20
-192.3159584372706
 30
0.0
 40
0.2000000000000028
100
AcDbArc
 50
180.0
 51
255.0000000000056
  0
ARC
  5
147
330
2
100
AcDbEntity
  8
0
100
AcDbCircle
 10
-333.9945855298047
 20
-187.6130173743153
 30
0.0
 40
0.5
100
AcDbArc
 50
270.0
 51
0.0
  0
ARC
  5
148
330
2
100
AcDbEntity
  8
0
100
AcDbCircle
 10
-333.9945855298047
 20
-153.6130173743153
 30
0.0
 40
0.5
100
AcDbArc
 50
0.0
 51
90.0
  0
LINE
  5
149
330
2
100
AcDbEntity
  8
0
100
AcDbLine
 10
-333.9945857831244
 20
-153.1130172998095
 30
0.0
 11
-335.494585097671
 21
-153.1130172998095
 31
0.0
  0
LINE
  5
14A
330
2
100
AcDbEntity
  8
0
100
AcDbLine
 10
-335.494585097671
 20
-188.1130174488211
 30
0.0
 11
-333.9945857831244
 21
-188.1130174488211
 31
0.0
  0
ARC
  5
14B
330
2
100
AcDbEntity
  8
0
100
AcDbCircle
 10
-344.6945855298047
 20
-192.2223722997468
 30
0.0
 40
0.2000000000000028
100
AcDbArc
 50
255.0000000000056
 51
0.0
  0
ARC
  5
14C
330
2
100
AcDbEntity
  8
0
100
AcDbCircle
 10
-344.6945855298047
 20
-149.0036624488834
 30
0.0
 40
0.2000000000000028
100
AcDbArc
 50
0.0
 51
104.9999999999944
  0
LINE
  5
14D
330
2
100
AcDbEntity
  8
0
100
AcDbLine
 10
-344.7463491418366
 20
-148.8104765057946
 30
0.0
 11
-350.8214463897948
 21
-150.4382942557717
 31
0.0
  0
LINE
  5
14E
330
2
100
AcDbEntity
  8
0
100
AcDbLine
 10
-350.8214463897948
 20
-190.787740492859
 30
0.0
 11
-344.7463491418366
 21
-192.4155582428361
 31
0.0
  0
ARC
  5
14F
330
2
100
AcDbEntity
  8
0
100
AcDbCircle
 10
-364.3364287155298
 20
-168.5133157504846
 30
0.0
 40
16.64069243723001
100
AcDbArc
 50
0.0466657161315746
 51
10.0317888904347
  0
ARC
  5
150
330
2
100
AcDbEntity
  8
0
100
AcDbCircle
 10
-365.5041859564019
 20
-172.5846598064462
 30
0.0
 40
17.8137423022651
100
AcDbArc
 50
350.2165905567427
 51
359.5435507587255
  0
LINE
  5
151
330
2
100
AcDbEntity
  8
0
100
AcDbLine
 10
-347.7097721722878
 20
-168.4993689168627
 30
0.0
 11
-347.7097721722878
 21
-172.726665831768
 31
0.0
  0
ARC
  5
152
330
2
100
AcDbEntity
  8
0
100
AcDbCircle
 10
-347.4531451477478
 20
-165.5339433285794
 30
0.0
 40
0.4999999999999972
100
AcDbArc
 50
186.2981462376282
 51
189.0038567398238
  0
ARC
  5
153
330
2
100
AcDbEntity
  8
0
100
AcDbCircle
 10
-362.7877040054616
 20
-165.9667615190605
 30
0.0
 40
14.70858615832806
100
AcDbArc
 50
13.09136927596795
 51
26.93279317086843
  0
LINE
  5
154
330
2
100
AcDbEntity
  8
0
100
AcDbLine
 10
-348.4443300356127
 20
-162.7082139939452
 30
0.0
 11
-348.4023845474205
 21
-162.9005861223126
 31
0.0
  0
ARC
  5
155
330
2
100
AcDbEntity
  8
0
100
AcDbCircle
 10
-365.75957706435
 20
-174.1526038516089
 30
0.0
 40
17.86349387412988
100
AcDbArc
 50
334.2184599577418
 51
354.7071413971882
  0
LINE
  5
156
330
2
100
AcDbEntity
  8
0
100
AcDbLine
 10
-347.9550514555506
 20
-175.638634221294
 30
0.0
 11
-347.9722494910441
 21
-175.8004482590044
 31
0.0
  0
ARC
  5
157
330
2
100
AcDbEntity
  8
0
100
AcDbCircle
 10
-327.0052832378135
 20
-147.2900395140304
 30
0.0
 40
25.64009227574699
100
AcDbArc
 50
203.0419137429192
 51
207.8839673796913
  0
ARC
  5
158
330
2
100
AcDbEntity
  8
0
100
AcDbCircle
 10
-329.9535282246564
 20
-192.4077091865969
 30
0.0
 40
22.32750744762663
100
AcDbArc
 50
151.9990392263889
 51
157.6005218950722
  0
ARC
  5
159
330
2
100
AcDbEntity
  8
0
100
AcDbCircle
 10
-342.6031147822225
 20
-153.7788294639448
 30
0.0
 40
8.743148563033427
100
AcDbArc
 50
182.6642067818212
 51
203.9793921768
  0
LINE
  5
15A
330
2
100
AcDbEntity
  8
0
100
AcDbLine
 10
-351.337419003152
 20
-154.0716890931512
 30
0.0
 11
-351.3368129449866
 21
-154.185232216158
 31
0.0
  0
ARC
  5
15B
330
2
100
AcDbEntity
  8
0
100
AcDbCircle
 10
-342.518262309183
 20
-187.461804207211
 30
0.0
 40
8.826817370270843
100
AcDbArc
 50
156.1619332098636
 51
177.5724738850042
  0
ARC
  5
15C
330
2
100
AcDbEntity
  8
0
100
AcDbCircle
 10
-350.6920369089885
 20
-150.9212575567039
 30
0.0
 40
0.4999999999999979
100
AcDbArc
 50
104.9999999999944
 51
172.4311511299205
  0
ARC
  5
15D
330
2
100
AcDbEntity
  8
0
100
AcDbCircle
 10
-350.6920369089885
 20
-190.3047771919268
 30
0.0
 40
0.4999999999999979
100
AcDbArc
 50
187.5688488700794
 51
255.0000000000056
  0
ARC
  5
15E
330
2
100
AcDbEntity
  8
0
100
AcDbCircle
 10
-202.4945855297956
 20
-170.6130173743153
 30
0.0
 40
150.0000000000092
100
AcDbArc
 50
187.1083342072598
 51
187.5688488700536
  0
ARC
  5
15F
330
2
100
AcDbEntity
  8
0
100
AcDbCircle
 10
-202.4945855297956
 20
-170.6130173743153
 30
0.0
 40
150.0000000000092
100
AcDbArc
 50
172.4311511299464
 51
172.8916657927402
  0
LWPOLYLINE
  5
160
330
2
100
AcDbEntity
  8
0
100
AcDbPolyline
 90
        3
 70
   128
 43
0.0
 10
-351.3452444410853
 20
-153.6273308784152
 10
-351.3452680733956
 20
-153.7835136741782
 10
-351.3429273105196
 20
-154.042542421856
  0
LWPOLYLINE
  5
161
330
2
100
AcDbEntity
  8
0
100
AcDbPolyline
 90
        3
 70
   128
 43
0.0
 10
-351.3433670111901
 20
-187.1580821216489
 10
-351.3447669054351
 20
-187.3249900281811
 10
-351.3445267406262
 20
-187.5932779848958
  0
ARC
  5
162
330
2
100
AcDbEntity
  8
0
100
AcDbCircle
 10
-350.8455208150265
 20
-152.1130173743153
 30
0.0
 40
0.5
100
AcDbArc
 50
172.8916657927143
 51
180.0
  0
ARC
  5
163
330
2
100
AcDbEntity
  8
0
100
AcDbCircle
 10
-350.8455208150265
 20
-189.1130173743153
 30
0.0
 40
0.5
100
AcDbArc
 50
180.0
 51
187.1083342072856
  0
LINE
  5
164
330
2
100
AcDbEntity
  8
0
100
AcDbLine
 10
-351.3455208110593
 20
-187.6007937580729
 30
0.0
 11
-351.345520811059
 21
-189.1130176127339
 31
0.0
  0
LINE
  5
165
330
2
100
AcDbEntity
  8
0
100
AcDbLine
 10
-351.345520811059
 20
-152.1130171358968
 30
0.0
 11
-351.3455208110593
 21
-153.6252409905577
 31
0.0
  0
ARC
  5
166
330
2
100
AcDbEntity
  8
0
100
AcDbCircle
 10
-351.8306160114002
 20
-163.6130173743153
 30
0.0
 40
0.5000000000000286
100
AcDbArc
 50
141.7800233897985
 51
177.3162732412058
  0
ARC
  5
167
330
2
100
AcDbEntity
  8
0
100
AcDbCircle
 10
-351.8306160114002
 20
-177.6130173743153
 30
0.0
 40
0.5000000000000286
100
AcDbArc
 50
182.6837267587941
 51
218.2199766102015
  0
ARC
  5
168
330
2
100
AcDbEntity
  8
0
100
AcDbCircle
 10
-202.4945855298047
 20
-170.6130173743153
 30
0.0
 40
150.0
100
AcDbArc
 50
177.3162732411538
 51
182.6837267588462
  0
ARC
  5
169
330
2
100
AcDbEntity
  8
0
100
AcDbCircle
 10
-351.7234366277075
 20
-162.7030871076035
 30
0.0
 40
0.5000000000000071
100
AcDbArc
 50
177.0518036258598
 51
180.0
  0
ARC
  5
16A
330
2
100
AcDbEntity
  8
0
100
AcDbCircle
 10
-202.4945855298049
 20
-170.6130173743153
 30
0.0
 40
150.0
100
AcDbArc
 50
183.4513310695404
 51
186.5293623642403
  0
ARC
  5
16B
330
2
100
AcDbEntity
  8
0
100
AcDbCircle
 10
-202.4945855298049
 20
-170.6130173743153
 30
0.0
 40
150.0
100
AcDbArc
 50
173.4706376357597
 51
176.5486689304595
  0
ARC
  5
16C
330
2
100
AcDbEntity
  8
0
100
AcDbCircle
 10
-351.7234366277075
 20
-161.6130173743153
 30
0.0
 40
0.5
100
AcDbArc
 50
176.5486689304595
 51
180.0
  0
ARC
  5
16D
330
2
100
AcDbEntity
  8
0
100
AcDbCircle
 10
-351.7234366277075
 20
-179.6130173743153
 30
0.0
 40
0.5
100
AcDbArc
 50
180.0
 51
183.4513310695664
  0
LINE
  5
16E
330
2
100
AcDbEntity
  8
0
100
AcDbLine
 10
-352.2234365762179
 20
-161.8977081716443
 30
0.0
 11
-352.2234365762179
 21
-162.7030870631719
 31
0.0
  0
LINE
  5
16F
330
2
100
AcDbEntity
  8
0
100
AcDbLine
 10
-352.2234365762179
 20
-177.9223587118471
 30
0.0
 11
-352.2234365762179
 21
-179.3283265769864
 31
0.0
  0
LINE
  5
170
330
2
100
AcDbEntity
  8
0
100
AcDbLine
 10
-352.2234365762179
 20
-179.3283265769864
 30
0.0
 11
-352.2234365762179
 21
-179.6130169868851
 31
0.0
  0
LINE
  5
171
330
2
100
AcDbEntity
  8
0
100
AcDbLine
 10
-352.2234365762179
 20
-161.6130177617455
 30
0.0
 11
-352.2234365762179
 21
-161.8977081716443
 31
0.0
  0
ARC
  5
172
330
2
100
AcDbEntity
  8
0
100
AcDbCircle
 10
-351.0248854689082
 20
-153.6130173743153
 30
0.0
 40
0.5000000000000063
100
AcDbArc
 50
129.8866372070555
 51
173.4706376357597
  0
ARC
  5
173
330
2
100
AcDbEntity
  8
0
100
AcDbCircle
 10
-351.0248854689082
 20
-187.6130173743153
 30
0.0
 40
0.5000000000000079
100
AcDbArc
 50
186.5293623642403
 51
230.1133627929445
  0
LINE
  5
174
330
2
100
AcDbEntity
  8
0
100
AcDbLine
 10
-336.4945852615838
 20
-146.6130171656991
 30
0.0
 11
-336.4945852615838
 21
-194.6130175829316
 31
0.0
  0
LINE
  5
175
330
2
100
AcDbEntity
  8
0
100
AcDbLine
 10
-335.494585097671
 20
-146.6130171656991
 30
0.0
 11
-335.494585097671
 21
-194.6130175829316
 31
0.0
  0
LINE
  5
176
330
2
100
AcDbEntity
  8
0
100
AcDbLine
 10
-344.4945856415634
 20
-192.3159588814164
 30
0.0
 11
-344.4945856415634
 21
-148.9100758672143
 31
0.0
  0
LINE
  5
177
330
2
100
AcDbEntity
  8
0
100
AcDbLine
 10
-333.4945847698457
 20
-170.6130173743153
 30
0.0
 11
-333.4945847698455
 21
-187.6130182981873
 31
0.0
  0
LINE
  5
178
330
2
100
AcDbEntity
  8
0
100
AcDbLine
 10
-333.4945847698455
 20
-153.6130164504433
 30
0.0
 11
-333.4945847698457
 21
-170.6130173743153
 31
0.0
  0
ARC
  5
179
330
2
100
AcDbEntity
  8
0
100
AcDbCircle
 10
-369.883319979642
 20
-167.88670595876
 30
0.0
 40
22.05493488670299
100
AcDbArc
 50
6.021644576951514
 51
13.16046774614491
  0
LWPOLYLINE
  5
17A
330
2
100
AcDbEntity
  8
0
100
AcDbPolyline
 90
        3
 70
   128
 43
0.0
 10
-347.9501274366833
 20
-165.5887942515696
 10
-347.9504039230726
 20
-165.585616578945
 10
-347.9500767960183
 20
-165.5730516404296
  0
LINE
  5
17B
330
2
100
AcDbEntity
  8
0
100
AcDbLine
 10
-350.6000672885186
 20
-157.3260039776946
 30
0.0
 11
-350.5967565531812
 21
-157.3337991476441
 31
0.0
  0
LINE
  5
17C
330
2
100
AcDbEntity
  8
0
100
AcDbLine
 10
-352.2225297008608
 20
-162.67663284544
 30
0.0
 11
-352.2225297008608
 21
-178.5494019031907
 31
0.0
  0
LINE
  5
17D
330
2
100
AcDbEntity
  8
0
100
AcDbLine
 10
-352.2234365762179
 20
-162.7030870631719
 30
0.0
 11
-352.2225297008608
 21
-162.67663284544
 31
0.0
  0
LINE
  5
17E
330
2
100
AcDbEntity
  8
0
100
AcDbLine
 10
-352.2225297008608
 20
-161.582917416134
 30
0.0
 11
-352.2225297008608
 21
-161.868559637704
 31
0.0
  0
ARC
  5
1DD
330
2
100
AcDbEntity
  8
0
  6
HIDDEN2
370
    15
100
AcDbCircle
 10
-365.494585097671
 20
-170.6130173743153
 30
0.0
 40
7.0
100
AcDbArc
 50
144.9768148328311
 51
215.0231851671688
  0
ARC
  5
1DF
330
2
100
AcDbEntity
  8
0
  6
HIDDEN2
370
    15
100
AcDbCircle
 10
-342.5648285915508
 20
-186.6824376056128
 30
0.0
 40
35.0
100
AcDbArc
 50
113.3280559994234
 51
144.9768148328311
  0
ARC
  5
1E0
330
2
100
AcDbEntity
  8
0
  6
HIDDEN2
370
    15
100
AcDbCircle
 10
-342.5648285915508
 20
-154.5435971430178
 30
0.0
 40
35.0
100
AcDbArc
 50
215.0231851671688
 51
246.6719440005766
  0
ARC
  5
1E1
330
2
100
AcDbEntity
  8
0
  6
HIDDEN2
370
    15
100
AcDbCircle
 10
-202.4947444229113
 20
-170.6130173743153
 30
0.0
 40
151.0
100
AcDbArc
 50
173.702756361753
 51
177.2286381810841
  0
ARC
  5
1E2
330
2
100
AcDbEntity
  8
0
  6
HIDDEN2
370
    15
100
AcDbCircle
 10
-202.4947444229113
 20
-170.6130173743153
 30
0.0
 40
151.0
100
AcDbArc
 50
182.7713618189158
 51
186.2972436382469
  0
ARC
  5
1E3
330
2
100
AcDbEntity
  8
0
  6
HIDDEN2
370
    15
100
AcDbCircle
 10
-353.0806287766527
 20
-153.9955135484815
 30
0.0
 40
0.5
100
AcDbArc
 50
353.7027563617531
 51
102.1771145444525
  0
ARC
  5
1E4
330
2
100
AcDbEntity
  8
0
  6
HIDDEN2
370
    15
100
AcDbCircle
 10
-353.0806287766527
 20
-187.2305212001492
 30
0.0
 40
0.5
100
AcDbArc
 50
257.8228854555475
 51
6.297243638246937
  0
ARC
  5
1E5
330
2
100
AcDbEntity
  8
0
  6
HIDDEN2
370
    15
100
AcDbCircle
 10
-349.4947444229112
 20
-170.6130173743153
 30
0.0
 40
17.5
100
AcDbArc
 50
102.1771145444525
 51
113.3280559994234
  0
ARC
  5
1E6
330
2
100
AcDbEntity
  8
0
  6
HIDDENX2
370
    15
100
AcDbCircle
 10
-349.4947444229112
 20
-170.6130173743153
 30
0.0
 40
17.5
100
AcDbArc
 50
246.6719440005766
 51
257.8228854555475
  0
ARC
  5
1E8
330
2
100
AcDbEntity
  8
0
  6
HIDDEN2
370
    15
100
AcDbCircle
 10
-352.8187240147481
 20
-163.3362626255929
 30
0.0
 40
0.5
100
AcDbArc
 50
177.2286381810841
 51
294.5506471193427
  0
ARC
  5
1E9
330
2
100
AcDbEntity
  8
0
  6
HIDDEN2
370
    15
100
AcDbCircle
 10
-352.8187240147481
 20
-177.8897721230377
 30
0.0
 40
0.5
100
AcDbArc
 50
65.44935288065729
 51
182.7713618189158
  0
LINE
  5
222
330
2
100
AcDbEntity
  8
T
100
AcDbLine
 10
-244.8735121217705
 20
-141.1630825582624
 30
0.0
 11
-244.8735121217705
 21
-200.0629521903688
 31
0.0
  0
LINE
  5
223
330
2
100
AcDbEntity
  8
0
100
AcDbLine
 10
-319.9945853509908
 20
-166.413017524072
 30
0.0
 11
-319.9945853509908
 21
-166.7949680459136
 31
0.0
  0
LINE
  5
224
330
2
100
AcDbEntity
  8
0
100
AcDbLine
 10
-319.9945853509908
 20
-166.7949680459136
 30
0.0
 11
-319.9945853509908
 21
-168.8630173202986
 31
0.0
  0
LINE
  5
225
330
2
100
AcDbEntity
  8
0
100
AcDbLine
 10
-319.9945853509908
 20
-166.7949680459136
 30
0.0
 11
-320.4945863642697
 21
-166.2509650677825
 31
0.0
  0
LINE
  5
226
330
2
100
AcDbEntity
  8
0
100
AcDbLine
 10
-319.9945853509908
 20
-172.363017428332
 30
0.0
 11
-319.9945853509908
 21
-174.431066702717
 31
0.0
  0
LINE
  5
227
330
2
100
AcDbEntity
  8
0
100
AcDbLine
 10
-319.9945853509908
 20
-174.431066702717
 30
0.0
 11
-319.9945853509908
 21
-174.8130172245587
 31
0.0
  0
LINE
  5
228
330
2
100
AcDbEntity
  8
0
100
AcDbLine
 10
-320.4945863642697
 20
-174.9750696808482
 30
0.0
 11
-319.9945853509908
 21
-174.431066702717
 31
0.0
  0
LINE
  5
229
330
2
100
AcDbEntity
  8
0
100
AcDbLine
 10
-319.9945853509908
 20
-168.8630173202986
 30
0.0
 11
-319.9945853509908
 21
-172.363017428332
 31
0.0
  0
LINE
  5
22A
330
2
100
AcDbEntity
  8
0
100
AcDbLine
 10
-320.4945863642697
 20
-168.8630173202986
 30
0.0
 11
-319.9945853509908
 21
-168.8630173202986
 31
0.0
  0
LINE
  5
22B
330
2
100
AcDbEntity
  8
0
100
AcDbLine
 10
-319.9945853509908
 20
-172.363017428332
 30
0.0
 11
-320.4945863642697
 21
-172.363017428332
 31
0.0
  0
LINE
  5
22C
330
2
100
AcDbEntity
  8
0
100
AcDbLine
 10
-320.4945863642697
 20
-174.9750696808482
 30
0.0
 11
-327.9945847996478
 21
-174.9750696808482
 31
0.0
  0
LWPOLYLINE
  5
22D
330
2
100
AcDbEntity
  8
0
100
AcDbPolyline
 90
        6
 70
   128
 43
0.0
 10
-327.9945847996478
 20
-174.9750696808482
 10
-328.3049741246705
 20
-174.9549288988496
 10
-328.580237687469
 20
-174.8942066669846
 10
-328.7961648263936
 20
-174.7913434856022
 10
-328.9390203961139
 20
-174.6413288392509
 10
-328.9945849635606
 20
-174.4245132185901
  0
LINE
  5
22E
330
2
100
AcDbEntity
  8
0
100
AcDbLine
 10
-328.9945849635606
 20
-173.3630173594142
 30
0.0
 11
-328.9945849635606
 21
-174.4245132185901
 31
0.0
  0
ARC
  5
22F
330
2
100
AcDbEntity
  8
0
100
AcDbCircle
 10
-327.9945861279864
 20
-173.363016263906
 30
0.0
 40
0.9999988355746877
100
AcDbArc
 50
89.99992389171255
 51
180.0
  0
LINE
  5
230
330
2
100
AcDbEntity
  8
0
100
AcDbLine
 10
-320.4945863642697
 20
-172.363017428332
 30
0.0
 11
-327.9945847996478
 21
-172.363017428332
 31
0.0
  0
LINE
  5
231
330
2
100
AcDbEntity
  8
0
100
AcDbLine
 10
-320.4945863642697
 20
-172.363017428332
 30
0.0
 11
-320.4945863642697
 21
-168.8630173202986
 31
0.0
  0
LINE
  5
232
330
2
100
AcDbEntity
  8
0
100
AcDbLine
 10
-320.4945863642697
 20
-168.8630173202986
 30
0.0
 11
-327.9945847996478
 21
-168.8630173202986
 31
0.0
  0
ARC
  5
233
330
2
100
AcDbEntity
  8
0
100
AcDbCircle
 10
-327.9945843014168
 20
-167.8630166581542
 30
0.0
 40
1.000000662144312
100
AcDbArc
 50
180.0
 51
269.999971453494
  0
LINE
  5
234
330
2
100
AcDbEntity
  8
0
100
AcDbLine
 10
-328.9945849635606
 20
-166.8015215300406
 30
0.0
 11
-328.9945849635606
 21
-167.8630173892165
 31
0.0
  0
LWPOLYLINE
  5
235
330
2
100
AcDbEntity
  8
0
100
AcDbPolyline
 90
        6
 70
   128
 43
0.0
 10
-328.9945849635606
 20
-166.8015215300406
 10
-328.9016073056464
 20
-166.5305979304398
 10
-328.7161400028472
 20
-166.3873689003671
 10
-328.4358920016293
 20
-166.2935600370551
 10
-328.1223287292724
 20
-166.254261018374
 10
-327.9945847996478
 20
-166.2509650677825
  0
LINE
  5
236
330
2
100
AcDbEntity
  8
0
100
AcDbLine
 10
-320.4945863642697
 20
-166.2509650677825
 30
0.0
 11
-327.9945847996478
 21
-166.2509650677825
 31
0.0
  0
LINE
  5
237
330
2
100
AcDbEntity
  8
0
100
AcDbLine
 10
-320.4945863642697
 20
-166.2509650677825
 30
0.0
 11
-320.4945863642697
 21
-165.9130174421156
 31
0.0
  0
LINE
  5
238
330
2
100
AcDbEntity
  8
0
100
AcDbLine
 10
-320.4945863642697
 20
-175.313017306515
 30
0.0
 11
-320.4945863642697
 21
-174.9750696808482
 31
0.0
  0
LINE
  5
239
330
2
100
AcDbEntity
  8
0
100
AcDbLine
 10
-319.9945853509908
 20
-166.413017524072
 30
0.0
 11
-320.4945863642697
 21
-165.9130174421156
 31
0.0
  0
LINE
  5
23A
330
2
100
AcDbEntity
  8
0
100
AcDbLine
 10
-320.4945863642697
 20
-175.313017306515
 30
0.0
 11
-319.9945853509908
 21
-174.8130172245587
 31
0.0
  0
LINE
  5
23B
330
2
100
AcDbEntity
  8
0
100
AcDbLine
 10
-320.4945863642697
 20
-165.9130174421156
 30
0.0
 11
-333.4945847698455
 21
-165.9130174421156
 31
0.0
  0
LINE
  5
23C
330
2
100
AcDbEntity
  8
0
100
AcDbLine
 10
-333.4945847698455
 20
-175.313017306515
 30
0.0
 11
-320.4945863642697
 21
-175.313017306515
 31
0.0
  0
ARC
  5
23D
330
2
100
AcDbEntity
  8
0
100
AcDbCircle
 10
-244.8735121217705
 20
-170.6130173743155
 30
0.0
 40
4.700000000000003
100
AcDbArc
 50
125.8105058363581
 51
144.1894941636418
  0
ARC
  5
23E
330
2
100
AcDbEntity
  8
0
100
AcDbCircle
 10
-244.8735121217705
 20
-170.6130173743155
 30
0.0
 40
4.700000000000019
100
AcDbArc
 50
215.8105058363582
 51
234.1894941636418
  0
ARC
  5
23F
330
2
100
AcDbEntity
  8
0
100
AcDbCircle
 10
-244.8735121217705
 20
-170.6130173743155
 30
0.0
 40
4.699999999999991
100
AcDbArc
 50
35.81050583635819
 51
54.18949416364182
  0
ARC
  5
240
330
2
100
AcDbEntity
  8
0
100
AcDbCircle
 10
-244.8735121217705
 20
-170.6130173743155
 30
0.0
 40
4.699999999999998
100
AcDbArc
 50
305.8105058363582
 51
324.1894941636418
  0
ARC
  5
241
330
2
100
AcDbEntity
  8
0
100
AcDbCircle
 10
-244.8734855516486
 20
-170.6130320151794
 30
0.0
 40
4.700030165696759
100
AcDbArc
 50
144.1895396238694
 51
158.1399245293723
  0
ARC
  5
242
330
2
100
AcDbEntity
  8
0
100
AcDbCircle
 10
-244.8734974808338
 20
-170.6129908040586
 30
0.0
 40
4.700030165848978
100
AcDbArc
 50
234.1895396241299
 51
248.1399245291787
  0
ARC
  5
243
330
2
100
AcDbEntity
  8
0
100
AcDbCircle
 10
-244.8735267627103
 20
-170.6130439445753
 30
0.0
 40
4.700030165852518
100
AcDbArc
 50
54.18953962410408
 51
68.13992452914489
  0
ARC
  5
244
330
2
100
AcDbEntity
  8
0
100
AcDbCircle
 10
-244.8735386918875
 20
-170.6130027334536
 30
0.0
 40
4.700030165691206
100
AcDbArc
 50
324.1895396238694
 51
338.1399245293723
  0
ARC
  5
245
330
2
100
AcDbEntity
  8
0
100
AcDbCircle
 10
-244.8734904463486
 20
-170.6130567216179
 30
0.0
 40
4.700044643401635
100
AcDbArc
 50
111.8600970632895
 51
125.8104387834093
  0
ARC
  5
246
330
2
100
AcDbEntity
  8
0
100
AcDbCircle
 10
-244.8734727746578
 20
-170.6129956989959
 30
0.0
 40
4.700044643187696
100
AcDbArc
 50
201.8600970629968
 51
215.810438783756
  0
ARC
  5
247
330
2
100
AcDbEntity
  8
0
100
AcDbCircle
 10
-244.8735514687719
 20
-170.6130390495738
 30
0.0
 40
4.700044643061252
100
AcDbArc
 50
21.86009706282747
 51
35.81043878395148
  0
ARC
  5
248
330
2
100
AcDbEntity
  8
0
100
AcDbCircle
 10
-244.8735337971673
 20
-170.6129780270623
 30
0.0
 40
4.700044643346525
100
AcDbArc
 50
291.8600970632315
 51
305.8104387835032
  0
LINE
  5
249
330
2
100
AcDbEntity
  8
0
100
AcDbLine
 10
-248.6915614501725
 20
-172.3630174283323
 30
0.0
 11
-249.2355644283037
 21
-172.3630174283323
 31
0.0
  0
LINE
  5
24A
330
2
100
AcDbEntity
  8
0
100
AcDbLine
 10
-249.2355644283037
 20
-168.8630173202988
 30
0.0
 11
-248.6915614501725
 21
-168.8630173202988
 31
0.0
  0
ARC
  5
24B
330
2
100
AcDbEntity
  8
0
100
AcDbCircle
 10
-244.8735121217708
 20
-170.6130173743155
 30
0.0
 40
4.700000000000025
100
AcDbArc
 50
158.1399700154158
 51
201.8600299845842
  0
LINE
  5
24C
330
2
100
AcDbEntity
  8
0
100
AcDbLine
 10
-243.1235120677541
 20
-166.2509650677827
 30
0.0
 11
-243.1235120677541
 21
-166.7949680459139
 31
0.0
  0
ARC
  5
24D
330
2
100
AcDbEntity
  8
0
100
AcDbCircle
 10
-244.8735121217708
 20
-170.6130173743155
 30
0.0
 40
4.700000000000009
100
AcDbArc
 50
68.13997001541093
 51
111.8600299845891
  0
LINE
  5
24E
330
2
100
AcDbEntity
  8
0
100
AcDbLine
 10
-246.6235121757875
 20
-166.7949680459139
 30
0.0
 11
-246.6235121757875
 21
-166.2509650677827
 31
0.0
  0
LINE
  5
24F
330
2
100
AcDbEntity
  8
0
100
AcDbLine
 10
-246.6235121757875
 20
-174.9750696808484
 30
0.0
 11
-246.6235121757875
 21
-174.4310667027172
 31
0.0
  0
ARC
  5
250
330
2
100
AcDbEntity
  8
0
100
AcDbCircle
 10
-244.8735121217708
 20
-170.6130173743155
 30
0.0
 40
4.699999999999993
100
AcDbArc
 50
248.1399700154109
 51
291.8600299845891
  0
LINE
  5
251
330
2
100
AcDbEntity
  8
0
100
AcDbLine
 10
-243.1235120677541
 20
-174.4310667027172
 30
0.0
 11
-243.1235120677541
 21
-174.9750696808484
 31
0.0
  0
LINE
  5
252
330
2
100
AcDbEntity
  8
0
100
AcDbLine
 10
-240.5114598152379
 20
-172.3630174283323
 30
0.0
 11
-241.0554627933691
 21
-172.3630174283323
 31
0.0
  0
ARC
  5
253
330
2
100
AcDbEntity
  8
0
100
AcDbCircle
 10
-244.8735121217708
 20
-170.6130173743155
 30
0.0
 40
4.699999999999983
100
AcDbArc
 50
338.1399700154158
 51
21.86002998458422
  0
LINE
  5
254
330
2
100
AcDbEntity
  8
0
100
AcDbLine
 10
-241.0554627933691
 20
-168.8630173202988
 30
0.0
 11
-240.5114598152379
 21
-168.8630173202988
 31
0.0
  0
LINE
  5
255
330
2
100
AcDbEntity
  8
0
100
AcDbLine
 10
-246.6235121757875
 20
-172.3630174283323
 30
0.0
 11
-246.6235121757875
 21
-174.4310667027172
 31
0.0
  0
ARC
  5
256
330
2
100
AcDbEntity
  8
0
100
AcDbCircle
 10
-244.8735121217708
 20
-170.6130173743155
 30
0.0
 40
4.200000000000016
100
AcDbArc
 50
245.375681647834
 51
294.624318352166
  0
LINE
  5
257
330
2
100
AcDbEntity
  8
0
100
AcDbLine
 10
-243.1235120677541
 20
-174.4310667027172
 30
0.0
 11
-243.1235120677541
 21
-172.3630174283323
 31
0.0
  0
LINE
  5
258
330
2
100
AcDbEntity
  8
0
100
AcDbLine
 10
-243.1235120677541
 20
-172.3630174283323
 30
0.0
 11
-241.0554627933691
 21
-172.3630174283323
 31
0.0
  0
ARC
  5
259
330
2
100
AcDbEntity
  8
0
100
AcDbCircle
 10
-244.8735121217708
 20
-170.6130173743155
 30
0.0
 40
4.199999999999985
100
AcDbArc
 50
335.3756816478458
 51
24.62431835215417
  0
LINE
  5
25A
330
2
100
AcDbEntity
  8
0
100
AcDbLine
 10
-241.0554627933691
 20
-168.8630173202988
 30
0.0
 11
-243.1235120677541
 21
-168.8630173202988
 31
0.0
  0
LINE
  5
25B
330
2
100
AcDbEntity
  8
0
100
AcDbLine
 10
-243.1235120677541
 20
-168.8630173202988
 30
0.0
 11
-243.1235120677541
 21
-166.7949680459139
 31
0.0
  0
ARC
  5
25C
330
2
100
AcDbEntity
  8
0
100
AcDbCircle
 10
-244.8735121217708
 20
-170.6130173743155
 30
0.0
 40
4.199999999999991
100
AcDbArc
 50
65.37568164783398
 51
114.624318352166
  0
LINE
  5
25D
330
2
100
AcDbEntity
  8
0
100
AcDbLine
 10
-246.6235121757875
 20
-166.7949680459139
 30
0.0
 11
-246.6235121757875
 21
-168.8630173202988
 31
0.0
  0
LINE
  5
25E
330
2
100
AcDbEntity
  8
0
100
AcDbLine
 10
-246.6235121757875
 20
-168.8630173202988
 30
0.0
 11
-248.6915614501725
 21
-168.8630173202988
 31
0.0
  0
ARC
  5
25F
330
2
100
AcDbEntity
  8
0
100
AcDbCircle
 10
-244.8735121217708
 20
-170.6130173743155
 30
0.0
 40
4.200000000000011
100
AcDbArc
 50
155.3756816478458
 51
204.6243183521542
  0
LINE
  5
260
330
2
100
AcDbEntity
  8
0
100
AcDbLine
 10
-248.6915614501725
 20
-172.3630174283323
 30
0.0
 11
-246.6235121757875
 21
-172.3630174283323
 31
0.0
  0
CIRCLE
  5
26D
330
2
100
AcDbEntity
  8
0
100
AcDbCircle
 10
257.3735121217705
 20
-170.6130173743155
 30
-0.0000000000017972
 40
2.199999999999988
210
0.000000000000007
220
0.0
230
-1.0
  0
CIRCLE
  5
26E
330
2
100
AcDbEntity
  8
0
100
AcDbCircle
 10
232.3735121217705
 20
-170.6130173743155
 30
-0.0000000000016227
 40
2.199999999999988
210
0.000000000000007
220
0.0
230
-1.0
  0
LINE
  5
26F
330
2
100
AcDbEntity
  8
0
100
AcDbLine
 10
-244.8268355112614
 20
-161.5980467513588
 30
0.0
 11
-244.5313805003334
 21
-161.5980467513588
 31
0.0
  0
LINE
  5
270
330
2
100
AcDbEntity
  8
0
100
AcDbLine
 10
-244.1563805261776
 20
-160.5866825893906
 30
0.0
 11
-244.8268355112614
 21
-161.5980467513588
 31
0.0
  0
LINE
  5
271
330
2
100
AcDbEntity
  8
0
100
AcDbLine
 10
-244.7700165141523
 20
-159.6548645511654
 30
0.0
 11
-244.1563805261776
 21
-160.5866825893906
 31
0.0
  0
LINE
  5
272
330
2
100
AcDbEntity
  8
0
100
AcDbLine
 10
-244.4745625182204
 20
-159.6548645511654
 30
0.0
 11
-244.7700165141523
 21
-159.6548645511654
 31
0.0
  0
LINE
  5
273
330
2
100
AcDbEntity
  8
0
100
AcDbLine
 10
-244.020016507633
 20
-160.3707731455949
 30
0.0
 11
-244.4745625182204
 21
-159.6548645511654
 31
0.0
  0
LINE
  5
274
330
2
100
AcDbEntity
  8
0
100
AcDbLine
 10
-243.5654715447836
 20
-159.6548645511654
 30
0.0
 11
-244.020016507633
 21
-160.3707731455949
 31
0.0
  0
LINE
  5
275
330
2
100
AcDbEntity
  8
0
100
AcDbLine
 10
-243.2700165593214
 20
-159.6548645511654
 30
0.0
 11
-243.5654715447836
 21
-159.6548645511654
 31
0.0
  0
LINE
  5
276
330
2
100
AcDbEntity
  8
0
100
AcDbLine
 10
-243.8836534786187
 20
-160.5866825893906
 30
0.0
 11
-243.2700165593214
 21
-159.6548645511654
 31
0.0
  0
LINE
  5
277
330
2
100
AcDbEntity
  8
0
100
AcDbLine
 10
-243.2131985481046
 20
-161.5980467513588
 30
0.0
 11
-243.8836534786187
 21
-160.5866825893906
 31
0.0
  0
LINE
  5
278
330
2
100
AcDbEntity
  8
0
100
AcDbLine
 10
-243.5086535335667
 20
-161.5980467513588
 30
0.0
 11
-243.2131985481046
 21
-161.5980467513588
 31
0.0
  0
LINE
  5
279
330
2
100
AcDbEntity
  8
0
100
AcDbLine
 10
-244.020016507633
 20
-160.8025920331862
 30
0.0
 11
-243.5086535335667
 21
-161.5980467513588
 31
0.0
  0
LINE
  5
27A
330
2
100
AcDbEntity
  8
0
100
AcDbLine
 10
-244.5313805003334
 20
-161.5980467513588
 30
0.0
 11
-244.020016507633
 21
-160.8025920331862
 31
0.0
  0
LINE
  5
27B
330
2
100
AcDbEntity
  8
0
100
AcDbLine
 10
-245.8988804648779
 20
-159.8873645753053
 30
0.0
 11
-245.8988804648779
 21
-161.5980467513588
 31
0.0
  0
LINE
  5
27C
330
2
100
AcDbEntity
  8
0
100
AcDbLine
 10
-246.5318354590945
 20
-159.8873645753053
 30
0.0
 11
-245.8988804648779
 21
-159.8873645753053
 31
0.0
  0
LINE
  5
27D
330
2
100
AcDbEntity
  8
0
100
AcDbLine
 10
-246.5318354590945
 20
-159.6548645511654
 30
0.0
 11
-246.5318354590945
 21
-159.8873645753053
 31
0.0
  0
LINE
  5
27E
330
2
100
AcDbEntity
  8
0
100
AcDbLine
 10
-244.9750165107925
 20
-159.6548645511654
 30
0.0
 11
-246.5318354590945
 21
-159.6548645511654
 31
0.0
  0
LINE
  5
27F
330
2
100
AcDbEntity
  8
0
100
AcDbLine
 10
-244.9750165107925
 20
-159.8873645753053
 30
0.0
 11
-244.9750165107925
 21
-159.6548645511654
 31
0.0
  0
LINE
  5
280
330
2
100
AcDbEntity
  8
0
100
AcDbLine
 10
-245.6227444856577
 20
-159.8873645753053
 30
0.0
 11
-244.9750165107925
 21
-159.8873645753053
 31
0.0
  0
LINE
  5
281
330
2
100
AcDbEntity
  8
0
100
AcDbLine
 10
-245.6227444856577
 20
-161.5980467513588
 30
0.0
 11
-245.6227444856577
 21
-159.8873645753053
 31
0.0
  0
LINE
  5
282
330
2
100
AcDbEntity
  8
0
100
AcDbLine
 10
-245.8988804648779
 20
-161.5980467513588
 30
0.0
 11
-245.6227444856577
 21
-161.5980467513588
 31
0.0
  0
LINE
  5
2A4
330
2
100
AcDbEntity
  8
0
100
AcDbLine
 10
-441.5926573955876
 20
-78.14538518255216
 30
0.0
 11
-441.5926573955876
 21
-79.14538534646493
 31
0.0
  0
LINE
  5
2A5
330
2
100
AcDbEntity
  8
0
100
AcDbLine
 10
-393.5926569783551
 20
-79.14538534646493
 30
0.0
 11
-393.5926569783551
 21
-78.14538518255216
 31
0.0
  0
LINE
  5
2A6
330
2
100
AcDbEntity
  8
0
100
AcDbLine
 10
-441.5926573955876
 20
-79.14538534646493
 30
0.0
 11
-439.4887829357249
 21
-86.99714944054944
 31
0.0
  0
LINE
  5
2A7
330
2
100
AcDbEntity
  8
0
100
AcDbLine
 10
-395.6965314382178
 20
-86.99714944054944
 30
0.0
 11
-393.5926569783551
 21
-79.14538534646493
 31
0.0
  0
ARC
  5
2A8
330
2
100
AcDbEntity
  8
0
100
AcDbCircle
 10
-439.2955982499265
 20
-86.94538561468602
 30
0.0
 40
0.1999999999999975
100
AcDbArc
 50
194.9999999999944
 51
270.0
  0
ARC
  5
2A9
330
2
100
AcDbEntity
  8
0
100
AcDbCircle
 10
-395.8897161240161
 20
-86.94538561468602
 30
0.0
 40
0.2000000000000112
100
AcDbArc
 50
270.0
 51
345.0000000000056
  0
LINE
  5
2AA
330
2
100
AcDbEntity
  8
0
100
AcDbLine
 10
-435.0926572614771
 20
-76.64538586800557
 30
0.0
 11
-435.0926572614771
 21
-78.14538518255216
 31
0.0
  0
LINE
  5
2AB
330
2
100
AcDbEntity
  8
0
100
AcDbLine
 10
-400.0926571124655
 20
-78.14538518255216
 30
0.0
 11
-400.0926571124655
 21
-76.64538586800557
 31
0.0
  0
ARC
  5
2AC
330
2
100
AcDbEntity
  8
0
100
AcDbCircle
 10
-400.5926571869713
 20
-76.64538561468629
 30
0.0
 40
0.5
100
AcDbArc
 50
0.0
 51
90.0
  0
ARC
  5
2AD
330
2
100
AcDbEntity
  8
0
100
AcDbCircle
 10
-434.5926571869713
 20
-76.64538561468629
 30
0.0
 40
0.5
100
AcDbArc
 50
90.0
 51
180.0
  0
ARC
  5
2AE
330
2
100
AcDbEntity
  8
0
100
AcDbCircle
 10
-395.9833022615396
 20
-87.3453856146861
 30
0.0
 40
0.200000000000017
100
AcDbArc
 50
344.9999999999771
 51
90.0
  0
ARC
  5
2AF
330
2
100
AcDbEntity
  8
0
100
AcDbCircle
 10
-439.202012112403
 20
-87.3453856146861
 30
0.0
 40
0.200000000000017
100
AcDbArc
 50
90.0
 51
195.000000000023
  0
LINE
  5
2B0
330
2
100
AcDbEntity
  8
0
100
AcDbLine
 10
-439.3951980554921
 20
-87.39714922671778
 30
0.0
 11
-437.767380305515
 21
-93.47224647467596
 31
0.0
  0
LINE
  5
2B1
330
2
100
AcDbEntity
  8
0
100
AcDbLine
 10
-396.4848643326623
 20
-89.98998177526159
 30
0.0
 11
-395.7901163184506
 21
-87.39714922671778
 31
0.0
  0
ARC
  5
2B2
330
2
100
AcDbEntity
  8
0
100
AcDbCircle
 10
-437.2844170045827
 20
-93.34283699386963
 30
0.0
 40
0.4999999999999976
100
AcDbArc
 50
194.9999999999944
 51
262.4311511299352
  0
ARC
  5
2B3
330
2
100
AcDbEntity
  8
0
100
AcDbCircle
 10
-417.5926571869713
 20
54.85461438532325
 30
0.0
 40
150.0000000000092
100
AcDbArc
 50
262.4311511299481
 51
262.8916657927547
  0
ARC
  5
2B4
330
2
100
AcDbEntity
  8
0
100
AcDbCircle
 10
-436.0926571869713
 20
-93.49632089990786
 30
0.0
 40
0.5
100
AcDbArc
 50
262.8916657927419
 51
270.0
  0
LINE
  5
2B5
330
2
100
AcDbEntity
  8
0
100
AcDbLine
 10
-436.0926574253899
 20
-93.99632089594019
 30
0.0
 11
-410.2669874364001
 21
-93.99632089594064
 31
0.0
  0
ARC
  5
2B6
330
2
100
AcDbEntity
  8
0
100
AcDbCircle
 10
-406.6702129821488
 20
-82.34683719041589
 30
0.0
 40
11.39342462019977
100
AcDbArc
 50
276.1039144397677
 51
299.4661352405103
  0
LWPOLYLINE
  5
2B7
330
2
100
AcDbEntity
  8
0
100
AcDbPolyline
 90
        3
 70
   128
 43
0.0
 10
-406.4875221037728
 20
-93.8110183208218
 10
-405.780415438996
 20
-93.72021914282498
 10
-405.4587273084981
 20
-93.67566886180696
  0
LWPOLYLINE
  5
2B8
330
2
100
AcDbEntity
  8
0
100
AcDbPolyline
 90
        3
 70
   128
 43
0.0
 10
-410.2679047891361
 20
-93.99604685427306
 10
-409.9082755082709
 20
-93.99607013733742
 10
-409.2961460509759
 20
-93.99348187548724
  0
ARC
  5
2B9
330
2
100
AcDbEntity
  8
0
100
AcDbCircle
 10
-389.2596255545523
 20
-112.2631151895675
 30
0.0
 40
23.20064220662995
100
AcDbArc
 50
110.8303880826385
 51
120.5691794890665
  0
LWPOLYLINE
  5
2BA
330
2
100
AcDbEntity
  8
0
100
AcDbPolyline
 90
        6
 70
   128
 43
0.0
 10
-397.4378625088793
 20
-90.54637576741782
 10
-397.2984193050725
 20
-90.47106832554248
 10
-397.1396399819714
 20
-90.38959960275946
 10
-397.0468914294106
 20
-90.34734503188742
 10
-397.0129614853722
 20
-90.33475227011008
 10
-397.0157256507737
 20
-90.33528195982439
  0
ARC
  5
2BB
330
2
100
AcDbEntity
  8
0
100
AcDbCircle
 10
-397.6702851043271
 20
-90.10394523262897
 30
0.0
 40
0.4999999999999793
100
AcDbArc
 50
289.6427710249806
 51
297.9402500767941
  0
ARC
  5
2BC
330
2
100
AcDbEntity
  8
0
100
AcDbCircle
 10
-396.9678273394559
 20
-89.86057223524898
 30
0.0
 40
0.5
100
AcDbArc
 50
270.0
 51
345.0000000000056
  0
ARC
  5
2BD
330
2
100
AcDbEntity
  8
0
100
AcDbCircle
 10
-417.5926571869713
 20
-239.1453856146863
 30
0.0
 40
150.0
100
AcDbArc
 50
81.67569093664241
 51
82.27303885540738
  0
ARC
  5
2BE
330
2
100
AcDbEntity
  8
0
100
AcDbCircle
 10
-414.0067728332298
 20
-93.6756855537896
 30
0.0
 40
0.5000000000000215
100
AcDbArc
 50
219.8866372070372
 51
225.296683434054
  0
ARC
  5
2BF
330
2
100
AcDbEntity
  8
0
100
AcDbCircle
 10
-417.5926571869713
 20
54.85461438531416
 30
0.0
 40
150.0
100
AcDbArc
 50
273.4513310695396
 51
278.7216636071192
  0
LWPOLYLINE
  5
2C0
330
2
100
AcDbEntity
  8
0
100
AcDbPolyline
 90
        6
 70
   128
 43
0.0
 10
-414.3622758956117
 20
-94.02772357975749
 10
-414.294816476242
 20
-94.09442187575308
 10
-414.032733921842
 20
-94.35315143605379
 10
-413.8189905015242
 20
-94.56413208795396
 10
-413.6536013492805
 20
-94.72753589329926
 10
-413.6513102957469
 20
-94.72980226678458
  0
ARC
  5
2C1
330
2
100
AcDbEntity
  8
0
100
AcDbCircle
 10
-408.5926571869713
 20
-94.37423671258869
 30
0.0
 40
0.5000000000000103
100
AcDbArc
 50
270.0
 51
273.4513310695136
  0
LINE
  5
2C2
330
2
100
AcDbEntity
  8
0
100
AcDbLine
 10
-413.2992899203164
 20
-94.87423666109947
 30
0.0
 11
-408.5926575744015
 21
-94.87423666109902
 31
0.0
  0
ARC
  5
2C3
330
2
100
AcDbEntity
  8
0
100
AcDbCircle
 10
-413.2992898400325
 20
-94.37423671258869
 30
0.0
 40
0.5000000000000223
100
AcDbArc
 50
225.4310901886548
 51
270.0
  0
ARC
  5
2C4
330
2
100
AcDbEntity
  8
0
100
AcDbCircle
 10
-424.5926571869713
 20
-94.48141609628141
 30
0.0
 40
0.500000000000029
100
AcDbArc
 50
231.7800233898066
 51
267.3162732412189
  0
ARC
  5
2C5
330
2
100
AcDbEntity
  8
0
100
AcDbCircle
 10
-410.5926571869713
 20
-94.48141609628141
 30
0.0
 40
0.500000000000029
100
AcDbArc
 50
272.6837267587811
 51
308.2199766101934
  0
ARC
  5
2C6
330
2
100
AcDbEntity
  8
0
100
AcDbCircle
 10
-417.5926571869713
 20
54.85461438531416
 30
0.0
 40
150.0
100
AcDbArc
 50
267.3162732411539
 51
272.6837267588461
  0
LINE
  5
2C7
330
2
100
AcDbEntity
  8
0
100
AcDbLine
 10
-394.5926571422678
 20
-93.12432310366643
 30
0.0
 11
-394.5926571422678
 21
-92.19045869508631
 31
0.0
  0
ARC
  5
2C8
330
2
100
AcDbEntity
  8
0
100
AcDbCircle
 10
-396.0926596794404
 20
-92.21002787790798
 30
0.0
 40
1.500002537172855
100
AcDbArc
 50
0.0
 51
81.67544039750582
  0
ARC
  5
2C9
330
2
100
AcDbEntity
  8
0
100
AcDbCircle
 10
-394.8926595238113
 20
-93.11429930328262
 30
0.0
 40
0.3000023815447065
100
AcDbArc
 50
278.7219885636922
 51
0.0
  0
ARC
  5
2CA
330
2
100
AcDbEntity
  8
0
100
AcDbCircle
 10
-434.5926571869713
 20
-93.6756855537896
 30
0.0
 40
0.5000000000000204
100
AcDbArc
 50
219.8866372070372
 51
263.4706376357741
  0
ARC
  5
2CB
330
2
100
AcDbEntity
  8
0
100
AcDbCircle
 10
-417.5926571869713
 20
54.85461438531371
 30
0.0
 40
150.0
100
AcDbArc
 50
263.4706376357741
 51
266.5486689304604
  0
ARC
  5
2CC
330
2
100
AcDbEntity
  8
0
100
AcDbCircle
 10
-426.5926571869713
 20
-94.37423671258869
 30
0.0
 40
0.5
100
AcDbArc
 50
266.5486689304604
 51
270.0
  0
LINE
  5
2CD
330
2
100
AcDbEntity
  8
0
100
AcDbLine
 10
-426.5926567995411
 20
-94.87423666109902
 30
0.0
 11
-415.346908771382
 21
-94.87423666109947
 31
0.0
  0
ARC
  5
2CE
330
2
100
AcDbEntity
  8
0
100
AcDbCircle
 10
-415.3469088876516
 20
-94.37423671258869
 30
0.0
 40
0.5
100
AcDbArc
 50
270.0
 51
0.0
  0
LINE
  5
2CF
330
2
100
AcDbEntity
  8
0
100
AcDbLine
 10
-414.8469089222563
 20
-94.37423681197373
 30
0.0
 11
-414.8469089222563
 21
-93.99632089594064
 31
0.0
  0
LINE
  5
2D0
330
2
100
AcDbEntity
  8
0
100
AcDbLine
 10
-441.5926573955876
 20
-79.14538534646493
 30
0.0
 11
-393.5926569783551
 21
-79.14538534646493
 31
0.0
  0
LINE
  5
2D1
330
2
100
AcDbEntity
  8
0
100
AcDbLine
 10
-441.5926573955876
 20
-78.14538518255216
 30
0.0
 11
-393.5926569783551
 21
-78.14538518255216
 31
0.0
  0
LINE
  5
2D2
330
2
100
AcDbEntity
  8
0
100
AcDbLine
 10
-395.8897156798703
 20
-87.14538572644455
 30
0.0
 11
-439.2955986940724
 21
-87.14538572644455
 31
0.0
  0
LINE
  5
2D3
330
2
100
AcDbEntity
  8
0
100
AcDbLine
 10
-434.5926581108433
 20
-76.14538485472661
 30
0.0
 11
-400.5926562630993
 21
-76.14538485472661
 31
0.0
  0
ARC
  5
2D4
330
2
100
AcDbEntity
  8
0
100
AcDbCircle
 10
-408.7555396666203
 20
-80.17393167300765
 30
0.0
 40
13.82613570858476
100
AcDbArc
 50
267.8807045980051
 51
279.4424239600358
  0
LINE
  5
2D5
330
2
100
AcDbEntity
  8
0
100
AcDbLine
 10
-409.2961190426213
 20
-93.99440225502161
 30
0.0
 11
-409.2668336042625
 21
-93.99061025874374
 31
0.0
  0
LINE
  5
2D6
330
2
100
AcDbEntity
  8
0
100
AcDbLine
 10
-415.339398120479
 20
-94.87332978574244
 30
0.0
 11
-415.346908771382
 21
-94.87423666109947
 31
0.0
  0
LINE
  5
2D7
330
2
100
AcDbEntity
  8
0
100
AcDbLine
 10
-416.5926571394739
 20
-178.2130175024653
 30
0.0
 11
-416.5926571394739
 21
-178.0460518539334
 31
0.0
  0
LINE
  5
2D8
330
2
100
AcDbEntity
  8
0
100
AcDbLine
 10
-416.5926571394739
 20
-163.1799828946973
 30
0.0
 11
-416.5926571394739
 21
-163.0130172461653
 31
0.0
  0
LINE
  5
2D9
330
2
100
AcDbEntity
  8
0
100
AcDbLine
 10
-418.5926572344688
 20
-163.0130172461653
 30
0.0
 11
-418.5926572344688
 21
-163.1799828946973
 31
0.0
  0
LINE
  5
2DA
330
2
100
AcDbEntity
  8
0
100
AcDbLine
 10
-418.5926572344688
 20
-178.0460518539334
 30
0.0
 11
-418.5926572344688
 21
-178.2130175024653
 31
0.0
  0
CIRCLE
  5
2DB
330
2
100
AcDbEntity
  8
0
100
AcDbCircle
 10
417.5926571869713
 20
-170.6130173743153
 30
0.0
 40
24.0
210
0.0
220
0.0
230
-1.0
  0
ARC
  5
2DC
330
2
100
AcDbEntity
  8
0
100
AcDbCircle
 10
-420.5377500881159
 20
-165.5203533059288
 30
0.0
 40
26.05673892164019
100
AcDbArc
 50
299.1552346699564
 51
318.8829137365031
  0
ARC
  5
2DD
330
2
100
AcDbEntity
  8
0
100
AcDbCircle
 10
-424.5222775961947
 20
-154.5436129974427
 30
0.0
 40
35.49986755363205
100
AcDbArc
 50
295.0236913944416
 51
304.843061289132
  0
ARC
  5
2DE
330
2
100
AcDbEntity
  8
0
100
AcDbCircle
 10
-424.5223396433366
 20
-186.6825295091666
 30
0.0
 40
35.49999144219542
100
AcDbArc
 50
55.15695588684662
 51
64.97629142957581
  0
ARC
  5
2DF
330
2
100
AcDbEntity
  8
0
100
AcDbCircle
 10
-420.5036230469991
 20
-175.6635667314603
 30
0.0
 40
26.00333575059295
100
AcDbArc
 50
41.09662568481664
 51
60.865225908734
  0
ARC
  5
2E0
330
2
100
AcDbEntity
  8
0
100
AcDbCircle
 10
-417.5926571869713
 20
-170.6130173743153
 30
0.0
 40
20.17472273075604
100
AcDbArc
 50
61.10299748788229
 51
298.8970025120937
  0
LINE
  5
2E1
330
2
100
AcDbEntity
  8
0
100
AcDbLine
 10
-410.4649786995214
 20
-187.1416647673035
 30
0.0
 11
-409.5060829231006
 21
-186.7112130612517
 31
0.0
  0
LINE
  5
2E2
330
2
100
AcDbEntity
  8
0
100
AcDbLine
 10
-409.5060829231006
 20
-154.514821687379
 30
0.0
 11
-410.4649786995214
 21
-154.0843699813271
 31
0.0
  0
ARC
  5
2E3
330
2
100
AcDbEntity
  8
0
100
AcDbCircle
 10
-417.5926571869713
 20
-170.6130173743153
 30
0.0
 40
18.0
100
AcDbArc
 50
66.67275811728967
 51
293.3272418827103
  0
ARC
  5
2E4
330
2
100
AcDbEntity
  8
0
100
AcDbCircle
 10
-417.2623155193421
 20
-170.0508611887207
 30
0.0
 40
17.35231292147322
100
AcDbArc
 50
47.05175407343981
 51
66.78203596037338
  0
LWPOLYLINE
  5
2E5
330
2
100
AcDbEntity
  8
0
100
AcDbPolyline
 90
        3
 70
   128
 43
0.0
 10
-401.9556654775006
 20
-159.4369862914468
 10
-403.0382562586528
 20
-158.4520381629849
 10
-404.2401187279684
 20
-157.5469686404253
  0
ARC
  5
2E6
330
2
100
AcDbEntity
  8
0
100
AcDbCircle
 10
-417.260916865883
 20
-171.1775477469936
 30
0.0
 40
17.34957608029171
100
AcDbArc
 50
293.2174226023181
 51
312.8706925137307
  0
LWPOLYLINE
  5
2E7
330
2
100
AcDbEntity
  8
0
100
AcDbPolyline
 90
        3
 70
   128
 43
0.0
 10
-404.2401187279684
 20
-183.6790661082054
 10
-403.0515303993088
 20
-182.7848753646398
 10
-401.9556654775006
 20
-181.7890484571839
  0
ARC
  5
2E8
330
2
100
AcDbEntity
  8
0
100
AcDbCircle
 10
-424.5223285251801
 20
-154.5435187562506
 30
0.0
 40
34.99997496717082
100
AcDbArc
 50
293.3272310806014
 51
324.976580357335
  0
ARC
  5
2E9
330
2
100
AcDbEntity
  8
0
100
AcDbCircle
 10
-424.5223410904677
 20
-186.6825314253755
 30
0.0
 40
34.99999411427487
100
AcDbArc
 50
35.02342852676099
 51
66.67276003528574
  0
LWPOLYLINE
  5
2EA
330
2
100
AcDbEntity
  8
0
100
AcDbPolyline
 90
        3
 70
   128
 43
0.0
 10
-413.7986078084868
 20
-162.7291920349384
 10
-414.088724336536
 20
-158.3832916558171
 10
-414.5037559018892
 20
-154.050356218257
  0
CIRCLE
  5
2EB
330
2
100
AcDbEntity
  8
0
100
AcDbCircle
 10
417.5926571869713
 20
-170.6130173743153
 30
0.0000000000000061
 40
7.500000000000014
210
0.0000000000000001
220
-0.0000000000000002
230
-1.0
  0
ARC
  5
2EC
330
2
100
AcDbEntity
  8
0
100
AcDbCircle
 10
-413.2992898400325
 20
-178.5229476410267
 30
0.0
 40
0.5000000000000147
100
AcDbArc
 50
118.492310751219
 51
177.0071829888825
  0
ARC
  5
2ED
330
2
100
AcDbEntity
  8
0
100
AcDbCircle
 10
-417.5926571869713
 20
-170.6130173743153
 30
0.0
 40
8.500000000000003
100
AcDbArc
 50
298.4923107512191
 51
61.50768924878095
  0
LWPOLYLINE
  5
2EE
330
2
100
AcDbEntity
  8
0
100
AcDbPolyline
 90
        3
 70
   128
 43
0.0
 10
-414.5037559018892
 20
-187.1756785303736
 10
-414.0888875508172
 20
-182.8447510242844
 10
-413.7986078084868
 20
-178.4968427136923
  0
ARC
  5
2EF
330
2
100
AcDbEntity
  8
0
100
AcDbCircle
 10
-413.2992898400325
 20
-162.7030871076035
 30
0.0
 40
0.5000000000000658
100
AcDbArc
 50
182.9928170112742
 51
241.5076892487809
  0
ARC
  5
2F0
330
2
100
AcDbEntity
  8
0
100
AcDbCircle
 10
-414.0067728332298
 20
-187.2305212001487
 30
0.0
 40
0.4999999999999992
100
AcDbArc
 50
173.702756361753
 51
282.1771145444525
  0
ARC
  5
2F1
330
2
100
AcDbEntity
  8
0
100
AcDbCircle
 10
-417.5926571869713
 20
-170.6130173743153
 30
0.0
 40
17.49999999999997
100
AcDbArc
 50
282.1771145444525
 51
293.3272418827103
  0
ARC
  5
2F2
330
2
100
AcDbEntity
  8
0
100
AcDbCircle
 10
-414.0067728332298
 20
-153.9955135484819
 30
0.0
 40
0.5000000000000147
100
AcDbArc
 50
77.82288545554752
 51
186.2972436382469
  0
ARC
  5
2F3
330
2
100
AcDbEntity
  8
0
100
AcDbCircle
 10
-417.5926571869713
 20
-170.6130173743153
 30
0.0
 40
17.5
100
AcDbArc
 50
66.67275811728967
 51
77.82288545554752
  0
ARC
  5
2F4
330
2
100
AcDbEntity
  8
0
100
AcDbCircle
 10
-414.2686775951345
 20
-163.3362626255934
 30
0.0
 40
0.4999999999999993
100
AcDbArc
 50
245.4493528806692
 51
2.771361818915862
  0
ARC
  5
2F5
330
2
100
AcDbEntity
  8
0
100
AcDbCircle
 10
-414.2686775951345
 20
-177.8897721230377
 30
0.0
 40
0.5000000000000135
100
AcDbArc
 50
357.2286381810841
 51
114.5506471193427
  0
ARC
  5
2F6
330
2
100
AcDbEntity
  8
0
100
AcDbCircle
 10
-564.5926571869713
 20
-170.6130173743153
 30
0.0
 40
151.0
100
AcDbArc
 50
357.0071829889086
 51
357.2286381810841
  0
ARC
  5
2F7
330
2
100
AcDbEntity
  8
0
100
AcDbCircle
 10
-564.5926571869713
 20
-170.6130173743153
 30
0.0
 40
151.0
100
AcDbArc
 50
2.771361818915862
 51
2.992817011091405
  0
ARC
  5
2F8
330
2
100
AcDbEntity
  8
0
100
AcDbCircle
 10
-401.5926591884023
 20
-170.6130173743153
 30
0.0
 40
7.000001364862755
100
AcDbArc
 50
324.97657735685
 51
35.02342264314998
  0
LWPOLYLINE
  5
2F9
330
2
100
AcDbEntity
  8
0
100
AcDbPolyline
 90
        3
 70
   128
 43
0.0
 10
-417.2848865081978
 20
-179.1074438706423
 10
-417.2959454399024
 20
-179.1078396827365
 10
-417.9004278657449
 20
-179.1074438706423
  0
ARC
  5
2FA
330
2
100
AcDbEntity
  8
0
100
AcDbCircle
 10
-417.5926571869713
 20
-170.6130173743153
 30
0.0
 40
8.500000000000012
100
AcDbArc
 50
272.0750371397144
 51
284.4495590953587
  0
ARC
  5
2FB
330
2
100
AcDbEntity
  8
0
100
AcDbCircle
 10
-417.5926571869713
 20
-170.6130173743153
 30
0.0
 40
8.499999999999998
100
AcDbArc
 50
75.55044090464133
 51
87.92496286028564
  0
LWPOLYLINE
  5
2FC
330
2
100
AcDbEntity
  8
0
100
AcDbPolyline
 90
        3
 70
   128
 43
0.0
 10
-417.9004278657449
 20
-162.1185908779884
 10
-417.8893689340402
 20
-162.1181950658942
 10
-417.2848865081978
 20
-162.1185908779884
  0
ARC
  5
2FD
330
2
100
AcDbEntity
  8
0
100
AcDbCircle
 10
-417.5926571869713
 20
-170.6130173743153
 30
0.0
 40
8.500000000000012
100
AcDbArc
 50
92.07503713971437
 51
267.9249628602856
  0
ARC
  5
2FE
330
2
100
AcDbEntity
  8
0
100
AcDbCircle
 10
-415.3469088876516
 20
-161.8977081671727
 30
0.0
 40
0.5000000000000183
100
AcDbArc
 50
255.550440904654
 51
3.342031477650785
  0
ARC
  5
2FF
330
2
100
AcDbEntity
  8
0
100
AcDbCircle
 10
-415.3469088876516
 20
-179.3283265814579
 30
0.0
 40
0.5000000000000764
100
AcDbArc
 50
356.6579685221924
 51
104.449559095346
  0
LWPOLYLINE
  5
300
330
2
100
AcDbEntity
  8
0
100
AcDbPolyline
 90
        3
 70
   128
 43
0.0
 10
-414.8477592197669
 20
-179.3574751109267
 10
-415.1285522775215
 20
-183.2811417743946
 10
-415.5576083966953
 20
-187.5999015510464
  0
LWPOLYLINE
  5
301
330
2
100
AcDbEntity
  8
0
100
AcDbPolyline
 90
        3
 70
   128
 43
0.0
 10
-415.5576083966953
 20
-153.6261331975842
 10
-415.1285522775215
 20
-157.9448929742361
 10
-414.8477592197669
 20
-161.868559637704
  0
LINE
  5
302
330
2
100
AcDbEntity
  8
0
100
AcDbLine
 10
-415.542657176913
 20
-163.0130172461653
 30
0.0
 11
-419.6426571970296
 21
-163.0130172461653
 31
0.0
  0
ARC
  5
303
330
2
100
AcDbEntity
  8
0
100
AcDbCircle
 10
-419.6426571869713
 20
-162.8130173743151
 30
0.0
 40
0.2000000000000028
100
AcDbArc
 50
180.0
 51
270.0
  0
ARC
  5
304
330
2
100
AcDbEntity
  8
0
100
AcDbCircle
 10
-415.5426571869713
 20
-162.8130173743151
 30
0.0
 40
0.2000000000000028
100
AcDbArc
 50
270.0
 51
0.0
  0
LINE
  5
305
330
2
100
AcDbEntity
  8
0
100
AcDbLine
 10
-415.3579861549151
 20
-178.8140083417679
 30
0.0
 11
-415.3768403147769
 21
-178.8292233586694
 31
0.0
  0
LINE
  5
306
330
2
100
AcDbEntity
  8
0
100
AcDbLine
 10
-419.8426570901138
 20
-178.4130171627188
 30
0.0
 11
-419.8426570901138
 21
-178.8098155275369
 31
0.0
  0
LINE
  5
307
330
2
100
AcDbEntity
  8
0
100
AcDbLine
 10
-415.3426572838289
 20
-178.4130171627188
 30
0.0
 11
-415.3426572838289
 21
-178.8098155275369
 31
0.0
  0
LINE
  5
308
330
2
100
AcDbEntity
  8
0
100
AcDbLine
 10
-415.3768403147769
 20
-162.3968113899613
 30
0.0
 11
-415.3579861549151
 21
-162.4120264068628
 31
0.0
  0
LINE
  5
309
330
2
100
AcDbEntity
  8
0
100
AcDbLine
 10
-415.3426572838289
 20
-162.4162192210937
 30
0.0
 11
-415.3426572838289
 21
-162.8130175859118
 31
0.0
  0
LINE
  5
30A
330
2
100
AcDbEntity
  8
0
100
AcDbLine
 10
-419.8426570901138
 20
-162.4162192210937
 30
0.0
 11
-419.8426570901138
 21
-162.8130175859118
 31
0.0
  0
LINE
  5
30B
330
2
100
AcDbEntity
  8
0
100
AcDbLine
 10
-419.6426571970296
 20
-178.2130175024653
 30
0.0
 11
-415.542657176913
 21
-178.2130175024653
 31
0.0
  0
ARC
  5
30C
330
2
100
AcDbEntity
  8
0
100
AcDbCircle
 10
-415.5426571869713
 20
-178.413017374315
 30
0.0
 40
0.200000000000017
100
AcDbArc
 50
0.0
 51
90.0
  0
ARC
  5
30D
330
2
100
AcDbEntity
  8
0
100
AcDbCircle
 10
-419.6426571869713
 20
-178.413017374315
 30
0.0
 40
0.200000000000017
100
AcDbArc
 50
90.0
 51
180.0
  0
ARC
  5
30E
330
2
100
AcDbEntity
  8
0
100
AcDbCircle
 10
-416.0543918808489
 20
-153.6827563058031
 30
0.0
 40
0.500000000000007
100
AcDbArc
 50
6.502461191667187
 51
84.80842188900892
  0
ARC
  5
30F
330
2
100
AcDbEntity
  8
0
100
AcDbCircle
 10
-417.5926571869713
 20
-170.6130173743153
 30
0.0
 40
17.5
100
AcDbArc
 50
84.80842188900892
 51
275.1915781109911
  0
ARC
  5
310
330
2
100
AcDbEntity
  8
0
100
AcDbCircle
 10
-416.0543918808489
 20
-187.5432784428275
 30
0.0
 40
0.500000000000007
100
AcDbArc
 50
275.1915781109911
 51
353.4975388083328
  0
ARC
  5
311
330
2
100
AcDbEntity
  8
0
100
AcDbCircle
 10
-417.5926571869713
 20
-170.6130173743153
 30
0.0
 40
17.5
100
AcDbArc
 50
77.82288545554752
 51
84.80842188900892
  0
ARC
  5
312
330
2
100
AcDbEntity
  8
0
100
AcDbCircle
 10
-417.5926571869713
 20
-170.6130173743153
 30
0.0
 40
17.5
100
AcDbArc
 50
275.1915781109911
 51
282.1771145444525
  0
ARC
  5
313
330
2
100
AcDbEntity
  8
0
100
AcDbCircle
 10
-417.5926571869713
 20
-170.6130173743153
 30
0.0
 40
8.499999999999998
100
AcDbArc
 50
72.98049346057887
 51
74.75764605031343
  0
ARC
  5
314
330
2
100
AcDbEntity
  8
0
100
AcDbCircle
 10
-417.5926571869713
 20
-170.6130173743153
 30
0.0
 40
8.500000000000015
100
AcDbArc
 50
285.2423539496992
 51
287.0195065394212
  0
ARC
  5
315
330
2
100
AcDbEntity
  8
0
100
AcDbCircle
 10
-416.4880002263539
 20
-166.9719972841994
 30
0.0
 40
4.695117625273448
100
AcDbArc
 50
60.68216025867135
 51
72.86532138810253
  0
ARC
  5
316
330
2
100
AcDbEntity
  8
0
100
AcDbCircle
 10
-416.5299440606163
 20
-174.1561902808166
 30
0.0
 40
4.800992481336973
100
AcDbArc
 50
287.2689920764226
 51
299.6479895386725
  0
ARC
  5
317
330
2
100
AcDbEntity
  8
0
100
AcDbCircle
 10
-417.5926571869713
 20
-170.6130173743153
 30
0.0
 40
21.89612622821305
100
AcDbArc
 50
11.5492893726323
 51
348.2562983611773
  0
ARC
  5
318
330
2
100
AcDbEntity
  8
0
100
AcDbCircle
 10
-413.8229819709201
 20
-171.277209099162
 30
0.0
 40
17.21252351671522
100
AcDbArc
 50
318.6212614090107
 51
341.3290596657908
  0
ARC
  5
319
330
2
100
AcDbEntity
  8
0
100
AcDbCircle
 10
-413.8025715337794
 20
-169.9343191544339
 30
0.0
 40
17.18761933319134
100
AcDbArc
 50
18.6814709656834
 51
41.38742895573269
  0
ARC
  5
31A
330
2
100
AcDbEntity
  8
0
100
AcDbCircle
 10
-414.0845253293275
 20
-171.2451896963315
 30
0.0
 40
16.92757835475587
100
AcDbArc
 50
35.08384344971901
 51
44.23252230020945
  0
ARC
  5
31B
330
2
100
AcDbEntity
  8
0
100
AcDbCircle
 10
-411.342217547965
 20
-172.2659971076581
 30
0.0
 40
13.37145716731147
100
AcDbArc
 50
314.586416669487
 51
325.9226081035774
  0
ARC
  5
31C
330
2
100
AcDbEntity
  8
0
100
AcDbCircle
 10
-417.2391037963779
 20
-170.6130173743153
 30
0.0
 40
17.00000000000001
100
AcDbArc
 50
275.7038650101775
 51
279.335734285265
  0
LWPOLYLINE
  5
31D
330
2
100
AcDbEntity
  8
0
100
AcDbPolyline
 90
        3
 70
   128
 43
0.0
 10
-413.7779964757574
 20
-163.1338367924476
 10
-413.8129962766034
 20
-163.1099791020537
 10
-414.1890173004431
 20
-162.8782450907315
  0
LWPOLYLINE
  5
31E
330
2
100
AcDbEntity
  8
0
100
AcDbPolyline
 90
        3
 70
   128
 43
0.0
 10
-414.1550372978163
 20
-178.3286412001038
 10
-413.8129962766034
 20
-178.116055646577
 10
-413.7779964757574
 20
-178.092197956183
  0
ARC
  5
381
330
2
100
AcDbEntity
  8
0
  6
HIDDEN2
370
    15
100
AcDbCircle
 10
-418.5615716609285
 20
-114.845383746116
 30
0.0
 40
0.3000013819991668
100
AcDbArc
 50
188.7217791643317
 51
269.9999973525409
  0
ARC
  5
382
330
2
100
AcDbEntity
  8
0
  6
HIDDEN2
370
    15
100
AcDbCircle
 10
-417.6573005142918
 20
-113.6453813499319
 30
0.0
 40
1.500003782708649
100
AcDbArc
 50
270.0000076543642
 51
351.6754029984528
  0
LINE
  5
383
330
2
100
AcDbEntity
  8
0
  6
HIDDEN2
370
    15
100
AcDbLine
 10
-418.5715947169492
 20
-115.1453851825512
 30
0.0
 11
-417.6377302682644
 21
-115.1453851825512
 31
0.0
  0
ARC
  5
384
330
2
100
AcDbEntity
  8
0
  6
HIDDEN2
370
    15
100
AcDbCircle
 10
-270.5926571869714
 20
-92.14538518255171
 30
0.0
 40
150.0
100
AcDbArc
 50
182.1611176533084
 51
188.7216603834597
  0
ARC
  5
385
330
2
100
AcDbEntity
  8
0
  6
HIDDEN2
370
    15
100
AcDbCircle
 10
-564.5926571869713
 20
-92.1453851825508
 30
0.0
 40
150.0
100
AcDbArc
 50
351.6756577797561
 51
357.8388823466915
  0
LINE
  5
386
330
2
100
AcDbEntity
  8
T
100
AcDbLine
 10
-447.0425920030245
 20
-170.6130173743153
 30
0.0
 11
-204.0
 21
-170.6130173743153
 31
0.0
  0
LINE
  5
387
330
2
100
AcDbEntity
  8
T
100
AcDbLine
 10
-417.5926571869713
 20
-200.0629521903683
 30
0.0
 11
-417.5926571869713
 21
-54.97668089408392
 31
0.0
  0
LINE
  5
388
330
2
100
AcDbEntity
  8
0
100
AcDbLine
 10
-421.7926570372147
 20
-62.6453854358719
 30
0.0
 11
-421.410706515373
 21
-62.6453854358719
 31
0.0
  0
LINE
  5
389
330
2
100
AcDbEntity
  8
0
100
AcDbLine
 10
-421.410706515373
 20
-62.6453854358719
 30
0.0
 11
-419.342657240988
 21
-62.6453854358719
 31
0.0
  0
LINE
  5
38A
330
2
100
AcDbEntity
  8
0
100
AcDbLine
 10
-421.410706515373
 20
-62.6453854358719
 30
0.0
 11
-421.9547094935042
 21
-63.14538644915086
 31
0.0
  0
LINE
  5
38B
330
2
100
AcDbEntity
  8
0
100
AcDbLine
 10
-415.8426571329546
 20
-62.6453854358719
 30
0.0
 11
-413.7746078585696
 21
-62.6453854358719
 31
0.0
  0
LINE
  5
38C
330
2
100
AcDbEntity
  8
0
100
AcDbLine
 10
-413.7746078585696
 20
-62.6453854358719
 30
0.0
 11
-413.392657336728
 21
-62.6453854358719
 31
0.0
  0
LINE
  5
38D
330
2
100
AcDbEntity
  8
0
100
AcDbLine
 10
-413.2306048804385
 20
-63.14538644915086
 30
0.0
 11
-413.7746078585696
 21
-62.6453854358719
 31
0.0
  0
LINE
  5
38E
330
2
100
AcDbEntity
  8
0
100
AcDbLine
 10
-419.342657240988
 20
-63.14538644915086
 30
0.0
 11
-419.342657240988
 21
-62.6453854358719
 31
0.0
  0
LINE
  5
38F
330
2
100
AcDbEntity
  8
0
100
AcDbLine
 10
-415.8426571329546
 20
-62.6453854358719
 30
0.0
 11
-415.8426571329546
 21
-63.14538644915086
 31
0.0
  0
LINE
  5
390
330
2
100
AcDbEntity
  8
0
100
AcDbLine
 10
-419.342657240988
 20
-62.6453854358719
 30
0.0
 11
-415.8426571329546
 21
-62.6453854358719
 31
0.0
  0
LINE
  5
391
330
2
100
AcDbEntity
  8
0
100
AcDbLine
 10
-412.8926572547716
 20
-63.14538644915086
 30
0.0
 11
-413.2306048804385
 21
-63.14538644915086
 31
0.0
  0
LINE
  5
392
330
2
100
AcDbEntity
  8
0
100
AcDbLine
 10
-413.2306048804385
 20
-63.14538644915086
 30
0.0
 11
-413.2306048804385
 21
-70.64538488452893
 31
0.0
  0
LWPOLYLINE
  5
393
330
2
100
AcDbEntity
  8
0
100
AcDbPolyline
 90
        6
 70
   128
 43
0.0
 10
-413.2306048804385
 20
-70.64538488452893
 10
-413.2507456624371
 20
-70.95577420955163
 10
-413.311467894302
 20
-71.23103777235013
 10
-413.4143310756845
 20
-71.44696491127473
 10
-413.5643457220358
 20
-71.589820480995
 10
-413.7811613426966
 20
-71.64538504844171
  0
LINE
  5
394
330
2
100
AcDbEntity
  8
0
100
AcDbLine
 10
-414.8426572018725
 20
-71.64538504844171
 30
0.0
 11
-413.7811613426966
 21
-71.64538504844171
 31
0.0
  0
ARC
  5
395
330
2
100
AcDbEntity
  8
0
100
AcDbCircle
 10
-414.8426582973793
 20
-70.64538621286596
 30
0.0
 40
0.9999988355763239
100
AcDbArc
 50
180.0
 51
270.0000627679961
  0
LINE
  5
396
330
2
100
AcDbEntity
  8
0
100
AcDbLine
 10
-415.8426571329546
 20
-63.14538644915086
 30
0.0
 11
-415.8426571329546
 21
-70.64538488452893
 31
0.0
  0
LINE
  5
397
330
2
100
AcDbEntity
  8
0
100
AcDbLine
 10
-415.8426571329546
 20
-63.14538644915086
 30
0.0
 11
-419.342657240988
 21
-63.14538644915086
 31
0.0
  0
LINE
  5
398
330
2
100
AcDbEntity
  8
0
100
AcDbLine
 10
-419.342657240988
 20
-63.14538644915086
 30
0.0
 11
-419.342657240988
 21
-70.64538488452893
 31
0.0
  0
ARC
  5
399
330
2
100
AcDbEntity
  8
0
100
AcDbCircle
 10
-420.3426579031297
 20
-70.64538438630092
 30
0.0
 40
1.00000066214191
100
AcDbArc
 50
270.000041886602
 51
0.0
  0
LINE
  5
39A
330
2
100
AcDbEntity
  8
0
100
AcDbLine
 10
-421.4041530312461
 20
-71.64538504844171
 30
0.0
 11
-420.3426571720702
 21
-71.64538504844171
 31
0.0
  0
LWPOLYLINE
  5
39B
330
2
100
AcDbEntity
  8
0
100
AcDbPolyline
 90
        6
 70
   128
 43
0.0
 10
-421.4041530312461
 20
-71.64538504844171
 10
-421.6750766308469
 20
-71.55240739052755
 10
-421.8183056609196
 20
-71.36694008772832
 10
-421.9121145242316
 20
-71.08669208651048
 10
-421.9514135429126
 20
-70.77312881415349
 10
-421.9547094935042
 20
-70.64538488452893
  0
LINE
  5
39C
330
2
100
AcDbEntity
  8
0
100
AcDbLine
 10
-421.9547094935042
 20
-63.14538644915086
 30
0.0
 11
-421.9547094935042
 21
-70.64538488452893
 31
0.0
  0
LINE
  5
39D
330
2
100
AcDbEntity
  8
0
100
AcDbLine
 10
-421.9547094935042
 20
-63.14538644915086
 30
0.0
 11
-422.292657119171
 21
-63.14538644915086
 31
0.0
  0
LINE
  5
39E
330
2
100
AcDbEntity
  8
0
100
AcDbLine
 10
-421.7926570372147
 20
-62.6453854358719
 30
0.0
 11
-422.292657119171
 21
-63.14538644915086
 31
0.0
  0
LINE
  5
39F
330
2
100
AcDbEntity
  8
0
100
AcDbLine
 10
-412.8926572547716
 20
-63.14538644915086
 30
0.0
 11
-413.392657336728
 21
-62.6453854358719
 31
0.0
  0
LINE
  5
3A0
330
2
100
AcDbEntity
  8
0
100
AcDbLine
 10
-422.292657119171
 20
-63.14538644915086
 30
0.0
 11
-422.292657119171
 21
-76.14538485472616
 31
0.0
  0
LINE
  5
3A1
330
2
100
AcDbEntity
  8
0
100
AcDbLine
 10
-412.8926572547716
 20
-76.14538485472661
 30
0.0
 11
-412.8926572547716
 21
-63.14538644915086
 31
0.0
  0
TEXT
  5
3AE
330
2
100
AcDbEntity
  8
0
370
    30
100
AcDbText
 10
-166.5067932296406
 20
-291.2999999999999
 30
0.0
 40
4.0
  1
パタンテ
 41
0.9
  7
OPNUS
100
AcDbText
  0
TEXT
  5
3EB
330
2
100
AcDbEntity
  8
0
370
    30
100
AcDbText
 10
-191.4873052279565
 20
-291.1538670741099
 30
0.0
 40
3.0
  1
スウィングサムターン
 41
0.6
  7
OPNUS
100
AcDbText
  0
TEXT
  5
3EC
330
2
100
AcDbEntity
  8
0
370
    30
100
AcDbText
 10
-190.8000000000002
 20
-300.2999999999999
 30
0.0
 40
4.5
  1
STB080**-***
  7
OPNUS
100
AcDbText
  0
LINE
  5
428
330
2
100
AcDbEntity
  8
W
100
AcDbLine
 10
-480.0
 20
-308.9999999999999
 30
0.0
 11
-496.1627586695197
 21
-308.9999999999999
 31
0.0
  0
LINE
  5
429
330
2
100
AcDbEntity
  8
W
100
AcDbLine
 10
-480.0
 20
-308.9999999999999
 30
0.0
 11
-480.0
 21
-322.873358720285
 31
0.0
  0
LINE
  5
42A
330
2
100
AcDbEntity
  8
W
100
AcDbLine
 10
-86.59999999999991
 20
-29.59999999999985
 30
0.0
 11
-73.41250634956759
 21
-29.59999999999985
 31
0.0
  0
LINE
  5
42B
330
2
100
AcDbEntity
  8
W
100
AcDbLine
 10
-86.59999999999991
 20
-29.59999999999985
 30
0.0
 11
-86.59999999999991
 21
-15.35425862108508
 31
0.0
  0
CIRCLE
  5
C9A
330
2
100
AcDbEntity
  8
0
 48
0.7
100
AcDbCircle
 10
-145.2306687772877
 20
-137.5499999999999
 30
0.0
 40
2.75
  0
LINE
  5
C9B
330
2
100
AcDbEntity
  8
0
100
AcDbLine
 10
-145.746659160937
 20
-138.0659903836496
 30
0.0
 11
-145.6469229946631
 21
-138.2915233367209
 31
0.0
  0
LINE
  5
C9C
330
2
100
AcDbEntity
  8
0
100
AcDbLine
 10
-145.6358864272813
 20
-136.0037744078073
 30
0.0
 11
-145.6469229946631
 21
-136.8084766632789
 31
0.0
  0
LINE
  5
C9D
330
2
100
AcDbEntity
  8
0
100
AcDbLine
 10
-145.6469229946631
 20
-136.8084766632789
 30
0.0
 11
-145.746659160937
 21
-137.0340096163501
 31
0.0
  0
LINE
  5
C9E
330
2
100
AcDbEntity
  8
0
100
AcDbLine
 10
-145.746659160937
 20
-137.0340096163501
 30
0.0
 11
-145.9721921140087
 21
-137.1337457826245
 31
0.0
  0
LINE
  5
C9F
330
2
100
AcDbEntity
  8
0
100
AcDbLine
 10
-145.9721921140087
 20
-137.1337457826245
 30
0.0
 11
-146.7768943694807
 21
-137.1447823500058
 31
0.0
  0
ARC
  5
CA0
330
2
100
AcDbEntity
  8
0
100
AcDbCircle
 10
-145.2306687772877
 20
-137.5499999999999
 30
0.0
 40
1.598441405187397
100
AcDbArc
 50
165.3148061323646
 51
194.6851938676354
  0
LINE
  5
CA1
330
2
100
AcDbEntity
  8
0
100
AcDbLine
 10
-146.7768943694798
 20
-137.9552176499939
 30
0.0
 11
-145.9721921140087
 21
-137.9662542173752
 31
0.0
  0
LINE
  5
CA2
330
2
100
AcDbEntity
  8
0
100
AcDbLine
 10
-145.9721921140087
 20
-137.9662542173752
 30
0.0
 11
-145.746659160937
 21
-138.0659903836496
 31
0.0
  0
LINE
  5
CA3
330
2
100
AcDbEntity
  8
0
100
AcDbLine
 10
-145.6469229946631
 20
-138.2915233367209
 30
0.0
 11
-145.6358864272813
 21
-139.0962255921924
 31
0.0
  0
ARC
  5
CA4
330
2
100
AcDbEntity
  8
0
100
AcDbCircle
 10
-145.2306687772877
 20
-137.5499999999999
 30
0.0
 40
1.598441405187406
100
AcDbArc
 50
255.3148061323672
 51
284.6851938676329
  0
LINE
  5
CA5
330
2
100
AcDbEntity
  8
0
100
AcDbLine
 10
-144.8254511272941
 20
-139.0962255921924
 30
0.0
 11
-144.8144145599124
 21
-138.2915233367209
 31
0.0
  0
LINE
  5
CA6
330
2
100
AcDbEntity
  8
0
100
AcDbLine
 10
-144.8144145599124
 20
-138.2915233367209
 30
0.0
 11
-144.7146783936384
 21
-138.0659903836496
 31
0.0
  0
LINE
  5
CA7
330
2
100
AcDbEntity
  8
0
100
AcDbLine
 10
-144.7146783936384
 20
-138.0659903836496
 30
0.0
 11
-144.4891454405667
 21
-137.9662542173752
 31
0.0
  0
LINE
  5
CA8
330
2
100
AcDbEntity
  8
0
100
AcDbLine
 10
-144.4891454405667
 20
-137.9662542173752
 30
0.0
 11
-143.6844431850957
 21
-137.9552176499939
 31
0.0
  0
ARC
  5
CA9
330
2
100
AcDbEntity
  8
0
100
AcDbCircle
 10
-145.2306687772877
 20
-137.5499999999999
 30
0.0
 40
1.598441405187409
100
AcDbArc
 50
345.3148061323647
 51
14.68519386763538
  0
LINE
  5
CAA
330
2
100
AcDbEntity
  8
0
100
AcDbLine
 10
-143.6844431850957
 20
-137.1447823500058
 30
0.0
 11
-144.4891454405667
 21
-137.1337457826245
 31
0.0
  0
LINE
  5
CAB
330
2
100
AcDbEntity
  8
0
100
AcDbLine
 10
-144.4891454405667
 20
-137.1337457826245
 30
0.0
 11
-144.7146783936384
 21
-137.0340096163501
 31
0.0
  0
LINE
  5
CAC
330
2
100
AcDbEntity
  8
0
100
AcDbLine
 10
-144.7146783936384
 20
-137.0340096163501
 30
0.0
 11
-144.8144145599124
 21
-136.8084766632789
 31
0.0
  0
LINE
  5
CAD
330
2
100
AcDbEntity
  8
0
100
AcDbLine
 10
-144.8144145599124
 20
-136.8084766632789
 30
0.0
 11
-144.8254511272941
 21
-136.0037744078073
 31
0.0
  0
ARC
  5
CAE
330
2
100
AcDbEntity
  8
0
100
AcDbCircle
 10
-145.2306687772877
 20
-137.5499999999999
 30
0.0
 40
1.598441405187367
100
AcDbArc
 50
75.31480613236718
 51
104.6851938676328
  0
ARC
  5
CAF
330
2
100
AcDbEntity
  8
0
 48
0.7
100
AcDbCircle
 10
-134.4806992920273
 20
-136.3419248918287
 30
0.0
 40
1.5
100
AcDbArc
 50
95.00000000002598
 51
171.829084589307
  0
ARC
  5
CB0
330
2
100
AcDbEntity
  8
0
 48
0.7
100
AcDbCircle
 10
-134.4806992920273
 20
-138.7580751081711
 30
0.0
 40
1.5
100
AcDbArc
 50
188.170915410693
 51
264.999999999974
  0
ARC
  5
CB1
330
2
100
AcDbEntity
  8
0
 48
0.7
100
AcDbCircle
 10
-126.0669869999999
 20
-137.5499999999999
 30
0.0
 40
10.0
100
AcDbArc
 50
171.829084589307
 51
188.170915410693
  0
LINE
  5
CB2
330
2
100
AcDbEntity
  8
0
 48
0.7
100
AcDbLine
 10
-134.0669870000017
 20
-134.7999999999999
 30
0.0
 11
-134.611432906149
 21
-134.8476328446911
 31
0.0
  0
LINE
  5
CB3
330
2
100
AcDbEntity
  8
0
 48
0.7
100
AcDbLine
 10
-134.0669869999999
 20
-140.2999999999999
 30
0.0
 11
-134.611432906149
 21
-140.2523671553087
 31
0.0
  0
LINE
  5
CB4
330
2
100
AcDbEntity
  8
0
 48
0.7
100
AcDbLine
 10
-134.0669869999999
 20
-140.2999999999999
 30
0.0
 11
-134.0669870000017
 21
-134.7999999999999
 31
0.0
  0
LINE
  5
F54
330
2
100
AcDbEntity
  8
0
370
    15
100
AcDbLine
 10
-417.5926571869713
 20
-195.6130173743158
 30
0.0
 11
-417.5926571869713
 21
-210.9999999999999
 31
0.0
  0
ENDSEC
  0
SECTION
  2
OBJECTS
  0
DICTIONARY
  5
7
330
0
100
AcDbDictionary
281
     1
  3
ACAD_COLOR
350
29
  3
ACAD_GROUP
350
25
  3
ACAD_LAYOUT
350
B
  3
ACAD_MATERIAL
350
28
  3
ACAD_MLINESTYLE
350
26
  3
ACAD_PLOTSETTINGS
350
27
  3
ACAD_PLOTSTYLENAME
350
6
  3
ACDBHEADERROUNDTRIPXREC
350
F6D
  3
AcDbVariableDictionary
350
F68
  0
DICTIONARY
  5
11
330
10
100
AcDbDictionary
280
     1
281
     1
  3
ACAD_LAYERFILTERS
360
12
  3
ACAD_LAYERSTATES
360
13
  0
DICTIONARY
  5
29
102
{ACAD_REACTORS
330
7
102
}
330
7
100
AcDbDictionary
281
     1
  0
DICTIONARY
  5
25
102
{ACAD_REACTORS
330
7
102
}
330
7
100
AcDbDictionary
281
     1
  3
*A1
350
CC9
  3
*A2
350
CCA
  0
DICTIONARY
  5
B
102
{ACAD_REACTORS
330
7
102
}
330
7
100
AcDbDictionary
281
     1
  3
Model
350
A
  3
レイアウト1
350
F
  0
DICTIONARY
  5
28
102
{ACAD_REACTORS
330
7
102
}
330
7
100
AcDbDictionary
281
     1
  0
DICTIONARY
  5
26
102
{ACAD_REACTORS
330
7
102
}
330
7
100
AcDbDictionary
281
     1
  3
Standard
350
2B
  0
DICTIONARY
  5
27
102
{ACAD_REACTORS
330
7
102
}
330
7
100
AcDbDictionary
281
     1
  0
ACDBDICTIONARYWDFLT
  5
6
102
{ACAD_REACTORS
330
7
102
}
330
7
100
AcDbDictionary
281
     1
  3
Normal
350
5
100
AcDbDictionaryWithDefault
340
5
  0
DICTIONARY
  5
F6D
102
{ACAD_REACTORS
330
7
102
}
330
7
100
AcDbDictionary
281
     1
  3
COLORDICT
350
F6F
  3
MATERIALDICT
350
F6E
  0
DICTIONARY
  5
F68
102
{ACAD_REACTORS
330
7
102
}
330
7
100
AcDbDictionary
281
     1
  3
DIMASSOC
350
F6A
  3
HIDETEXT
350
F69
  3
PROJECTNAME
350
F6B
  0
DICTIONARY
  5
12
102
{ACAD_REACTORS
330
11
102
}
330
11
100
AcDbDictionary
281
     1
  0
DICTIONARY
  5
13
102
{ACAD_REACTORS
330
11
102
}
330
11
100
AcDbDictionary
281
     1
  3
OPNUS
350
CCB
  0
GROUP
  5
CC9
102
{ACAD_REACTORS
330
25
102
}
330
25
100
AcDbGroup
300

 70
     1
 71
     1
  0
GROUP
  5
CCA
102
{ACAD_REACTORS
330
25
102
}
330
25
100
AcDbGroup
300

 70
     3
 71
     1
340
D02
340
D01
340
D00
340
CFF
340
CFE
340
CFD
340
CFC
340
CFB
340
CFA
340
CF9
340
CF8
340
CF7
340
CF6
340
CF5
340
CF4
340
CF3
340
CF2
340
CF1
340
CF0
340
CEF
340
CEE
340
CED
340
CEC
340
CEB
340
CEA
340
CE9
340
CE8
340
CE7
340
CE6
340
CE5
340
CE4
340
CE3
340
CE2
340
CE1
340
CE0
340
CDF
340
CDE
340
CDD
340
CDC
340
CDB
340
CDA
340
CD9
340
CD8
340
CD7
340
CD6
340
CD5
340
CD4
340
CD3
340
CD2
340
CD1
340
CD0
340
CCF
340
CCE
340
CCD
  0
LAYOUT
  5
A
102
{ACAD_XDICTIONARY
360
F70
102
}
102
{ACAD_REACTORS
330
B
102
}
330
B
100
AcDbPlotSettings
  1

  2
Adobe PDF
  4
A4
  6

 40
3.174999952316284
 41
3.174999952316284
 42
3.175003051757812
 43
3.17498779296875
 44
209.9098358154297
 45
297.0318298339844
 46
0.0
 47
2.2
 48
-479.7295721825035
 49
-309.4281682934463
140
-86.704584025882
141
-29.97665700123662
142
1.0
143
1.372822464199923
 70
 11956
 72
     1
 73
     1
 74
     4
  7
monochrome.ctb
 75
     0
147
0.7284263086289141
148
479.7295721825035
149
309.4281682934463
100
AcDbLayout
  1
Model
 70
     1
 71
     0
 10
0.0
 20
0.0
 11
12.0
 21
9.0
 12
0.0
 22
0.0
 32
0.0
 14
0.0
 24
0.0
 34
0.0
 15
0.0
 25
0.0
 35
0.0
146
0.0
 13
0.0
 23
0.0
 33
0.0
 16
1.0
 26
0.0
 36
0.0
 17
0.0
 27
1.0
 37
0.0
 76
     0
330
2
  0
LAYOUT
  5
F
102
{ACAD_XDICTIONARY
360
F72
102
}
102
{ACAD_REACTORS
330
B
102
}
330
B
100
AcDbPlotSettings
  1

  2
None
  4

  6

 40
0.0
 41
0.0
 42
0.0
 43
0.0
 44
0.0
 45
0.0
 46
0.0
 47
0.0
 48
0.0
 49
0.0
140
0.0
141
0.0
142
1.0
143
1.0
 70
   688
 72
     0
 73
     0
 74
     5
  7
monochrome.ctb
 75
    16
147
1.0
148
0.0
149
0.0
100
AcDbLayout
  1
レイアウト1
 70
     1
 71
     1
 10
0.0
 20
0.0
 11
12.0
 21
9.0
 12
0.0
 22
0.0
 32
0.0
 14
0.0
 24
0.0
 34
0.0
 15
0.0
 25
0.0
 35
0.0
146
0.0
 13
0.0
 23
0.0
 33
0.0
 16
1.0
 26
0.0
 36
0.0
 17
0.0
 27
1.0
 37
0.0
 76
     0
330
C
  0
MLINESTYLE
  5
2B
102
{ACAD_REACTORS
330
26
102
}
330
26
100
AcDbMlineStyle
  2
STANDARD
 70
     0
  3

 62
   256
 51
90.0
 52
90.0
 71
     2
 49
0.5
 62
   256
  6
BYLAYER
 49
-0.5
 62
   256
  6
BYLAYER
  0
ACDBPLACEHOLDER
  5
5
102
{ACAD_REACTORS
330
6
102
}
330
6
  0
XRECORD
  5
F6F
102
{ACAD_REACTORS
330
F6D
102
}
330
F6D
100
AcDbXrecord
280
     1
340
29
  0
XRECORD
  5
F6E
102
{ACAD_REACTORS
330
F6D
102
}
330
F6D
100
AcDbXrecord
280
     1
340
28
  0
DICTIONARYVAR
  5
F6A
102
{ACAD_REACTORS
330
F68
102
}
330
F68
100
DictionaryVariables
280
     0
  1
2
  0
DICTIONARYVAR
  5
F69
102
{ACAD_REACTORS
330
F68
102
}
330
F68
100
DictionaryVariables
280
     0
  1
1
  0
DICTIONARYVAR
  5
F6B
102
{ACAD_REACTORS
330
F68
102
}
330
F68
100
DictionaryVariables
280
     0
  1

  0
XRECORD
  5
CCB
102
{ACAD_REACTORS
330
13
102
}
330
13
100
AcDbXrecord
280
     1
 91
       16
330
0
 90
        8
 62
     7
370
    15
331
8
  1
色_7
330
0
 90
        8
 62
     6
370
    15
331
8
  1
色_6
330
0
 90
        8
 62
     5
370
    15
331
8
  1
色_5
330
B5
 90
        8
 62
     4
370
    30
331
8
  1
色_4
330
0
 90
        8
 62
     3
370
    30
331
8
  1
色_3
330
0
 90
        8
 62
     2
370
    30
331
8
  1
色_2
330
0
 90
        8
 62
     1
370
    30
331
8
  1
色_1
330
4
 90
        8
 62
     7
370
    30
331
8
  1
色_7
  0
DICTIONARY
  5
F70
330
A
100
AcDbDictionary
280
     1
281
     1
  3
ACAD_XREC_ROUNDTRIP
360
F71
  0
DICTIONARY
  5
F72
330
F
100
AcDbDictionary
280
     1
281
     1
  3
ACAD_XREC_ROUNDTRIP
360
F73
  0
XRECORD
  5
F71
102
{ACAD_REACTORS
330
F70
102
}
330
F70
100
AcDbXrecord
280
     1
102
SHADEPLOT
 70
     0
102
SHADEPLOTRESLEVEL
 70
     2
102
SHADEPLOTCUSTOMDPI
 70
   300
  0
XRECORD
  5
F73
102
{ACAD_REACTORS
330
F72
102
}
330
F72
100
AcDbXrecord
280
     1
102
SHADEPLOT
 70
     0
102
SHADEPLOTRESLEVEL
 70
     2
102
SHADEPLOTCUSTOMDPI
 70
   300
  0
ENDSEC
  0
EOF
