  0
SECTION
  2
HEADER
  9
$ACADVER
  1
AC1015
  9
$ACADMAINTVER
 70
    20
  9
$DWGCODEPAGE
  3
ANSI_932
  9
$INSBASE
 10
0.0000000000000071
 20
-309.0
 30
0.0
  9
$EXTMIN
 10
-16.18210552162372
 20
-322.8885471224588
 30
-0.0000000000001222
  9
$EXTMAX
 10
406.6068483772934
 20
-15.34801320600911
 30
0.0000000000001222
  9
$LIMMIN
 10
0.0
 20
0.0
  9
$LIMMAX
 10
12.0
 20
9.0
  9
$ORTHOMODE
 70
     1
  9
$REGENMODE
 70
     1
  9
$FILLMODE
 70
     1
  9
$QTEXTMODE
 70
     0
  9
$MIRRTEXT
 70
     0
  9
$LTSCALE
 40
1.0
  9
$ATTMODE
 70
     1
  9
$TEXTSIZE
 40
3.0
  9
$TRACEWID
 40
0.05
  9
$TEXTSTYLE
  7
OPNUS
  9
$CLAYER
  8
0
  9
$CELTYPE
  6
ByLayer
  9
$CECOLOR
 62
   256
  9
$CELTSCALE
 40
1.0
  9
$DISPSILH
 70
     0
  9
$DIMSCALE
 40
1.0
  9
$DIMASZ
 40
3.0
  9
$DIMEXO
 40
1.0
  9
$DIMDLI
 40
6.0
  9
$DIMRND
 40
0.0
  9
$DIMDLE
 40
0.0
  9
$DIMEXE
 40
1.0
  9
$DIMTP
 40
1.0
  9
$DIMTM
 40
1.000000001
  9
$DIMTXT
 40
3.0
  9
$DIMCEN
 40
0.0
  9
$DIMTSZ
 40
0.0
  9
$DIMTOL
 70
     0
  9
$DIMLIM
 70
     0
  9
$DIMTIH
 70
     0
  9
$DIMTOH
 70
     0
  9
$DIMSE1
 70
     0
  9
$DIMSE2
 70
     0
  9
$DIMTAD
 70
     1
  9
$DIMZIN
 70
     8
  9
$DIMBLK
  1

  9
$DIMASO
 70
     1
  9
$DIMSHO
 70
     1
  9
$DIMPOST
  1

  9
$DIMAPOST
  1

  9
$DIMALT
 70
     0
  9
$DIMALTD
 70
     2
  9
$DIMALTF
 40
25.4
  9
$DIMLFAC
 40
1.0
  9
$DIMTOFL
 70
     1
  9
$DIMTVP
 40
0.0
  9
$DIMTIX
 70
     0
  9
$DIMSOXD
 70
     0
  9
$DIMSAH
 70
     0
  9
$DIMBLK1
  1

  9
$DIMBLK2
  1

  9
$DIMSTYLE
  2
OPNUS
  9
$DIMCLRD
 70
     6
  9
$DIMCLRE
 70
     6
  9
$DIMCLRT
 70
     2
  9
$DIMTFAC
 40
0.6
  9
$DIMGAP
 40
0.5
  9
$DIMJUST
 70
     0
  9
$DIMSD1
 70
     0
  9
$DIMSD2
 70
     0
  9
$DIMTOLJ
 70
     1
  9
$DIMTZIN
 70
     8
  9
$DIMALTZ
 70
     0
  9
$DIMALTTZ
 70
     0
  9
$DIMUPT
 70
     0
  9
$DIMDEC
 70
     2
  9
$DIMTDEC
 70
     2
  9
$DIMALTU
 70
     2
  9
$DIMALTTD
 70
     2
  9
$DIMTXSTY
  7
OPNUS
  9
$DIMAUNIT
 70
     0
  9
$DIMADEC
 70
     2
  9
$DIMALTRND
 40
0.0
  9
$DIMAZIN
 70
     2
  9
$DIMDSEP
 70
    46
  9
$DIMATFIT
 70
     3
  9
$DIMFRAC
 70
     0
  9
$DIMLDRBLK
  1

  9
$DIMLUNIT
 70
     2
  9
$DIMLWD
 70
    15
  9
$DIMLWE
 70
    15
  9
$DIMTMOVE
 70
     0
  9
$LUNITS
 70
     2
  9
$LUPREC
 70
     4
  9
$SKETCHINC
 40
0.1
  9
$FILLETRAD
 40
0.0
  9
$AUNITS
 70
     0
  9
$AUPREC
 70
     0
  9
$MENU
  1
.
  9
$ELEVATION
 40
0.0
  9
$PELEVATION
 40
0.0
  9
$THICKNESS
 40
0.0
  9
$LIMCHECK
 70
     0
  9
$CHAMFERA
 40
0.0
  9
$CHAMFERB
 40
0.0
  9
$CHAMFERC
 40
0.0
  9
$CHAMFERD
 40
0.0
  9
$SKPOLY
 70
     0
  9
$TDCREATE
 40
2453731.498369317
  9
$TDUCREATE
 40
2453731.123369317
  9
$TDUPDATE
 40
2455143.604458912
  9
$TDUUPDATE
 40
2455143.229458912
  9
$TDINDWG
 40
0.5309825347
  9
$TDUSRTIMER
 40
0.5309825347
  9
$USRTIMER
 70
     1
  9
$ANGBASE
 50
0.0
  9
$ANGDIR
 70
     0
  9
$PDMODE
 70
     0
  9
$PDSIZE
 40
0.0
  9
$PLINEWID
 40
0.0
  9
$SPLFRAME
 70
     0
  9
$SPLINETYPE
 70
     6
  9
$SPLINESEGS
 70
     8
  9
$HANDSEED
  5
1295
  9
$SURFTAB1
 70
     6
  9
$SURFTAB2
 70
     6
  9
$SURFTYPE
 70
     6
  9
$SURFU
 70
     6
  9
$SURFV
 70
     6
  9
$UCSBASE
  2

  9
$UCSNAME
  2

  9
$UCSORG
 10
0.0
 20
0.0
 30
0.0
  9
$UCSXDIR
 10
1.0
 20
0.0
 30
0.0
  9
$UCSYDIR
 10
0.0
 20
1.0
 30
0.0
  9
$UCSORTHOREF
  2

  9
$UCSORTHOVIEW
 70
     0
  9
$UCSORGTOP
 10
0.0
 20
0.0
 30
0.0
  9
$UCSORGBOTTOM
 10
0.0
 20
0.0
 30
0.0
  9
$UCSORGLEFT
 10
0.0
 20
0.0
 30
0.0
  9
$UCSORGRIGHT
 10
0.0
 20
0.0
 30
0.0
  9
$UCSORGFRONT
 10
0.0
 20
0.0
 30
0.0
  9
$UCSORGBACK
 10
0.0
 20
0.0
 30
0.0
  9
$PUCSBASE
  2

  9
$PUCSNAME
  2

  9
$PUCSORG
 10
0.0
 20
0.0
 30
0.0
  9
$PUCSXDIR
 10
1.0
 20
0.0
 30
0.0
  9
$PUCSYDIR
 10
0.0
 20
1.0
 30
0.0
  9
$PUCSORTHOREF
  2

  9
$PUCSORTHOVIEW
 70
     0
  9
$PUCSORGTOP
 10
0.0
 20
0.0
 30
0.0
  9
$PUCSORGBOTTOM
 10
0.0
 20
0.0
 30
0.0
  9
$PUCSORGLEFT
 10
0.0
 20
0.0
 30
0.0
  9
$PUCSORGRIGHT
 10
0.0
 20
0.0
 30
0.0
  9
$PUCSORGFRONT
 10
0.0
 20
0.0
 30
0.0
  9
$PUCSORGBACK
 10
0.0
 20
0.0
 30
0.0
  9
$USERI1
 70
    11
  9
$USERI2
 70
     0
  9
$USERI3
 70
     0
  9
$USERI4
 70
     0
  9
$USERI5
 70
     0
  9
$USERR1
 40
0.0
  9
$USERR2
 40
0.0
  9
$USERR3
 40
0.0
  9
$USERR4
 40
0.0
  9
$USERR5
 40
0.0
  9
$WORLDVIEW
 70
     1
  9
$SHADEDGE
 70
     3
  9
$SHADEDIF
 70
    70
  9
$TILEMODE
 70
     1
  9
$MAXACTVP
 70
    64
  9
$PINSBASE
 10
0.0
 20
0.0
 30
0.0
  9
$PLIMCHECK
 70
     0
  9
$PEXTMIN
 10
0.0
 20
0.0
 30
0.0
  9
$PEXTMAX
 10
0.0
 20
0.0
 30
0.0
  9
$PLIMMIN
 10
0.0
 20
0.0
  9
$PLIMMAX
 10
12.0
 20
9.0
  9
$UNITMODE
 70
     0
  9
$VISRETAIN
 70
     1
  9
$PLINEGEN
 70
     0
  9
$PSLTSCALE
 70
     1
  9
$TREEDEPTH
 70
  3020
  9
$CMLSTYLE
  2
Standard
  9
$CMLJUST
 70
     0
  9
$CMLSCALE
 40
1.0
  9
$PROXYGRAPHICS
 70
     1
  9
$MEASUREMENT
 70
     1
  9
$CELWEIGHT
370
    -1
  9
$ENDCAPS
280
     0
  9
$JOINSTYLE
280
     0
  9
$LWDISPLAY
290
     0
  9
$INSUNITS
 70
     1
  9
$HYPERLINKBASE
  1

  9
$STYLESHEET
  1
monochrome.ctb
  9
$XEDIT
290
     1
  9
$CEPSNTYPE
380
     0
  9
$PSTYLEMODE
290
     1
  9
$FINGERPRINTGUID
  2
{FDEAD576-A652-11D2-9A35-0060089B3A3F}
  9
$VERSIONGUID
  2
{5D3CB938-C289-4237-A2E0-EB8F19A00DF1}
  9
$EXTNAMES
290
     1
  9
$PSVPSCALE
 40
0.0
  9
$OLESTARTUP
290
     0
  0
ENDSEC
  0
SECTION
  2
CLASSES
  0
CLASS
  1
ACDBDICTIONARYWDFLT
  2
AcDbDictionaryWithDefault
  3
ObjectDBX Classes
 90
        0
280
     0
281
     0
  0
CLASS
  1
ACDBPLACEHOLDER
  2
AcDbPlaceHolder
  3
ObjectDBX Classes
 90
        0
280
     0
281
     0
  0
CLASS
  1
LAYOUT
  2
AcDbLayout
  3
ObjectDBX Classes
 90
        0
280
     0
281
     0
  0
CLASS
  1
DICTIONARYVAR
  2
AcDbDictionaryVar
  3
ObjectDBX Classes
 90
        0
280
     0
281
     0
  0
CLASS
  1
DIMASSOC
  2
AcDbDimAssoc
  3
"AcDbDimAssoc|Product Desc:     AcDim ARX App For Dimension|Company:          Autodesk, Inc.|WEB Address:      www.autodesk.com"
 90
        0
280
     0
281
     0
  0
CLASS
  1
TABLESTYLE
  2
AcDbTableStyle
  3
ObjectDBX Classes
 90
     2047
280
     0
281
     0
  0
CLASS
  1
SORTENTSTABLE
  2
AcDbSortentsTable
  3
ObjectDBX Classes
 90
    32768
280
     0
281
     0
  0
ENDSEC
  0
SECTION
  2
TABLES
  0
TABLE
  2
VPORT
  5
1D
330
0
100
AcDbSymbolTable
 70
     2
  0
VPORT
  5
128D
330
1D
100
AcDbSymbolTableRecord
100
AcDbViewportTableRecord
  2
*Active
 70
     0
 10
0.0
 20
0.0
 11
1.0
 21
1.0
 12
390.8772027443985
 22
-211.1082245743447
 13
0.0
 23
0.0
 14
3.0
 24
3.0
 15
0.5
 25
0.5
 16
0.0
 26
0.0
 36
1.0
 17
0.0
 27
0.0
 37
0.0
 40
515.5246383999629
 41
2.050420168067226
 42
50.0
 43
0.0
 44
0.0
 50
0.0
 51
0.0
 71
     0
 72
  1000
 73
     1
 74
     3
 75
     0
 76
     0
 77
     0
 78
     0
281
     0
 65
     1
110
0.0
120
0.0
130
0.0
111
1.0
121
0.0
131
0.0
112
0.0
122
1.0
132
0.0
 79
     0
146
0.0
  0
ENDTAB
  0
TABLE
  2
LTYPE
  5
18
330
0
100
AcDbSymbolTable
 70
     5
  0
LTYPE
  5
19
330
18
100
AcDbSymbolTableRecord
100
AcDbLinetypeTableRecord
  2
ByBlock
 70
     0
  3

 72
    65
 73
     0
 40
0.0
  0
LTYPE
  5
1A
330
18
100
AcDbSymbolTableRecord
100
AcDbLinetypeTableRecord
  2
ByLayer
 70
     0
  3

 72
    65
 73
     0
 40
0.0
  0
LTYPE
  5
8
330
18
100
AcDbSymbolTableRecord
100
AcDbLinetypeTableRecord
  2
Continuous
 70
     0
  3
Solid line
 72
    65
 73
     0
 40
0.0
  0
LTYPE
  5
106
330
18
100
AcDbSymbolTableRecord
100
AcDbLinetypeTableRecord
  2
CENTER
 70
     0
  3
Center ____ _ ____ _ ____ _ ____ _ ____ _ ____
 72
    65
 73
     4
 40
50.8
 49
31.75
 74
     0
 49
-6.349999999999999
 74
     0
 49
6.349999999999999
 74
     0
 49
-6.349999999999999
 74
     0
  0
LTYPE
  5
151
330
18
100
AcDbSymbolTableRecord
100
AcDbLinetypeTableRecord
  2
HIDDEN2
 70
     0
  3
Hidden (.5x) _ _ _ _ _ _ _ _ _ _ _ _ _ _ _ _ _
 72
    65
 73
     2
 40
4.762499999999999
 49
3.174999999999999
 74
     0
 49
-1.587499999999999
 74
     0
  0
LTYPE
  5
154
330
18
100
AcDbSymbolTableRecord
100
AcDbLinetypeTableRecord
  2
HIDDENX2
 70
     0
  3
Hidden (2x) ____ ____ ____ ____ ____ ____ ____
 72
    65
 73
     2
 40
19.05
 49
12.7
 74
     0
 49
-6.349999999999999
 74
     0
  0
ENDTAB
  0
TABLE
  2
LAYER
  5
10
102
{ACAD_XDICTIONARY
360
11
102
}
330
0
100
AcDbSymbolTable
 70
    10
  0
LAYER
  5
4
330
10
100
AcDbSymbolTableRecord
100
AcDbLayerTableRecord
  2
0
 70
     0
 62
     7
  6
Continuous
370
    15
390
5
  0
LAYER
  5
31
330
10
100
AcDbSymbolTableRecord
100
AcDbLayerTableRecord
  2
S
 70
     0
 62
     6
  6
Continuous
370
    15
390
5
  0
LAYER
  5
105
330
10
100
AcDbSymbolTableRecord
100
AcDbLayerTableRecord
  2
T
 70
     0
 62
     5
  6
CENTER
370
    15
390
5
  0
LAYER
  5
2A
330
10
100
AcDbSymbolTableRecord
100
AcDbLayerTableRecord
  2
W
 70
     0
 62
     7
  6
Continuous
370
    15
390
5
  0
LAYER
  5
112
330
10
100
AcDbSymbolTableRecord
100
AcDbLayerTableRecord
  2
Defpoints
 70
     0
 62
     7
  6
Continuous
290
     0
370
    -3
390
5
  0
ENDTAB
  0
TABLE
  2
STYLE
  5
14
330
0
100
AcDbSymbolTable
 70
     4
  0
STYLE
  5
15
330
14
100
AcDbSymbolTableRecord
100
AcDbTextStyleTableRecord
  2
Standard
 70
     0
 40
0.0
 41
1.0
 50
0.0
 71
     0
 42
0.2
  3
MS Mincho.ttf
  4

1001
ACAD
1000
MS Mincho
1071
    32785
  0
STYLE
  5
22
330
14
100
AcDbSymbolTableRecord
100
AcDbTextStyleTableRecord
  2
OPNUS
 70
     0
 40
0.0
 41
1.0
 50
0.0
 71
     0
 42
3.0
  3
MS PGothic.ttf
  4

1001
ACAD
1000
MS PGothic
1071
    32818
  0
ENDTAB
  0
TABLE
  2
VIEW
  5
1B
330
0
100
AcDbSymbolTable
 70
     0
  0
ENDTAB
  0
TABLE
  2
UCS
  5
1C
330
0
100
AcDbSymbolTable
 70
     0
  0
ENDTAB
  0
TABLE
  2
APPID
  5
1F
330
0
100
AcDbSymbolTable
 70
     1
  0
APPID
  5
16
330
1F
100
AcDbSymbolTableRecord
100
AcDbRegAppTableRecord
  2
ACAD
 70
     0
  0
ENDTAB
  0
TABLE
  2
DIMSTYLE
  5
20
330
0
100
AcDbSymbolTable
 70
     3
100
AcDbDimStyleTable
 71
     2
340
21
340
23
  0
DIMSTYLE
105
23
330
20
100
AcDbSymbolTableRecord
100
AcDbDimStyleTableRecord
  2
Standard
 70
     0
340
15
  0
DIMSTYLE
105
21
330
20
100
AcDbSymbolTableRecord
100
AcDbDimStyleTableRecord
  2
OPNUS
 70
     0
 41
3.0
 42
1.0
 43
6.0
 44
1.0
 47
1.0
 48
1.000000001
 73
     0
 74
     0
 77
     1
 78
     8
 79
     2
140
3.0
141
0.0
146
0.6
147
0.5
172
     1
176
     6
177
     6
178
     2
179
     2
271
     2
272
     2
284
     8
340
22
371
    15
372
    15
  0
ENDTAB
  0
TABLE
  2
BLOCK_RECORD
  5
1
330
0
100
AcDbSymbolTable
 70
    48
  0
BLOCK_RECORD
  5
2
330
1
100
AcDbSymbolTableRecord
100
AcDbBlockTableRecord
  2
*Model_Space
340
A
  0
BLOCK_RECORD
  5
C
330
1
100
AcDbSymbolTableRecord
100
AcDbBlockTableRecord
  2
*Paper_Space
340
F
  0
BLOCK_RECORD
  5
194
330
1
100
AcDbSymbolTableRecord
100
AcDbBlockTableRecord
  2
_DotSmall
340
0
102
{BLKREFS
331
1A0
331
1AE
331
116D
331
1179
102
}
  0
ENDTAB
  0
ENDSEC
  0
SECTION
  2
BLOCKS
  0
BLOCK
  5
3
330
2
100
AcDbEntity
  8
0
100
AcDbBlockBegin
  2
*Model_Space
 70
     0
 10
0.0
 20
0.0
 30
0.0
  3
*Model_Space
  1

  0
ENDBLK
  5
9
330
2
100
AcDbEntity
  8
0
100
AcDbBlockEnd
  0
BLOCK
  5
D
330
C
100
AcDbEntity
 67
     1
  8
0
100
AcDbBlockBegin
  2
*Paper_Space
 70
     0
 10
0.0
 20
0.0
 30
0.0
  3
*Paper_Space
  1

  0
ENDBLK
  5
E
330
C
100
AcDbEntity
 67
     1
  8
0
100
AcDbBlockEnd
  0
BLOCK
  5
195
330
194
100
AcDbEntity
  8
0
100
AcDbBlockBegin
  2
_DotSmall
 70
     0
 10
0.0
 20
0.0
 30
0.0
  3
_DotSmall
  1

  0
LWPOLYLINE
  5
196
330
194
100
AcDbEntity
  8
0
  6
ByBlock
 62
     0
100
AcDbPolyline
 90
        2
 70
     1
 43
0.5
 10
-0.0625
 20
0.0
 42
1.0
 10
0.0625
 20
0.0
 42
1.0
  0
ENDBLK
  5
197
330
194
100
AcDbEntity
  8
0
100
AcDbBlockEnd
  0
ENDSEC
  0
SECTION
  2
ENTITIES
  0
LINE
  5
38
330
2
100
AcDbEntity
  8
0
100
AcDbLine
 10
373.6098799737417
 20
-167.5499999999999
 30
0.0
 11
373.6098799737417
 21
-165.0499999999999
 31
0.0
  0
LINE
  5
3A
330
2
100
AcDbEntity
  8
0
100
AcDbLine
 10
373.6098799737417
 20
-170.0499999999999
 30
0.0
 11
373.6098799737417
 21
-167.5499999999999
 31
0.0
  0
LINE
  5
54
330
2
100
AcDbEntity
  8
0
100
AcDbLine
 10
337.6098799737413
 20
-139.0499999999999
 30
0.0
 11
347.6098799737417
 21
-139.0499999999999
 31
0.0
  0
LINE
  5
55
330
2
100
AcDbEntity
  8
0
100
AcDbLine
 10
347.6098799737417
 20
-136.0499999999999
 30
0.0
 11
337.6098799737404
 21
-136.0499999999998
 31
0.0
  0
LINE
  5
5A
330
2
100
AcDbEntity
  8
0
100
AcDbLine
 10
347.6098799737417
 20
-137.5499999999999
 30
0.0
 11
347.6098799737417
 21
-136.0499999999999
 31
0.0
  0
LINE
  5
5B
330
2
100
AcDbEntity
  8
0
100
AcDbLine
 10
347.6098799737417
 20
-139.0499999999999
 30
0.0
 11
347.6098799737417
 21
-137.5499999999999
 31
0.0
  0
CIRCLE
  5
5E
330
2
100
AcDbEntity
  8
0
100
AcDbCircle
 10
326.4461981964536
 20
-167.5499999999999
 30
0.0
 40
4.200000000000002
  0
LINE
  5
5F
330
2
100
AcDbEntity
  8
0
100
AcDbLine
 10
325.951082436961
 20
-165.3015640894088
 30
0.0
 11
325.9340238651276
 21
-166.4438559724773
 31
0.0
  0
LINE
  5
60
330
2
100
AcDbEntity
  8
0
100
AcDbLine
 10
325.9340238651276
 20
-166.4438559724773
 30
0.0
 11
325.7456792832821
 21
-166.8494810868284
 31
0.0
  0
LINE
  5
61
330
2
100
AcDbEntity
  8
0
100
AcDbLine
 10
325.7456792832821
 20
-166.8494810868284
 30
0.0
 11
325.340054168931
 21
-167.037825668674
 31
0.0
  0
LINE
  5
62
330
2
100
AcDbEntity
  8
0
100
AcDbLine
 10
325.340054168931
 20
-167.037825668674
 30
0.0
 11
324.1977622858625
 21
-167.0548842405073
 31
0.0
  0
ARC
  5
63
330
2
100
AcDbEntity
  8
0
100
AcDbCircle
 10
326.4461981964536
 20
-167.5499999999998
 30
0.0
 40
2.302303989340647
100
AcDbArc
 50
167.5814045740984
 51
192.4185954259031
  0
LINE
  5
64
330
2
100
AcDbEntity
  8
0
100
AcDbLine
 10
324.1977622858625
 20
-168.0451157594926
 30
0.0
 11
325.3400541689309
 21
-168.0621743313259
 31
0.0
  0
LINE
  5
65
330
2
100
AcDbEntity
  8
0
100
AcDbLine
 10
325.3400541689309
 20
-168.0621743313259
 30
0.0
 11
325.7456792832821
 21
-168.2505189131716
 31
0.0
  0
LINE
  5
66
330
2
100
AcDbEntity
  8
0
100
AcDbLine
 10
325.7456792832821
 20
-168.2505189131716
 30
0.0
 11
325.9340238651276
 21
-168.6561440275226
 31
0.0
  0
LINE
  5
67
330
2
100
AcDbEntity
  8
0
100
AcDbLine
 10
325.9340238651276
 20
-168.6561440275226
 30
0.0
 11
325.951082436961
 21
-169.7984359105911
 31
0.0
  0
ARC
  5
68
330
2
100
AcDbEntity
  8
0
100
AcDbCircle
 10
326.4461981964536
 20
-167.5499999999998
 30
0.0
 40
2.302303989340653
100
AcDbArc
 50
257.5814045740973
 51
282.4185954259047
  0
LINE
  5
69
330
2
100
AcDbEntity
  8
0
100
AcDbLine
 10
326.9413139559462
 20
-169.798435910591
 30
0.0
 11
326.9583725277796
 21
-168.6561440275226
 31
0.0
  0
LINE
  5
6A
330
2
100
AcDbEntity
  8
0
100
AcDbLine
 10
326.9583725277796
 20
-168.6561440275226
 30
0.0
 11
327.1467171096254
 21
-168.2505189131711
 31
0.0
  0
LINE
  5
6B
330
2
100
AcDbEntity
  8
0
100
AcDbLine
 10
327.1467171096254
 20
-168.2505189131711
 30
0.0
 11
327.5523422239763
 21
-168.0621743313259
 31
0.0
  0
LINE
  5
6C
330
2
100
AcDbEntity
  8
0
100
AcDbLine
 10
327.5523422239763
 20
-168.0621743313259
 30
0.0
 11
328.6946341070448
 21
-168.0451157594925
 31
0.0
  0
ARC
  5
6D
330
2
100
AcDbEntity
  8
0
100
AcDbCircle
 10
326.4461981964536
 20
-167.5499999999998
 30
0.0
 40
2.30230398934063
100
AcDbArc
 50
347.5814045740977
 51
12.41859542590312
  0
LINE
  5
6E
330
2
100
AcDbEntity
  8
0
100
AcDbLine
 10
328.6946341070448
 20
-167.0548842405073
 30
0.0
 11
327.5523422239763
 21
-167.037825668674
 31
0.0
  0
LINE
  5
6F
330
2
100
AcDbEntity
  8
0
100
AcDbLine
 10
327.5523422239763
 20
-167.037825668674
 30
0.0
 11
327.1467171096248
 21
-166.8494810868281
 31
0.0
  0
LINE
  5
70
330
2
100
AcDbEntity
  8
0
100
AcDbLine
 10
327.1467171096248
 20
-166.8494810868281
 30
0.0
 11
326.9583725277796
 21
-166.4438559724772
 31
0.0
  0
LINE
  5
71
330
2
100
AcDbEntity
  8
0
100
AcDbLine
 10
326.9583725277796
 20
-166.4438559724772
 30
0.0
 11
326.9413139559462
 21
-165.3015640894088
 31
0.0
  0
ARC
  5
72
330
2
100
AcDbEntity
  8
0
100
AcDbCircle
 10
326.4461981964536
 20
-167.5499999999998
 30
0.0
 40
2.30230398934061
100
AcDbArc
 50
77.5814045740973
 51
102.4185954259047
  0
LINE
  5
73
330
2
100
AcDbEntity
  8
0
100
AcDbLine
 10
336.1098799737417
 20
-171.7499999999999
 30
0.0
 11
337.8098799737417
 21
-170.0499999999999
 31
0.0
  0
LINE
  5
74
330
2
100
AcDbEntity
  8
0
100
AcDbLine
 10
337.8098799737417
 20
-165.0499999999999
 30
0.0
 11
336.1098799737417
 21
-163.3499999999999
 31
0.0
  0
LINE
  5
75
330
2
100
AcDbEntity
  8
0
100
AcDbLine
 10
335.6098799737417
 20
-171.7499999999999
 30
0.0
 11
336.1098799737417
 21
-171.7499999999999
 31
0.0
  0
LINE
  5
76
330
2
100
AcDbEntity
  8
0
100
AcDbLine
 10
336.1098799737417
 20
-163.3499999999999
 30
0.0
 11
335.6098799737417
 21
-163.3499999999999
 31
0.0
  0
LINE
  5
77
330
2
100
AcDbEntity
  8
0
100
AcDbLine
 10
337.8098799737417
 20
-170.0499999999999
 30
0.0
 11
373.6098799737417
 21
-170.0499999999999
 31
0.0
  0
LINE
  5
78
330
2
100
AcDbEntity
  8
0
100
AcDbLine
 10
373.6098799737417
 20
-165.0499999999999
 30
0.0
 11
337.8098799737417
 21
-165.0499999999999
 31
0.0
  0
LINE
  5
79
330
2
100
AcDbEntity
  8
0
100
AcDbLine
 10
336.1098799737417
 20
-167.5499999999999
 30
0.0
 11
336.1098799737417
 21
-163.3499999999999
 31
0.0
  0
LINE
  5
7A
330
2
100
AcDbEntity
  8
0
100
AcDbLine
 10
336.1098799737417
 20
-171.7499999999999
 30
0.0
 11
336.1098799737417
 21
-167.5499999999999
 31
0.0
  0
LINE
  5
7B
330
2
100
AcDbEntity
  8
0
100
AcDbLine
 10
335.6098799737417
 20
-167.5499999999999
 30
0.0
 11
335.6098799737417
 21
-163.3499999999999
 31
0.0
  0
LINE
  5
7C
330
2
100
AcDbEntity
  8
0
100
AcDbLine
 10
335.6098799737417
 20
-171.7499999999999
 30
0.0
 11
335.6098799737417
 21
-167.5499999999999
 31
0.0
  0
LINE
  5
7D
330
2
100
AcDbEntity
  8
0
100
AcDbLine
 10
337.8098799737417
 20
-167.5499999999999
 30
0.0
 11
337.8098799737417
 21
-165.0499999999999
 31
0.0
  0
LINE
  5
7E
330
2
100
AcDbEntity
  8
0
100
AcDbLine
 10
337.8098799737417
 20
-170.0499999999999
 30
0.0
 11
337.8098799737417
 21
-167.5499999999999
 31
0.0
  0
LINE
  5
104
330
2
100
AcDbEntity
  8
T
100
AcDbLine
 10
235.1264878782294
 20
-141.1630825582624
 30
0.0
 11
235.1264878782294
 21
-200.0629521903688
 31
0.0
  0
ARC
  5
150
330
2
100
AcDbEntity
  8
0
  6
HIDDEN2
370
    15
100
AcDbCircle
 10
127.1812759852519
 20
-177.8897721230378
 30
0.0
 40
0.5
100
AcDbArc
 50
65.44935288065729
 51
182.7713618189158
  0
ARC
  5
152
330
2
100
AcDbEntity
  8
0
  6
HIDDEN2
370
    15
100
AcDbCircle
 10
127.1812759852519
 20
-163.336262625593
 30
0.0
 40
0.5
100
AcDbArc
 50
177.2286381810841
 51
294.5506471193427
  0
ARC
  5
153
330
2
100
AcDbEntity
  8
0
  6
HIDDENX2
370
    15
100
AcDbCircle
 10
130.5052555770887
 20
-170.6130173743154
 30
0.0
 40
17.5
100
AcDbArc
 50
246.6719440005766
 51
257.8228854555475
  0
ARC
  5
155
330
2
100
AcDbEntity
  8
0
  6
HIDDEN2
370
    15
100
AcDbCircle
 10
130.5052555770887
 20
-170.6130173743154
 30
0.0
 40
17.5
100
AcDbArc
 50
102.1771145444525
 51
113.3280559994234
  0
ARC
  5
156
330
2
100
AcDbEntity
  8
0
  6
HIDDEN2
370
    15
100
AcDbCircle
 10
126.9193712233473
 20
-187.2305212001492
 30
0.0
 40
0.5
100
AcDbArc
 50
257.8228854555475
 51
6.297243638246937
  0
ARC
  5
157
330
2
100
AcDbEntity
  8
0
  6
HIDDEN2
370
    15
100
AcDbCircle
 10
126.9193712233473
 20
-153.9955135484815
 30
0.0
 40
0.5
100
AcDbArc
 50
353.7027563617531
 51
102.1771145444525
  0
ARC
  5
158
330
2
100
AcDbEntity
  8
0
  6
HIDDEN2
370
    15
100
AcDbCircle
 10
277.5052555770888
 20
-170.6130173743154
 30
0.0
 40
151.0
100
AcDbArc
 50
182.7713618189158
 51
186.2972436382469
  0
ARC
  5
159
330
2
100
AcDbEntity
  8
0
  6
HIDDEN2
370
    15
100
AcDbCircle
 10
277.5052555770888
 20
-170.6130173743154
 30
0.0
 40
151.0
100
AcDbArc
 50
173.702756361753
 51
177.2286381810841
  0
ARC
  5
15A
330
2
100
AcDbEntity
  8
0
  6
HIDDEN2
370
    15
100
AcDbCircle
 10
137.4351714084491
 20
-154.5435971430179
 30
0.0
 40
35.0
100
AcDbArc
 50
215.0231851671688
 51
246.6719440005766
  0
ARC
  5
15B
330
2
100
AcDbEntity
  8
0
  6
HIDDEN2
370
    15
100
AcDbCircle
 10
137.4351714084491
 20
-186.6824376056129
 30
0.0
 40
35.0
100
AcDbArc
 50
113.3280559994234
 51
144.9768148328311
  0
ARC
  5
15C
330
2
100
AcDbEntity
  8
0
  6
HIDDEN2
370
    15
100
AcDbCircle
 10
114.505414902329
 20
-170.6130173743154
 30
0.0
 40
7.0
100
AcDbArc
 50
144.9768148328311
 51
215.0231851671688
  0
LINE
  5
1BA
330
2
100
AcDbEntity
  8
0
100
AcDbLine
 10
127.7774702991391
 20
-161.582917416134
 30
0.0
 11
127.7774702991391
 21
-161.868559637704
 31
0.0
  0
LINE
  5
1BB
330
2
100
AcDbEntity
  8
0
100
AcDbLine
 10
158.5054153344627
 20
-166.9130173731978
 30
0.0
 11
158.5054153344627
 21
-167.0962716207291
 31
0.0
  0
LINE
  5
1BC
330
2
100
AcDbEntity
  8
0
100
AcDbLine
 10
158.5054153344627
 20
-167.0962716207291
 30
0.0
 11
158.5054153344627
 21
-167.6267990596975
 31
0.0
  0
LINE
  5
1BD
330
2
100
AcDbEntity
  8
0
100
AcDbLine
 10
158.5054153344627
 20
-167.0962716207291
 30
0.0
 11
157.5054151705499
 21
-166.0558799967552
 31
0.0
  0
LINE
  5
1BE
330
2
100
AcDbEntity
  8
0
100
AcDbLine
 10
158.5054153344627
 20
-174.1297631279017
 30
0.0
 11
158.5054153344627
 21
-174.313017375433
 31
0.0
  0
LINE
  5
1BF
330
2
100
AcDbEntity
  8
0
100
AcDbLine
 10
158.5054153344627
 20
-173.5992356889332
 30
0.0
 11
158.5054153344627
 21
-174.1297631279017
 31
0.0
  0
LINE
  5
1C0
330
2
100
AcDbEntity
  8
0
100
AcDbLine
 10
157.5054151705499
 20
-175.1701547518755
 30
0.0
 11
158.5054153344627
 21
-174.1297631279017
 31
0.0
  0
LINE
  5
1C1
330
2
100
AcDbEntity
  8
0
100
AcDbLine
 10
158.5054153344627
 20
-167.6267990596975
 30
0.0
 11
158.5054153344627
 21
-169.4630173487971
 31
0.0
  0
LINE
  5
1C2
330
2
100
AcDbEntity
  8
0
100
AcDbLine
 10
158.5054153344627
 20
-167.6267990596975
 30
0.0
 11
150.0054148725267
 21
-167.6267990596975
 31
0.0
  0
LINE
  5
1C3
330
2
100
AcDbEntity
  8
0
100
AcDbLine
 10
158.5054153344627
 20
-171.7630173998336
 30
0.0
 11
158.5054153344627
 21
-173.5992356889332
 31
0.0
  0
LINE
  5
1C4
330
2
100
AcDbEntity
  8
0
100
AcDbLine
 10
158.5054153344627
 20
-173.5992356889332
 30
0.0
 11
150.0054148725267
 21
-173.5992356889332
 31
0.0
  0
LWPOLYLINE
  5
1C5
330
2
100
AcDbEntity
  8
0
100
AcDbPolyline
 90
        7
 70
   128
 43
0.0
 10
150.0054148725267
 20
-167.6267990596975
 10
149.8606892070766
 20
-167.6121416721876
 10
149.73285773313
 20
-167.5718242522712
 10
149.6250031284089
 20
-167.5086437944705
 10
149.541951506495
 20
-167.4195462592329
 10
149.505430623054
 20
-167.3037844930227
 10
149.5054138592477
 20
-167.3012957662727
  0
LWPOLYLINE
  5
1C6
330
2
100
AcDbEntity
  8
0
100
AcDbPolyline
 90
        7
 70
   128
 43
0.0
 10
150.0054148725267
 20
-173.5992356889332
 10
149.8606892070766
 20
-173.6138930764432
 10
149.73285773313
 20
-173.6542104963596
 10
149.6250031284089
 20
-173.7173909541602
 10
149.541951506495
 20
-173.8064884893979
 10
149.505430623054
 20
-173.9222502556081
 10
149.5054138592477
 20
-173.9247389823581
  0
LINE
  5
1C7
330
2
100
AcDbEntity
  8
0
100
AcDbLine
 10
157.5054151705499
 20
-175.3130173065151
 30
0.0
 11
157.5054151705499
 21
-175.1701547518755
 31
0.0
  0
LINE
  5
1C8
330
2
100
AcDbEntity
  8
0
100
AcDbLine
 10
157.5054151705499
 20
-175.1701547518755
 30
0.0
 11
150.0054148725267
 21
-175.1701547518755
 31
0.0
  0
LWPOLYLINE
  5
1C9
330
2
100
AcDbEntity
  8
0
100
AcDbPolyline
 90
        6
 70
   128
 43
0.0
 10
150.0054148725267
 20
-175.1701547518755
 10
149.8441302916999
 20
-175.1633267604197
 10
149.7010512045617
 20
-175.1428311445202
 10
149.5904790005679
 20
-175.1086041085805
 10
149.5228221408124
 20
-175.0607113108421
 10
149.5054138592477
 20
-175.0138695106293
  0
LINE
  5
1CA
330
2
100
AcDbEntity
  8
0
100
AcDbLine
 10
149.5054138592477
 20
-172.2630173653747
 30
0.0
 11
149.5054138592477
 21
-175.0138695106293
 31
0.0
  0
ARC
  5
1CB
330
2
100
AcDbEntity
  8
0
100
AcDbCircle
 10
150.0054157276381
 20
-172.2630192682268
 30
0.0
 40
0.5000018683941333
100
AcDbArc
 50
90.00009798820428
 51
180.0
  0
LINE
  5
1CC
330
2
100
AcDbEntity
  8
0
100
AcDbLine
 10
157.5054151705499
 20
-171.7630173998336
 30
0.0
 11
150.0054148725264
 21
-171.7630173998336
 31
0.0
  0
LINE
  5
1CD
330
2
100
AcDbEntity
  8
0
100
AcDbLine
 10
157.5054151705499
 20
-169.4630173487971
 30
0.0
 11
150.0054148725264
 21
-169.4630173487971
 31
0.0
  0
ARC
  5
1CE
330
2
100
AcDbEntity
  8
0
100
AcDbCircle
 10
150.0054146445841
 20
-168.963016563458
 30
0.0
 40
0.5000007853392625
100
AcDbArc
 50
180.0
 51
270.0000261202417
  0
LINE
  5
1CF
330
2
100
AcDbEntity
  8
0
100
AcDbLine
 10
149.5054138592477
 20
-166.2121652380015
 30
0.0
 11
149.5054138592477
 21
-168.9630173832561
 31
0.0
  0
LWPOLYLINE
  5
1D0
330
2
100
AcDbEntity
  8
0
100
AcDbPolyline
 90
        6
 70
   128
 43
0.0
 10
149.5054138592477
 20
-166.2121652380015
 10
149.5353391162152
 20
-166.1519943491007
 10
149.6242189548011
 20
-166.1040759399916
 10
149.7570907465215
 20
-166.0730521880473
 10
149.9141601613755
 20
-166.0580076031769
 10
150.0054148725267
 20
-166.0558799967552
  0
LINE
  5
1D1
330
2
100
AcDbEntity
  8
0
100
AcDbLine
 10
157.5054151705499
 20
-166.0558799967552
 30
0.0
 11
150.0054148725267
 21
-166.0558799967552
 31
0.0
  0
LINE
  5
1D2
330
2
100
AcDbEntity
  8
0
100
AcDbLine
 10
157.5054151705499
 20
-166.0558799967552
 30
0.0
 11
157.5054151705499
 21
-165.9130174421157
 31
0.0
  0
LINE
  5
1D3
330
2
100
AcDbEntity
  8
0
100
AcDbLine
 10
157.5054151705499
 20
-169.4630173487971
 30
0.0
 11
158.5054153344627
 21
-169.4630173487971
 31
0.0
  0
LINE
  5
1D4
330
2
100
AcDbEntity
  8
0
100
AcDbLine
 10
157.5054151705499
 20
-171.7630173998336
 30
0.0
 11
157.5054151705499
 21
-169.4630173487971
 31
0.0
  0
LINE
  5
1D5
330
2
100
AcDbEntity
  8
0
100
AcDbLine
 10
158.5054153344627
 20
-171.7630173998336
 30
0.0
 11
157.5054151705499
 21
-171.7630173998336
 31
0.0
  0
LINE
  5
1D6
330
2
100
AcDbEntity
  8
0
100
AcDbLine
 10
158.5054153344627
 20
-169.4630173487971
 30
0.0
 11
158.5054153344627
 21
-171.7630173998336
 31
0.0
  0
LINE
  5
1D7
330
2
100
AcDbEntity
  8
0
100
AcDbLine
 10
127.7765634237821
 20
-162.703087063172
 30
0.0
 11
127.7774702991391
 21
-162.67663284544
 31
0.0
  0
LINE
  5
1D8
330
2
100
AcDbEntity
  8
0
100
AcDbLine
 10
127.7774702991391
 20
-162.67663284544
 30
0.0
 11
127.7774702991391
 21
-178.5494019031907
 31
0.0
  0
LINE
  5
1D9
330
2
100
AcDbEntity
  8
0
100
AcDbLine
 10
129.3999327114814
 20
-157.3260039776946
 30
0.0
 11
129.4032434468188
 21
-157.3337991476441
 31
0.0
  0
LWPOLYLINE
  5
1DA
330
2
100
AcDbEntity
  8
0
100
AcDbPolyline
 90
        3
 70
   128
 43
0.0
 10
132.0498725633167
 20
-165.5887942515696
 10
132.0495960769274
 20
-165.585616578945
 10
132.0499232039817
 20
-165.5730516404296
  0
ARC
  5
1DB
330
2
100
AcDbEntity
  8
0
100
AcDbCircle
 10
110.116680020358
 20
-167.8867059587601
 30
0.0
 40
22.05493488670299
100
AcDbArc
 50
6.021644576951514
 51
13.16046774614491
  0
LINE
  5
1DC
330
2
100
AcDbEntity
  8
0
100
AcDbLine
 10
146.5054152301545
 20
-153.6130164504434
 30
0.0
 11
146.5054152301543
 21
-170.6130173743154
 31
0.0
  0
LINE
  5
1DD
330
2
100
AcDbEntity
  8
0
100
AcDbLine
 10
146.5054152301543
 20
-170.6130173743154
 30
0.0
 11
146.5054152301545
 21
-187.6130182981874
 31
0.0
  0
LINE
  5
1DE
330
2
100
AcDbEntity
  8
0
100
AcDbLine
 10
135.5054143584366
 20
-192.3159588814164
 30
0.0
 11
135.5054143584366
 21
-148.9100758672143
 31
0.0
  0
LINE
  5
1DF
330
2
100
AcDbEntity
  8
0
100
AcDbLine
 10
144.505414902329
 20
-146.6130171656991
 30
0.0
 11
144.505414902329
 21
-194.6130175829316
 31
0.0
  0
LINE
  5
1E0
330
2
100
AcDbEntity
  8
0
100
AcDbLine
 10
143.5054147384162
 20
-146.6130171656991
 30
0.0
 11
143.5054147384162
 21
-194.6130175829316
 31
0.0
  0
LINE
  5
1E1
330
2
100
AcDbEntity
  8
0
100
AcDbLine
 10
158.5054153344627
 20
-166.9130173731978
 30
0.0
 11
157.5054151705499
 21
-165.9130174421157
 31
0.0
  0
LINE
  5
1E2
330
2
100
AcDbEntity
  8
0
100
AcDbLine
 10
157.5054151705499
 20
-175.3130173065151
 30
0.0
 11
158.5054153344627
 21
-174.313017375433
 31
0.0
  0
ARC
  5
1E3
330
2
100
AcDbEntity
  8
0
100
AcDbCircle
 10
128.9751145310918
 20
-187.6130173743154
 30
0.0
 40
0.5000000000000079
100
AcDbArc
 50
186.5293623642403
 51
230.1133627929445
  0
ARC
  5
1E4
330
2
100
AcDbEntity
  8
0
100
AcDbCircle
 10
128.9751145310918
 20
-153.6130173743154
 30
0.0
 40
0.5000000000000063
100
AcDbArc
 50
129.8866372070555
 51
173.4706376357597
  0
LINE
  5
1E5
330
2
100
AcDbEntity
  8
0
100
AcDbLine
 10
127.7765634237821
 20
-161.6130177617456
 30
0.0
 11
127.7765634237821
 21
-161.8977081716443
 31
0.0
  0
LINE
  5
1E6
330
2
100
AcDbEntity
  8
0
100
AcDbLine
 10
127.7765634237821
 20
-179.3283265769864
 30
0.0
 11
127.7765634237821
 21
-179.6130169868852
 31
0.0
  0
LINE
  5
1E7
330
2
100
AcDbEntity
  8
0
100
AcDbLine
 10
127.7765634237821
 20
-177.9223587118472
 30
0.0
 11
127.7765634237821
 21
-179.3283265769864
 31
0.0
  0
LINE
  5
1E8
330
2
100
AcDbEntity
  8
0
100
AcDbLine
 10
127.7765634237821
 20
-161.8977081716443
 30
0.0
 11
127.7765634237821
 21
-162.703087063172
 31
0.0
  0
ARC
  5
1E9
330
2
100
AcDbEntity
  8
0
100
AcDbCircle
 10
128.2765633722924
 20
-179.6130173743154
 30
0.0
 40
0.5
100
AcDbArc
 50
180.0
 51
183.4513310695664
  0
ARC
  5
1EA
330
2
100
AcDbEntity
  8
0
100
AcDbCircle
 10
128.2765633722924
 20
-161.6130173743154
 30
0.0
 40
0.5
100
AcDbArc
 50
176.5486689304595
 51
180.0
  0
ARC
  5
1EB
330
2
100
AcDbEntity
  8
0
100
AcDbCircle
 10
277.5054144701951
 20
-170.6130173743154
 30
0.0
 40
150.0
100
AcDbArc
 50
173.4706376357597
 51
176.5486689304595
  0
ARC
  5
1EC
330
2
100
AcDbEntity
  8
0
100
AcDbCircle
 10
277.5054144701951
 20
-170.6130173743154
 30
0.0
 40
150.0
100
AcDbArc
 50
183.4513310695404
 51
186.5293623642403
  0
LINE
  5
1ED
330
2
100
AcDbEntity
  8
0
100
AcDbLine
 10
157.5054151705499
 20
-165.9130174421157
 30
0.0
 11
146.5054152301545
 21
-165.9130174421157
 31
0.0
  0
LINE
  5
1EE
330
2
100
AcDbEntity
  8
0
100
AcDbLine
 10
146.5054152301545
 20
-175.3130173065151
 30
0.0
 11
157.5054151705499
 21
-175.3130173065151
 31
0.0
  0
ARC
  5
1EF
330
2
100
AcDbEntity
  8
0
100
AcDbCircle
 10
128.2765633722924
 20
-162.7030871076035
 30
0.0
 40
0.5000000000000071
100
AcDbArc
 50
177.0518036258598
 51
180.0
  0
ARC
  5
1F0
330
2
100
AcDbEntity
  8
0
100
AcDbCircle
 10
277.5054144701953
 20
-170.6130173743154
 30
0.0
 40
150.0
100
AcDbArc
 50
177.3162732411538
 51
182.6837267588462
  0
ARC
  5
1F1
330
2
100
AcDbEntity
  8
0
100
AcDbCircle
 10
128.1693839885997
 20
-177.6130173743154
 30
0.0
 40
0.5000000000000286
100
AcDbArc
 50
182.6837267587941
 51
218.2199766102015
  0
ARC
  5
1F2
330
2
100
AcDbEntity
  8
0
100
AcDbCircle
 10
128.1693839885997
 20
-163.6130173743154
 30
0.0
 40
0.5000000000000286
100
AcDbArc
 50
141.7800233897985
 51
177.3162732412058
  0
LINE
  5
1F3
330
2
100
AcDbEntity
  8
0
100
AcDbLine
 10
128.6544791889409
 20
-152.1130171358968
 30
0.0
 11
128.6544791889407
 21
-153.6252409905578
 31
0.0
  0
LINE
  5
1F4
330
2
100
AcDbEntity
  8
0
100
AcDbLine
 10
128.6544791889407
 20
-187.600793758073
 30
0.0
 11
128.6544791889409
 21
-189.1130176127339
 31
0.0
  0
ARC
  5
1F5
330
2
100
AcDbEntity
  8
0
100
AcDbCircle
 10
129.1544791849735
 20
-189.1130173743154
 30
0.0
 40
0.5
100
AcDbArc
 50
180.0
 51
187.1083342072856
  0
ARC
  5
1F6
330
2
100
AcDbEntity
  8
0
100
AcDbCircle
 10
129.1544791849735
 20
-152.1130173743154
 30
0.0
 40
0.5
100
AcDbArc
 50
172.8916657927143
 51
180.0
  0
LWPOLYLINE
  5
1F7
330
2
100
AcDbEntity
  8
0
100
AcDbPolyline
 90
        3
 70
   128
 43
0.0
 10
128.6566329888098
 20
-187.1580821216489
 10
128.6552330945649
 20
-187.3249900281812
 10
128.6554732593738
 20
-187.5932779848958
  0
LWPOLYLINE
  5
1F8
330
2
100
AcDbEntity
  8
0
100
AcDbPolyline
 90
        3
 70
   128
 43
0.0
 10
128.6547555589147
 20
-153.6273308784152
 10
128.6547319266044
 20
-153.7835136741782
 10
128.6570726894804
 20
-154.042542421856
  0
ARC
  5
1F9
330
2
100
AcDbEntity
  8
0
100
AcDbCircle
 10
277.5054144702044
 20
-170.6130173743154
 30
0.0
 40
150.0000000000092
100
AcDbArc
 50
172.4311511299464
 51
172.8916657927402
  0
ARC
  5
1FA
330
2
100
AcDbEntity
  8
0
100
AcDbCircle
 10
277.5054144702044
 20
-170.6130173743154
 30
0.0
 40
150.0000000000092
100
AcDbArc
 50
187.1083342072598
 51
187.5688488700536
  0
ARC
  5
1FB
330
2
100
AcDbEntity
  8
0
100
AcDbCircle
 10
129.3079630910115
 20
-190.3047771919268
 30
0.0
 40
0.4999999999999979
100
AcDbArc
 50
187.5688488700794
 51
255.0000000000056
  0
ARC
  5
1FC
330
2
100
AcDbEntity
  8
0
100
AcDbCircle
 10
129.3079630910115
 20
-150.9212575567039
 30
0.0
 40
0.4999999999999979
100
AcDbArc
 50
104.9999999999944
 51
172.4311511299205
  0
ARC
  5
1FD
330
2
100
AcDbEntity
  8
0
100
AcDbCircle
 10
137.481737690817
 20
-187.4618042072111
 30
0.0
 40
8.826817370270843
100
AcDbArc
 50
156.1619332098636
 51
177.5724738850042
  0
LINE
  5
1FE
330
2
100
AcDbEntity
  8
0
100
AcDbLine
 10
128.6625809968479
 20
-154.0716890931512
 30
0.0
 11
128.6631870550134
 21
-154.185232216158
 31
0.0
  0
ARC
  5
1FF
330
2
100
AcDbEntity
  8
0
100
AcDbCircle
 10
137.3968852177775
 20
-153.7788294639449
 30
0.0
 40
8.743148563033427
100
AcDbArc
 50
182.6642067818212
 51
203.9793921768
  0
ARC
  5
200
330
2
100
AcDbEntity
  8
0
100
AcDbCircle
 10
150.0464717753436
 20
-192.407709186597
 30
0.0
 40
22.32750744762663
100
AcDbArc
 50
151.9990392263889
 51
157.6005218950722
  0
ARC
  5
201
330
2
100
AcDbEntity
  8
0
100
AcDbCircle
 10
152.9947167621865
 20
-147.2900395140305
 30
0.0
 40
25.64009227574699
100
AcDbArc
 50
203.0419137429192
 51
207.8839673796913
  0
LINE
  5
202
330
2
100
AcDbEntity
  8
0
100
AcDbLine
 10
132.0449485444494
 20
-175.638634221294
 30
0.0
 11
132.0277505089559
 21
-175.8004482590045
 31
0.0
  0
ARC
  5
203
330
2
100
AcDbEntity
  8
0
100
AcDbCircle
 10
114.24042293565
 20
-174.152603851609
 30
0.0
 40
17.86349387412988
100
AcDbArc
 50
334.2184599577418
 51
354.7071413971882
  0
LINE
  5
204
330
2
100
AcDbEntity
  8
0
100
AcDbLine
 10
131.5556699643873
 20
-162.7082139939452
 30
0.0
 11
131.5976154525795
 21
-162.9005861223127
 31
0.0
  0
ARC
  5
205
330
2
100
AcDbEntity
  8
0
100
AcDbCircle
 10
117.2122959945384
 20
-165.9667615190605
 30
0.0
 40
14.70858615832806
100
AcDbArc
 50
13.09136927596795
 51
26.93279317086843
  0
ARC
  5
206
330
2
100
AcDbEntity
  8
0
100
AcDbCircle
 10
132.5468548522522
 20
-165.5339433285794
 30
0.0
 40
0.4999999999999972
100
AcDbArc
 50
186.2981462376282
 51
189.0038567398238
  0
LINE
  5
207
330
2
100
AcDbEntity
  8
0
100
AcDbLine
 10
132.2902278277122
 20
-168.4993689168627
 30
0.0
 11
132.2902278277122
 21
-172.726665831768
 31
0.0
  0
ARC
  5
208
330
2
100
AcDbEntity
  8
0
100
AcDbCircle
 10
114.4958140435981
 20
-172.5846598064463
 30
0.0
 40
17.8137423022651
100
AcDbArc
 50
350.2165905567427
 51
359.5435507587255
  0
ARC
  5
209
330
2
100
AcDbEntity
  8
0
100
AcDbCircle
 10
115.6635712844702
 20
-168.5133157504847
 30
0.0
 40
16.64069243723001
100
AcDbArc
 50
0.0466657161315746
 51
10.0317888904347
  0
LINE
  5
20A
330
2
100
AcDbEntity
  8
0
100
AcDbLine
 10
129.1785536102052
 20
-190.787740492859
 30
0.0
 11
135.2536508581634
 21
-192.4155582428361
 31
0.0
  0
LINE
  5
20B
330
2
100
AcDbEntity
  8
0
100
AcDbLine
 10
135.2536508581634
 20
-148.8104765057946
 30
0.0
 11
129.1785536102052
 21
-150.4382942557717
 31
0.0
  0
ARC
  5
20C
330
2
100
AcDbEntity
  8
0
100
AcDbCircle
 10
135.3054144701953
 20
-149.0036624488834
 30
0.0
 40
0.2000000000000028
100
AcDbArc
 50
0.0
 51
104.9999999999944
  0
ARC
  5
20D
330
2
100
AcDbEntity
  8
0
100
AcDbCircle
 10
135.3054144701953
 20
-192.2223722997469
 30
0.0
 40
0.2000000000000028
100
AcDbArc
 50
255.0000000000056
 51
0.0
  0
LINE
  5
20E
330
2
100
AcDbEntity
  8
0
100
AcDbLine
 10
144.505414902329
 20
-188.1130174488212
 30
0.0
 11
146.0054142168756
 21
-188.1130174488212
 31
0.0
  0
LINE
  5
20F
330
2
100
AcDbEntity
  8
0
100
AcDbLine
 10
146.0054142168756
 20
-153.1130172998096
 30
0.0
 11
144.505414902329
 21
-153.1130172998096
 31
0.0
  0
ARC
  5
210
330
2
100
AcDbEntity
  8
0
100
AcDbCircle
 10
146.0054144701953
 20
-153.6130173743154
 30
0.0
 40
0.5
100
AcDbArc
 50
0.0
 51
90.0
  0
ARC
  5
211
330
2
100
AcDbEntity
  8
0
100
AcDbCircle
 10
146.0054144701953
 20
-187.6130173743154
 30
0.0
 40
0.5
100
AcDbArc
 50
270.0
 51
0.0
  0
ARC
  5
212
330
2
100
AcDbEntity
  8
0
100
AcDbCircle
 10
135.7054144701951
 20
-192.3159584372706
 30
0.0
 40
0.2000000000000028
100
AcDbArc
 50
180.0
 51
255.0000000000056
  0
ARC
  5
213
330
2
100
AcDbEntity
  8
0
100
AcDbCircle
 10
135.7054144701951
 20
-148.9100763113601
 30
0.0
 40
0.2000000000000149
100
AcDbArc
 50
104.9999999999944
 51
180.0
  0
LINE
  5
214
330
2
100
AcDbEntity
  8
0
100
AcDbLine
 10
135.6536506443317
 20
-192.5091431230689
 30
0.0
 11
143.5054147384162
 21
-194.6130175829316
 31
0.0
  0
LINE
  5
215
330
2
100
AcDbEntity
  8
0
100
AcDbLine
 10
143.5054147384162
 20
-146.6130171656991
 30
0.0
 11
135.6536506443317
 21
-148.7168916255618
 31
0.0
  0
LINE
  5
216
330
2
100
AcDbEntity
  8
0
100
AcDbLine
 10
143.5054147384162
 20
-194.6130175829316
 30
0.0
 11
144.505414902329
 21
-194.6130175829316
 31
0.0
  0
LINE
  5
217
330
2
100
AcDbEntity
  8
0
100
AcDbLine
 10
144.505414902329
 20
-146.6130171656991
 30
0.0
 11
143.5054147384162
 21
-146.6130171656991
 31
0.0
  0
CIRCLE
  5
218
330
2
100
AcDbEntity
  8
0
100
AcDbCircle
 10
-235.1264878782294
 20
-170.6130173743156
 30
0.0000000000016419
 40
5.000000000000014
210
0.000000000000007
220
0.0
230
-1.0
  0
ARC
  5
219
330
2
100
AcDbEntity
  8
0
100
AcDbCircle
 10
235.1264878782294
 20
-170.6130173743156
 30
0.0
 40
4.699999999999993
100
AcDbArc
 50
110.5523975026015
 51
159.4476024974106
  0
ARC
  5
21A
330
2
100
AcDbEntity
  8
0
100
AcDbCircle
 10
235.1264878782294
 20
-170.6130173743156
 30
0.0
 40
4.699999999999993
100
AcDbArc
 50
200.5523975025893
 51
249.4476024974106
  0
ARC
  5
21B
330
2
100
AcDbEntity
  8
0
100
AcDbCircle
 10
235.1264878782294
 20
-170.6130173743156
 30
0.0
 40
4.70000000000001
100
AcDbArc
 50
20.55239750258936
 51
69.44760249739845
  0
ARC
  5
21C
330
2
100
AcDbEntity
  8
0
100
AcDbCircle
 10
235.1264878782294
 20
-170.6130173743156
 30
0.0
 40
4.700000000000016
100
AcDbArc
 50
290.5523975026016
 51
339.4476024974106
  0
ARC
  5
21D
330
2
100
AcDbEntity
  8
0
100
AcDbCircle
 10
235.1267744167872
 20
-170.6129261703602
 30
0.0
 40
4.700300265654949
100
AcDbArc
 50
194.1631970901091
 51
200.5522124147333
  0
ARC
  5
21E
330
2
100
AcDbEntity
  8
0
100
AcDbCircle
 10
235.1264280726803
 20
-170.6130003213163
 30
0.0
 40
4.699937960698052
100
AcDbArc
 50
159.4475410741812
 51
165.8370494210099
  0
ARC
  5
21F
330
2
100
AcDbEntity
  8
0
100
AcDbCircle
 10
235.1264708251788
 20
-170.6130771800387
 30
0.0
 40
4.699937960516822
100
AcDbArc
 50
249.4475410740241
 51
255.8370494211015
  0
ARC
  5
220
330
2
100
AcDbEntity
  8
0
100
AcDbCircle
 10
235.12657908197
 20
-170.6133039121862
 30
0.0
 40
4.700300264935981
100
AcDbArc
 50
104.1631970896257
 51
110.5522124152318
  0
ARC
  5
221
330
2
100
AcDbEntity
  8
0
100
AcDbCircle
 10
235.126396674146
 20
-170.6127308353564
 30
0.0
 40
4.700300266075688
100
AcDbArc
 50
284.1631970904345
 51
290.5522124144939
  0
ARC
  5
222
330
2
100
AcDbEntity
  8
0
100
AcDbCircle
 10
235.1265049311539
 20
-170.6129575689908
 30
0.0
 40
4.699937960934055
100
AcDbArc
 50
69.4475410742925
 51
75.83704942079823
  0
ARC
  5
223
330
2
100
AcDbEntity
  8
0
100
AcDbCircle
 10
235.1265476837686
 20
-170.6130344273072
 30
0.0
 40
4.69993796070964
100
AcDbArc
 50
339.4475410741278
 51
345.8370494209309
  0
ARC
  5
224
330
2
100
AcDbEntity
  8
0
100
AcDbCircle
 10
235.1262013401683
 20
-170.6131085781155
 30
0.0
 40
4.700300265135393
100
AcDbArc
 50
14.16319708976154
 51
20.55221241509617
  0
LINE
  5
225
330
2
100
AcDbEntity
  8
0
100
AcDbLine
 10
231.6097421246429
 20
-171.7630173998339
 30
0.0
 11
230.5693505006691
 21
-171.7630173998339
 31
0.0
  0
LINE
  5
226
330
2
100
AcDbEntity
  8
0
100
AcDbLine
 10
230.5693505006691
 20
-169.4630173487974
 30
0.0
 11
231.6097421246429
 21
-169.4630173487974
 31
0.0
  0
ARC
  5
227
330
2
100
AcDbEntity
  8
0
100
AcDbCircle
 10
235.1264878782292
 20
-170.6130173743156
 30
0.0
 40
4.700000000000001
100
AcDbArc
 50
165.8370261906203
 51
194.1629738093796
  0
LINE
  5
228
330
2
100
AcDbEntity
  8
0
100
AcDbLine
 10
233.976487852711
 20
-175.1701547518758
 30
0.0
 11
233.976487852711
 21
-174.1297631279019
 31
0.0
  0
ARC
  5
229
330
2
100
AcDbEntity
  8
0
100
AcDbCircle
 10
235.1264878782292
 20
-170.6130173743156
 30
0.0
 40
4.700000000000001
100
AcDbArc
 50
255.8370261906362
 51
284.1629738093638
  0
LINE
  5
22A
330
2
100
AcDbEntity
  8
0
100
AcDbLine
 10
236.2764879037475
 20
-174.1297631279019
 30
0.0
 11
236.2764879037475
 21
-175.1701547518758
 31
0.0
  0
LINE
  5
22B
330
2
100
AcDbEntity
  8
0
100
AcDbLine
 10
236.2764879037475
 20
-166.0558799967555
 30
0.0
 11
236.2764879037475
 21
-167.0962716207293
 31
0.0
  0
ARC
  5
22C
330
2
100
AcDbEntity
  8
0
100
AcDbCircle
 10
235.1264878782292
 20
-170.6130173743156
 30
0.0
 40
4.700000000000001
100
AcDbArc
 50
75.83702619063618
 51
104.1629738093638
  0
LINE
  5
22D
330
2
100
AcDbEntity
  8
0
100
AcDbLine
 10
233.976487852711
 20
-167.0962716207293
 30
0.0
 11
233.976487852711
 21
-166.0558799967555
 31
0.0
  0
LINE
  5
22E
330
2
100
AcDbEntity
  8
0
100
AcDbLine
 10
238.6432336318155
 20
-169.4630173487974
 30
0.0
 11
238.1127061928471
 21
-169.4630173487974
 31
0.0
  0
LINE
  5
22F
330
2
100
AcDbEntity
  8
0
100
AcDbLine
 10
238.1127061928471
 20
-171.7630173998339
 30
0.0
 11
238.6432336318155
 21
-171.7630173998339
 31
0.0
  0
LINE
  5
230
330
2
100
AcDbEntity
  8
0
100
AcDbLine
 10
233.976487852711
 20
-173.5992356889335
 30
0.0
 11
233.976487852711
 21
-174.1297631279019
 31
0.0
  0
ARC
  5
231
330
2
100
AcDbEntity
  8
0
100
AcDbCircle
 10
235.1264878782292
 20
-170.6130173743156
 30
0.0
 40
3.700000000000012
100
AcDbArc
 50
251.8918995003065
 51
288.1081004996934
  0
LINE
  5
232
330
2
100
AcDbEntity
  8
0
100
AcDbLine
 10
236.2764879037475
 20
-174.1297631279019
 30
0.0
 11
236.2764879037475
 21
-173.5992356889335
 31
0.0
  0
ARC
  5
233
330
2
100
AcDbEntity
  8
0
100
AcDbCircle
 10
235.1264878782292
 20
-170.6130173743156
 30
0.0
 40
3.200000000000017
100
AcDbArc
 50
291.0618176016448
 51
338.9381823983505
  0
ARC
  5
234
330
2
100
AcDbEntity
  8
0
100
AcDbCircle
 10
235.1264878782292
 20
-170.6130173743156
 30
0.0
 40
3.199999999999998
100
AcDbArc
 50
21.06181760164951
 51
68.93818239835517
  0
LINE
  5
235
330
2
100
AcDbEntity
  8
0
100
AcDbLine
 10
236.2764879037475
 20
-167.6267990596977
 30
0.0
 11
236.2764879037475
 21
-167.0962716207293
 31
0.0
  0
ARC
  5
236
330
2
100
AcDbEntity
  8
0
100
AcDbCircle
 10
235.1264878782292
 20
-170.6130173743156
 30
0.0
 40
3.699999999999999
100
AcDbArc
 50
71.89189950030656
 51
108.1081004996934
  0
LINE
  5
237
330
2
100
AcDbEntity
  8
0
100
AcDbLine
 10
233.976487852711
 20
-167.0962716207293
 30
0.0
 11
233.976487852711
 21
-167.6267990596977
 31
0.0
  0
ARC
  5
238
330
2
100
AcDbEntity
  8
0
100
AcDbCircle
 10
235.1264878782292
 20
-170.6130173743156
 30
0.0
 40
3.199999999999998
100
AcDbArc
 50
111.0618176016448
 51
158.9381823983505
  0
LINE
  5
239
330
2
100
AcDbEntity
  8
0
100
AcDbLine
 10
232.1402695636114
 20
-169.4630173487974
 30
0.0
 11
231.6097421246429
 21
-169.4630173487974
 31
0.0
  0
ARC
  5
23A
330
2
100
AcDbEntity
  8
0
100
AcDbCircle
 10
235.1264878782292
 20
-170.6130173743156
 30
0.0
 40
3.699999999999985
100
AcDbArc
 50
161.8918995003066
 51
198.1081004996934
  0
LINE
  5
23B
330
2
100
AcDbEntity
  8
0
100
AcDbLine
 10
231.6097421246429
 20
-171.7630173998339
 30
0.0
 11
232.1402695636114
 21
-171.7630173998339
 31
0.0
  0
ARC
  5
23C
330
2
100
AcDbEntity
  8
0
100
AcDbCircle
 10
235.1264878782292
 20
-170.6130173743156
 30
0.0
 40
3.200000000000003
100
AcDbArc
 50
201.0618176016495
 51
248.9381823983552
  0
LINE
  5
23D
330
2
100
AcDbEntity
  8
0
100
AcDbLine
 10
238.6432336318155
 20
-169.4630173487974
 30
0.0
 11
239.6836252557894
 21
-169.4630173487974
 31
0.0
  0
LINE
  5
23E
330
2
100
AcDbEntity
  8
0
100
AcDbLine
 10
239.6836252557894
 20
-171.7630173998339
 30
0.0
 11
238.6432336318155
 21
-171.7630173998339
 31
0.0
  0
ARC
  5
23F
330
2
100
AcDbEntity
  8
0
100
AcDbCircle
 10
235.1264878782292
 20
-170.6130173743156
 30
0.0
 40
4.700000000000001
100
AcDbArc
 50
345.8370261906204
 51
14.16297380937963
  0
ARC
  5
240
330
2
100
AcDbEntity
  8
0
100
AcDbCircle
 10
235.1264878782292
 20
-170.6130173743156
 30
0.0
 40
3.699999999999985
100
AcDbArc
 50
341.8918995003066
 51
18.10810049969343
  0
CIRCLE
  5
241
330
2
100
AcDbEntity
  8
0
100
AcDbCircle
 10
235.1264878782294
 20
-170.6130173743156
 30
0.0
 40
24.0
  0
LINE
  5
242
330
2
100
AcDbEntity
  8
0
100
AcDbLine
 10
237.3635295918993
 20
-160.1252550945071
 30
0.0
 11
237.3553476902507
 21
-160.0958234385041
 31
0.0
  0
LINE
  5
243
330
2
100
AcDbEntity
  8
0
100
AcDbLine
 10
237.3739836877994
 20
-160.3288925007371
 30
0.0
 11
237.3770526285134
 21
-160.2968456909446
 31
0.0
  0
LINE
  5
244
330
2
100
AcDbEntity
  8
0
100
AcDbLine
 10
237.3688707268648
 20
-160.3595730603126
 30
0.0
 11
237.3739836877994
 21
-160.3288925007371
 31
0.0
  0
LINE
  5
245
330
2
100
AcDbEntity
  8
0
100
AcDbLine
 10
237.3617116502337
 20
-160.3888920262841
 30
0.0
 11
237.3688707268648
 21
-160.3595730603126
 31
0.0
  0
LINE
  5
246
330
2
100
AcDbEntity
  8
0
100
AcDbLine
 10
237.0258026896827
 20
-159.8936640412
 30
0.0
 11
236.4348926023431
 21
-159.8936640412
 31
0.0
  0
LINE
  5
247
330
2
100
AcDbEntity
  8
0
100
AcDbLine
 10
236.4348926023431
 20
-159.8936640412
 30
0.0
 11
236.4348926023431
 21
-160.6270731181291
 31
0.0
  0
LINE
  5
248
330
2
100
AcDbEntity
  8
0
100
AcDbLine
 10
236.4348926023431
 20
-160.6270731181291
 30
0.0
 11
237.0258026896827
 21
-160.6270731181291
 31
0.0
  0
LINE
  5
249
330
2
100
AcDbEntity
  8
0
100
AcDbLine
 10
237.0258026896827
 20
-160.6270731181291
 30
0.0
 11
237.0569386659972
 21
-160.6261641472963
 31
0.0
  0
LINE
  5
24A
330
2
100
AcDbEntity
  8
0
100
AcDbLine
 10
237.0569386659972
 20
-160.6261641472963
 30
0.0
 11
237.0867116517238
 21
-160.6234372347978
 31
0.0
  0
LINE
  5
24B
330
2
100
AcDbEntity
  8
0
100
AcDbLine
 10
237.0867116517238
 20
-160.6234372347978
 30
0.0
 11
237.1151207155399
 21
-160.6188923806337
 31
0.0
  0
LINE
  5
24C
330
2
100
AcDbEntity
  8
0
100
AcDbLine
 10
237.1151207155399
 20
-160.6188923806337
 30
0.0
 11
237.1421656246148
 21
-160.6125277221588
 31
0.0
  0
LINE
  5
24D
330
2
100
AcDbEntity
  8
0
100
AcDbLine
 10
237.1421656246148
 20
-160.6125277221588
 30
0.0
 11
237.1678475431017
 21
-160.6043460533408
 31
0.0
  0
LINE
  5
24E
330
2
100
AcDbEntity
  8
0
100
AcDbLine
 10
237.1678475431017
 20
-160.6043460533408
 30
0.0
 11
237.1921655396782
 21
-160.5943464428571
 31
0.0
  0
LINE
  5
24F
330
2
100
AcDbEntity
  8
0
100
AcDbLine
 10
237.1921655396782
 20
-160.5943464428571
 30
0.0
 11
237.2151205456666
 21
-160.5825279593853
 31
0.0
  0
LINE
  5
250
330
2
100
AcDbEntity
  8
0
100
AcDbLine
 10
237.2151205456666
 20
-160.5825279593853
 30
0.0
 11
237.2367116297446
 21
-160.5688924655703
 31
0.0
  0
LINE
  5
251
330
2
100
AcDbEntity
  8
0
100
AcDbLine
 10
237.2367116297446
 20
-160.5688924655703
 30
0.0
 11
237.2569385590814
 21
-160.5534371674446
 31
0.0
  0
LINE
  5
252
330
2
100
AcDbEntity
  8
0
100
AcDbLine
 10
237.2569385590814
 20
-160.5534371674446
 30
0.0
 11
237.2758027306609
 21
-160.5361639276532
 31
0.0
  0
LINE
  5
253
330
2
100
AcDbEntity
  8
0
100
AcDbLine
 10
237.2758027306609
 20
-160.5361639276532
 30
0.0
 11
237.295233612027
 21
-160.5150284931449
 31
0.0
  0
LINE
  5
254
330
2
100
AcDbEntity
  8
0
100
AcDbLine
 10
237.295233612027
 20
-160.5150284931449
 30
0.0
 11
237.3126207060031
 21
-160.4925277397422
 31
0.0
  0
LINE
  5
255
330
2
100
AcDbEntity
  8
0
100
AcDbLine
 10
237.3126207060031
 20
-160.4925277397422
 30
0.0
 11
237.3279616842828
 21
-160.4686644614128
 31
0.0
  0
LINE
  5
256
330
2
100
AcDbEntity
  8
0
100
AcDbLine
 10
237.3279616842828
 20
-160.4686644614128
 30
0.0
 11
237.3412565468661
 21
-160.4434367955116
 31
0.0
  0
LINE
  5
257
330
2
100
AcDbEntity
  8
0
100
AcDbLine
 10
237.3412565468661
 20
-160.4434367955116
 30
0.0
 11
237.3525066907368
 21
-160.4168456733612
 31
0.0
  0
LINE
  5
258
330
2
100
AcDbEntity
  8
0
100
AcDbLine
 10
237.3525066907368
 20
-160.4168456733612
 30
0.0
 11
237.3617116502337
 21
-160.3888920262841
 31
0.0
  0
LINE
  5
259
330
2
100
AcDbEntity
  8
0
100
AcDbLine
 10
237.3770526285134
 20
-160.2968456909446
 30
0.0
 11
237.378074755039
 21
-160.2634372875479
 31
0.0
  0
LINE
  5
25A
330
2
100
AcDbEntity
  8
0
100
AcDbLine
 10
237.378074755039
 20
-160.2634372875479
 30
0.0
 11
237.3771655513756
 21
-160.2258230314044
 31
0.0
  0
LINE
  5
25B
330
2
100
AcDbEntity
  8
0
100
AcDbLine
 10
237.3771655513756
 20
-160.2258230314044
 30
0.0
 11
237.3744386388771
 21
-160.1902548909572
 31
0.0
  0
LINE
  5
25C
330
2
100
AcDbEntity
  8
0
100
AcDbLine
 10
237.3744386388771
 20
-160.1902548909572
 30
0.0
 11
237.3698926205598
 21
-160.156731934884
 31
0.0
  0
LINE
  5
25D
330
2
100
AcDbEntity
  8
0
100
AcDbLine
 10
237.3698926205598
 20
-160.156731934884
 30
0.0
 11
237.3635295918993
 21
-160.1252550945071
 31
0.0
  0
LINE
  5
25E
330
2
100
AcDbEntity
  8
0
100
AcDbLine
 10
237.3553476902507
 20
-160.0958234385041
 30
0.0
 11
237.3453476141058
 21
-160.068436966875
 31
0.0
  0
LINE
  5
25F
330
2
100
AcDbEntity
  8
0
100
AcDbLine
 10
237.3453476141058
 20
-160.068436966875
 30
0.0
 11
237.3335295962952
 21
-160.0430956796197
 31
0.0
  0
LINE
  5
260
330
2
100
AcDbEntity
  8
0
100
AcDbLine
 10
237.3335295962952
 20
-160.0430956796197
 30
0.0
 11
237.3198927054964
 21
-160.0198014393834
 31
0.0
  0
LINE
  5
261
330
2
100
AcDbEntity
  8
0
100
AcDbLine
 10
237.3198927054964
 20
-160.0198014393834
 30
0.0
 11
237.3044385715239
 21
-159.9985514521984
 31
0.0
  0
LINE
  5
262
330
2
100
AcDbEntity
  8
0
100
AcDbLine
 10
237.3044385715239
 20
-159.9985514521984
 30
0.0
 11
237.2871655645631
 21
-159.9793457180647
 31
0.0
  0
LINE
  5
263
330
2
100
AcDbEntity
  8
0
100
AcDbLine
 10
237.2871655645631
 20
-159.9793457180647
 30
0.0
 11
237.2661425872557
 21
-159.963067130783
 31
0.0
  0
LINE
  5
264
330
2
100
AcDbEntity
  8
0
100
AcDbLine
 10
237.2661425872557
 20
-159.963067130783
 30
0.0
 11
237.2439836292378
 21
-159.948501245716
 31
0.0
  0
LINE
  5
265
330
2
100
AcDbEntity
  8
0
100
AcDbLine
 10
237.2439836292378
 20
-159.948501245716
 30
0.0
 11
237.2206886905096
 21
-159.9356480628637
 31
0.0
  0
LINE
  5
266
330
2
100
AcDbEntity
  8
0
100
AcDbLine
 10
237.2206886905096
 20
-159.9356480628637
 30
0.0
 11
237.1962566069178
 21
-159.9245103761939
 31
0.0
  0
LINE
  5
267
330
2
100
AcDbEntity
  8
0
100
AcDbLine
 10
237.1962566069178
 20
-159.9245103761939
 30
0.0
 11
237.1706885426156
 21
-159.9150853917388
 31
0.0
  0
LINE
  5
268
330
2
100
AcDbEntity
  8
0
100
AcDbLine
 10
237.1706885426156
 20
-159.9150853917388
 30
0.0
 11
237.1439835662804
 21
-159.9073731094984
 31
0.0
  0
LINE
  5
269
330
2
100
AcDbEntity
  8
0
100
AcDbLine
 10
237.1439835662804
 20
-159.9073731094984
 30
0.0
 11
237.1161426092349
 21
-159.9013763234404
 31
0.0
  0
LINE
  5
26A
330
2
100
AcDbEntity
  8
0
100
AcDbLine
 10
237.1161426092349
 20
-159.9013763234404
 30
0.0
 11
237.0871656714789
 21
-159.8970922395972
 31
0.0
  0
LINE
  5
26B
330
2
100
AcDbEntity
  8
0
100
AcDbLine
 10
237.0871656714789
 20
-159.8970922395972
 30
0.0
 11
237.0570526365973
 21
-159.8945208579687
 31
0.0
  0
LINE
  5
26C
330
2
100
AcDbEntity
  8
0
100
AcDbLine
 10
237.0570526365973
 20
-159.8945208579687
 30
0.0
 11
237.0258026896827
 21
-159.8936640412
 31
0.0
  0
LINE
  5
26D
330
2
100
AcDbEntity
  8
0
100
AcDbLine
 10
232.8878475493602
 20
-161.6209367975978
 30
0.0
 11
234.2094386369772
 21
-161.6209367975978
 31
0.0
  0
LINE
  5
26E
330
2
100
AcDbEntity
  8
0
100
AcDbLine
 10
232.8878475493602
 20
-159.6611640170602
 30
0.0
 11
232.8878475493602
 21
-161.6209367975978
 31
0.0
  0
LINE
  5
26F
330
2
100
AcDbEntity
  8
0
100
AcDbLine
 10
233.1639837614111
 20
-159.6611640170602
 30
0.0
 11
232.8878475493602
 21
-159.6611640170602
 31
0.0
  0
LINE
  5
270
330
2
100
AcDbEntity
  8
0
100
AcDbLine
 10
233.1639837614111
 20
-161.3884367734579
 30
0.0
 11
233.1639837614111
 21
-159.6611640170602
 31
0.0
  0
LINE
  5
271
330
2
100
AcDbEntity
  8
0
100
AcDbLine
 10
234.2094386369772
 20
-161.3884367734579
 30
0.0
 11
233.1639837614111
 21
-161.3884367734579
 31
0.0
  0
LINE
  5
272
330
2
100
AcDbEntity
  8
0
100
AcDbLine
 10
234.2094386369772
 20
-161.6209367975978
 30
0.0
 11
234.2094386369772
 21
-161.3884367734579
 31
0.0
  0
LINE
  5
273
330
2
100
AcDbEntity
  8
0
100
AcDbLine
 10
234.4631886483021
 20
-160.2059374317912
 30
0.0
 11
234.4662566576935
 21
-160.2379823789386
 31
0.0
  0
LINE
  5
274
330
2
100
AcDbEntity
  8
0
100
AcDbLine
 10
234.4621656486615
 20
-160.172528097072
 30
0.0
 11
234.4631886483021
 21
-160.2059374317912
 31
0.0
  0
LINE
  5
275
330
2
100
AcDbEntity
  8
0
100
AcDbLine
 10
234.4637566386573
 20
-160.1299145013479
 30
0.0
 11
234.4621656486615
 21
-160.172528097072
 31
0.0
  0
LINE
  5
276
330
2
100
AcDbEntity
  8
0
100
AcDbLine
 10
234.4685296668522
 20
-160.0884371191648
 30
0.0
 11
234.4637566386573
 21
-160.1299145013479
 31
0.0
  0
LINE
  5
277
330
2
100
AcDbEntity
  8
0
100
AcDbLine
 10
234.4764836273007
 20
-160.0480959505228
 30
0.0
 11
234.4685296668522
 21
-160.0884371191648
 31
0.0
  0
LINE
  5
278
330
2
100
AcDbEntity
  8
0
100
AcDbLine
 10
234.4876206736862
 20
-160.0088919267443
 30
0.0
 11
234.4764836273007
 21
-160.0480959505228
 31
0.0
  0
LINE
  5
279
330
2
100
AcDbEntity
  8
0
100
AcDbLine
 10
234.5019386523254
 20
-159.9708231851844
 30
0.0
 11
234.4876206736862
 21
-160.0088919267443
 31
0.0
  0
LINE
  5
27A
330
2
100
AcDbEntity
  8
0
100
AcDbLine
 10
234.5194386691637
 20
-159.9338925198106
 30
0.0
 11
234.5019386523254
 21
-159.9708231851844
 31
0.0
  0
LINE
  5
27B
330
2
100
AcDbEntity
  8
0
100
AcDbLine
 10
234.5401206659935
 20
-159.8980962053326
 30
0.0
 11
234.5194386691637
 21
-159.9338925198106
 31
0.0
  0
LINE
  5
27C
330
2
100
AcDbEntity
  8
0
100
AcDbLine
 10
234.5639836532846
 20
-159.8634370357183
 30
0.0
 11
234.5401206659935
 21
-159.8980962053326
 31
0.0
  0
LINE
  5
27D
330
2
100
AcDbEntity
  8
0
100
AcDbLine
 10
234.591029668305
 20
-159.829914079645
 30
0.0
 11
234.5639836532846
 21
-159.8634370357183
 31
0.0
  0
LINE
  5
27E
330
2
100
AcDbEntity
  8
0
100
AcDbLine
 10
234.6212566737868
 20
-159.7975282684354
 30
0.0
 11
234.591029668305
 21
-159.829914079645
 31
0.0
  0
LINE
  5
27F
330
2
100
AcDbEntity
  8
0
100
AcDbLine
 10
234.6547796589639
 20
-159.7673012629536
 30
0.0
 11
234.6212566737868
 21
-159.7975282684354
 31
0.0
  0
LINE
  5
280
330
2
100
AcDbEntity
  8
0
100
AcDbLine
 10
234.6917116631139
 20
-159.7402547240642
 30
0.0
 11
234.6547796589639
 21
-159.7673012629536
 31
0.0
  0
LINE
  5
281
330
2
100
AcDbEntity
  8
0
100
AcDbLine
 10
234.7320526571329
 20
-159.7163923770574
 30
0.0
 11
234.6917116631139
 21
-159.7402547240642
 31
0.0
  0
LINE
  5
282
330
2
100
AcDbEntity
  8
0
100
AcDbLine
 10
234.7758026410211
 20
-159.6957104966429
 30
0.0
 11
234.7320526571329
 21
-159.7163923770574
 31
0.0
  0
LINE
  5
283
330
2
100
AcDbEntity
  8
0
100
AcDbLine
 10
234.8229616438821
 20
-159.6782100141433
 30
0.0
 11
234.7758026410211
 21
-159.6957104966429
 31
0.0
  0
LINE
  5
284
330
2
100
AcDbEntity
  8
0
100
AcDbLine
 10
234.8735296366121
 20
-159.6638918608812
 30
0.0
 11
234.8229616438821
 21
-159.6782100141433
 31
0.0
  0
LINE
  5
285
330
2
100
AcDbEntity
  8
0
100
AcDbLine
 10
234.9275066483151
 20
-159.652755105534
 30
0.0
 11
234.8735296366121
 21
-159.6638918608812
 31
0.0
  0
LINE
  5
286
330
2
100
AcDbEntity
  8
0
100
AcDbLine
 10
234.9848926498871
 20
-159.6448006794242
 30
0.0
 11
234.9275066483151
 21
-159.652755105534
 31
0.0
  0
LINE
  5
287
330
2
100
AcDbEntity
  8
0
100
AcDbLine
 10
235.0456886526863
 20
-159.6400276512293
 30
0.0
 11
234.9848926498871
 21
-159.6448006794242
 31
0.0
  0
LINE
  5
288
330
2
100
AcDbEntity
  8
0
100
AcDbLine
 10
235.1098926485483
 20
-159.6384369522718
 30
0.0
 11
235.0456886526863
 21
-159.6400276512293
 31
0.0
  0
LINE
  5
289
330
2
100
AcDbEntity
  8
0
100
AcDbLine
 10
235.1786426481758
 20
-159.6402548939375
 30
0.0
 11
235.1098926485483
 21
-159.6384369522718
 31
0.0
  0
LINE
  5
28A
330
2
100
AcDbEntity
  8
0
100
AcDbLine
 10
235.2439836506583
 20
-159.645709650257
 30
0.0
 11
235.1786426481758
 21
-159.6402548939375
 31
0.0
  0
LINE
  5
28B
330
2
100
AcDbEntity
  8
0
100
AcDbLine
 10
235.3059156559957
 20
-159.6548012212304
 30
0.0
 11
235.2439836506583
 21
-159.645709650257
 31
0.0
  0
LINE
  5
28C
330
2
100
AcDbEntity
  8
0
100
AcDbLine
 10
235.3644386423602
 20
-159.6675277442125
 30
0.0
 11
235.3059156559957
 21
-159.6548012212304
 31
0.0
  0
LINE
  5
28D
330
2
100
AcDbEntity
  8
0
100
AcDbLine
 10
235.4195526534077
 20
-159.6838920131711
 30
0.0
 11
235.3644386423602
 21
-159.6675277442125
 31
0.0
  0
LINE
  5
28E
330
2
100
AcDbEntity
  8
0
100
AcDbLine
 10
235.4712566559519
 20
-159.7038921654609
 30
0.0
 11
235.4195526534077
 21
-159.6838920131711
 31
0.0
  0
LINE
  5
28F
330
2
100
AcDbEntity
  8
0
100
AcDbLine
 10
235.5195526581574
 20
-159.7275282010821
 30
0.0
 11
235.4712566559519
 21
-159.7038921654609
 31
0.0
  0
LINE
  5
290
330
2
100
AcDbEntity
  8
0
100
AcDbLine
 10
235.5644386518597
 20
-159.7548010513571
 30
0.0
 11
235.5195526581574
 21
-159.7275282010821
 31
0.0
  0
LINE
  5
291
330
2
100
AcDbEntity
  8
0
100
AcDbLine
 10
235.605915655693
 20
-159.7857097849635
 30
0.0
 11
235.5644386518597
 21
-159.7548010513571
 31
0.0
  0
LINE
  5
292
330
2
100
AcDbEntity
  8
0
100
AcDbLine
 10
235.6439836696572
 20
-159.8202553332237
 30
0.0
 11
235.605915655693
 21
-159.7857097849635
 31
0.0
  0
LINE
  5
293
330
2
100
AcDbEntity
  8
0
100
AcDbLine
 10
235.6742116646692
 20
-159.852642075756
 30
0.0
 11
235.6439836696572
 21
-159.8202553332237
 31
0.0
  0
LINE
  5
294
330
2
100
AcDbEntity
  8
0
100
AcDbLine
 10
235.7012566319518
 20
-159.8861641005067
 30
0.0
 11
235.6742116646692
 21
-159.852642075756
 31
0.0
  0
LINE
  5
295
330
2
100
AcDbEntity
  8
0
100
AcDbLine
 10
235.7251206669807
 20
-159.920823270121
 30
0.0
 11
235.7012566319518
 21
-159.8861641005067
 31
0.0
  0
LINE
  5
296
330
2
100
AcDbEntity
  8
0
100
AcDbLine
 10
235.7458026638105
 20
-159.9566186532763
 30
0.0
 11
235.7251206669807
 21
-159.920823270121
 31
0.0
  0
LINE
  5
297
330
2
100
AcDbEntity
  8
0
100
AcDbLine
 10
235.7633026224412
 20
-159.9935511812953
 30
0.0
 11
235.7458026638105
 21
-159.9566186532763
 31
0.0
  0
LINE
  5
298
330
2
100
AcDbEntity
  8
0
100
AcDbLine
 10
235.777620659288
 20
-160.0316189915327
 30
0.0
 11
235.7633026224412
 21
-159.9935511812953
 31
0.0
  0
LINE
  5
299
330
2
100
AcDbEntity
  8
0
100
AcDbLine
 10
235.7887566579357
 20
-160.0708230153111
 30
0.0
 11
235.777620659288
 21
-160.0316189915327
 31
0.0
  0
LINE
  5
29A
330
2
100
AcDbEntity
  8
0
100
AcDbLine
 10
235.7967116661221
 20
-160.1111641839532
 30
0.0
 11
235.7887566579357
 21
-160.0708230153111
 31
0.0
  0
LINE
  5
29B
330
2
100
AcDbEntity
  8
0
100
AcDbLine
 10
235.8014836465791
 20
-160.1526424974588
 30
0.0
 11
235.7967116661221
 21
-160.1111641839532
 31
0.0
  0
LINE
  5
29C
330
2
100
AcDbEntity
  8
0
100
AcDbLine
 10
235.8030746365748
 20
-160.1952551618603
 30
0.0
 11
235.8014836465791
 21
-160.1526424974588
 31
0.0
  0
LINE
  5
29D
330
2
100
AcDbEntity
  8
0
100
AcDbLine
 10
235.5417116452791
 20
-160.1952551618603
 30
0.0
 11
235.8030746365748
 21
-160.1952551618603
 31
0.0
  0
LINE
  5
29E
330
2
100
AcDbEntity
  8
0
100
AcDbLine
 10
235.5408026453424
 20
-160.1684367970017
 30
0.0
 11
235.5417116452791
 21
-160.1952551618603
 31
0.0
  0
LINE
  5
29F
330
2
100
AcDbEntity
  8
0
100
AcDbLine
 10
235.5380746560022
 20
-160.1425283342985
 30
0.0
 11
235.5408026453424
 21
-160.1684367970017
 31
0.0
  0
LINE
  5
2A0
330
2
100
AcDbEntity
  8
0
100
AcDbLine
 10
235.5335296563189
 20
-160.1175279111055
 30
0.0
 11
235.5380746560022
 21
-160.1425283342985
 31
0.0
  0
LINE
  5
2A1
330
2
100
AcDbEntity
  8
0
100
AcDbLine
 10
235.5271656381283
 20
-160.0934373900679
 30
0.0
 11
235.5335296563189
 21
-160.1175279111055
 31
0.0
  0
LINE
  5
2A2
330
2
100
AcDbEntity
  8
0
100
AcDbLine
 10
235.5189836491681
 20
-160.0702549085406
 30
0.0
 11
235.5271656381283
 21
-160.0934373900679
 31
0.0
  0
LINE
  5
2A3
330
2
100
AcDbEntity
  8
0
100
AcDbLine
 10
235.5089836603347
 20
-160.0479823291687
 30
0.0
 11
235.5189836491681
 21
-160.0702549085406
 31
0.0
  0
LINE
  5
2A4
330
2
100
AcDbEntity
  8
0
100
AcDbLine
 10
235.4971656425241
 20
-160.0266187206296
 30
0.0
 11
235.5089836603347
 21
-160.0479823291687
 31
0.0
  0
LINE
  5
2A5
330
2
100
AcDbEntity
  8
0
100
AcDbLine
 10
235.4835296539441
 20
-160.0061640829233
 30
0.0
 11
235.4971656425241
 21
-160.0266187206296
 31
0.0
  0
LINE
  5
2A6
330
2
100
AcDbEntity
  8
0
100
AcDbLine
 10
235.4680746468566
 20
-159.9866193473724
 30
0.0
 11
235.4835296539441
 21
-160.0061640829233
 31
0.0
  0
LINE
  5
2A7
330
2
100
AcDbEntity
  8
0
100
AcDbLine
 10
235.4508026585299
 20
-159.9679817200092
 30
0.0
 11
235.4680746468566
 21
-159.9866193473724
 31
0.0
  0
LINE
  5
2A8
330
2
100
AcDbEntity
  8
0
100
AcDbLine
 10
235.4292116617635
 20
-159.948551537135
 30
0.0
 11
235.4508026585299
 21
-159.9679817200092
 31
0.0
  0
LINE
  5
2A9
330
2
100
AcDbEntity
  8
0
100
AcDbLine
 10
235.4053476558383
 20
-159.9311637446669
 30
0.0
 11
235.4292116617635
 21
-159.948551537135
 31
0.0
  0
LINE
  5
2AA
330
2
100
AcDbEntity
  8
0
100
AcDbLine
 10
235.3792116593886
 20
-159.9158229992179
 30
0.0
 11
235.4053476558383
 21
-159.9311637446669
 31
0.0
  0
LINE
  5
2AB
330
2
100
AcDbEntity
  8
0
100
AcDbLine
 10
235.3508026537802
 20
-159.9025283694652
 30
0.0
 11
235.3792116593886
 21
-159.9158229992179
 31
0.0
  0
LINE
  5
2AC
330
2
100
AcDbEntity
  8
0
100
AcDbLine
 10
235.320120653565
 20
-159.8912779927639
 30
0.0
 11
235.3508026537802
 21
-159.9025283694652
 31
0.0
  0
LINE
  5
2AD
330
2
100
AcDbEntity
  8
0
100
AcDbLine
 10
235.2871656441912
 20
-159.8820728004364
 30
0.0
 11
235.320120653565
 21
-159.8912779927639
 31
0.0
  0
LINE
  5
2AE
330
2
100
AcDbEntity
  8
0
100
AcDbLine
 10
235.2519386442927
 20
-159.8749137238053
 30
0.0
 11
235.2871656441912
 21
-159.8820728004364
 31
0.0
  0
LINE
  5
2AF
330
2
100
AcDbEntity
  8
0
100
AcDbLine
 10
235.2144386497875
 20
-159.8698007628707
 30
0.0
 11
235.2519386442927
 21
-159.8749137238053
 31
0.0
  0
LINE
  5
2B0
330
2
100
AcDbEntity
  8
0
100
AcDbLine
 10
235.1746656497617
 20
-159.8667320549873
 30
0.0
 11
235.2144386497875
 21
-159.8698007628707
 31
0.0
  0
LINE
  5
2B1
330
2
100
AcDbEntity
  8
0
100
AcDbLine
 10
235.1326206492067
 20
-159.865710394123
 30
0.0
 11
235.1746656497617
 21
-159.8667320549873
 31
0.0
  0
LINE
  5
2B2
330
2
100
AcDbEntity
  8
0
100
AcDbLine
 10
235.0863706490109
 20
-159.8666193649558
 30
0.0
 11
235.1326206492067
 21
-159.865710394123
 31
0.0
  0
LINE
  5
2B3
330
2
100
AcDbEntity
  8
0
100
AcDbLine
 10
235.0430746484981
 20
-159.8693462774543
 30
0.0
 11
235.0863706490109
 21
-159.8666193649558
 31
0.0
  0
LINE
  5
2B4
330
2
100
AcDbEntity
  8
0
100
AcDbLine
 10
235.002733647203
 20
-159.873892062941
 30
0.0
 11
235.0430746484981
 21
-159.8693462774543
 31
0.0
  0
LINE
  5
2B5
330
2
100
AcDbEntity
  8
0
100
AcDbLine
 10
234.9653476524018
 20
-159.8802548587707
 30
0.0
 11
235.002733647203
 21
-159.873892062941
 31
0.0
  0
LINE
  5
2B6
330
2
100
AcDbEntity
  8
0
100
AcDbLine
 10
234.9309156527361
 20
-159.8884374589113
 30
0.0
 11
234.9653476524018
 21
-159.8802548587707
 31
0.0
  0
LINE
  5
2B7
330
2
100
AcDbEntity
  8
0
100
AcDbLine
 10
234.8994386522881
 20
-159.8984370693949
 30
0.0
 11
234.9309156527361
 21
-159.8884374589113
 31
0.0
  0
LINE
  5
2B8
330
2
100
AcDbEntity
  8
0
100
AcDbLine
 10
234.8709156469758
 20
-159.9102546215442
 30
0.0
 11
234.8994386522881
 21
-159.8984370693949
 31
0.0
  0
LINE
  5
2B9
330
2
100
AcDbEntity
  8
0
100
AcDbLine
 10
234.8453476408813
 20
-159.9238919780043
 30
0.0
 11
234.8709156469758
 21
-159.9102546215442
 31
0.0
  0
LINE
  5
2BA
330
2
100
AcDbEntity
  8
0
100
AcDbLine
 10
234.8227336444743
 20
-159.9393463448075
 30
0.0
 11
234.8453476408813
 21
-159.9238919780043
 31
0.0
  0
LINE
  5
2BB
330
2
100
AcDbEntity
  8
0
100
AcDbLine
 10
234.803074647285
 20
-159.9566186532763
 30
0.0
 11
234.8227336444743
 21
-159.9393463448075
 31
0.0
  0
LINE
  5
2BC
330
2
100
AcDbEntity
  8
0
100
AcDbLine
 10
234.7879616393093
 20
-159.9727547482041
 30
0.0
 11
234.803074647285
 21
-159.9566186532763
 31
0.0
  0
LINE
  5
2BD
330
2
100
AcDbEntity
  8
0
100
AcDbLine
 10
234.7744386609029
 20
-159.9893462598709
 30
0.0
 11
234.7879616393093
 21
-159.9727547482041
 31
0.0
  0
LINE
  5
2BE
330
2
100
AcDbEntity
  8
0
100
AcDbLine
 10
234.7625066433884
 20
-160.0063922569541
 30
0.0
 11
234.7744386609029
 21
-159.9893462598709
 31
0.0
  0
LINE
  5
2BF
330
2
100
AcDbEntity
  8
0
100
AcDbLine
 10
234.7521656449735
 20
-160.0238918081311
 30
0.0
 11
234.7625066433884
 21
-160.0063922569541
 31
0.0
  0
LINE
  5
2C0
330
2
100
AcDbEntity
  8
0
100
AcDbLine
 10
234.7434156365543
 20
-160.0418458447245
 30
0.0
 11
234.7521656449735
 21
-160.0238918081311
 31
0.0
  0
LINE
  5
2C1
330
2
100
AcDbEntity
  8
0
100
AcDbLine
 10
234.7362566472348
 20
-160.060255298057
 30
0.0
 11
234.7434156365543
 21
-160.0418458447245
 31
0.0
  0
LINE
  5
2C2
330
2
100
AcDbEntity
  8
0
100
AcDbLine
 10
234.7306886479109
 20
-160.0791192368058
 30
0.0
 11
234.7362566472348
 21
-160.060255298057
 31
0.0
  0
LINE
  5
2C3
330
2
100
AcDbEntity
  8
0
100
AcDbLine
 10
234.7267116385828
 20
-160.0984367296485
 30
0.0
 11
234.7306886479109
 21
-160.0791192368058
 31
0.0
  0
LINE
  5
2C4
330
2
100
AcDbEntity
  8
0
100
AcDbLine
 10
234.7243246588241
 20
-160.1182096392301
 30
0.0
 11
234.7267116385828
 21
-160.0984367296485
 31
0.0
  0
LINE
  5
2C5
330
2
100
AcDbEntity
  8
0
100
AcDbLine
 10
234.7235296585914
 20
-160.1384370342282
 30
0.0
 11
234.7243246588241
 21
-160.1182096392301
 31
0.0
  0
LINE
  5
2C6
330
2
100
AcDbEntity
  8
0
100
AcDbLine
 10
234.7239836492426
 20
-160.1583226338414
 30
0.0
 11
234.7235296585914
 21
-160.1384370342282
 31
0.0
  0
LINE
  5
2C7
330
2
100
AcDbEntity
  8
0
100
AcDbLine
 10
234.7253476584647
 20
-160.1770729512361
 30
0.0
 11
234.7239836492426
 21
-160.1583226338414
 31
0.0
  0
LINE
  5
2C8
330
2
100
AcDbEntity
  8
0
100
AcDbLine
 10
234.7276206385195
 20
-160.1946870550898
 30
0.0
 11
234.7253476584647
 21
-160.1770729512361
 31
0.0
  0
LINE
  5
2C9
330
2
100
AcDbEntity
  8
0
100
AcDbLine
 10
234.7308026476148
 20
-160.2111640140799
 30
0.0
 11
234.7276206385195
 21
-160.1946870550898
 31
0.0
  0
LINE
  5
2CA
330
2
100
AcDbEntity
  8
0
100
AcDbLine
 10
234.7348926380127
 20
-160.226504759529
 30
0.0
 11
234.7308026476148
 21
-160.2111640140799
 31
0.0
  0
LINE
  5
2CB
330
2
100
AcDbEntity
  8
0
100
AcDbLine
 10
234.7398926469814
 20
-160.2407102227596
 30
0.0
 11
234.7348926380127
 21
-160.226504759529
 31
0.0
  0
LINE
  5
2CC
330
2
100
AcDbEntity
  8
0
100
AcDbLine
 10
234.7458026454169
 20
-160.2537785411266
 30
0.0
 11
234.7398926469814
 21
-160.2407102227596
 31
0.0
  0
LINE
  5
2CD
330
2
100
AcDbEntity
  8
0
100
AcDbLine
 10
234.7526206542589
 20
-160.26570971463
 30
0.0
 11
234.7458026454169
 21
-160.2537785411266
 31
0.0
  0
LINE
  5
2CE
330
2
100
AcDbEntity
  8
0
100
AcDbLine
 10
234.7603476630375
 20
-160.2765046745924
 30
0.0
 11
234.7526206542589
 21
-160.26570971463
 31
0.0
  0
LINE
  5
2CF
330
2
100
AcDbEntity
  8
0
100
AcDbLine
 10
234.7689836426489
 20
-160.2861643523363
 30
0.0
 11
234.7603476630375
 21
-160.2765046745924
 31
0.0
  0
LINE
  5
2D0
330
2
100
AcDbEntity
  8
0
100
AcDbLine
 10
234.781256640641
 20
-160.2975283503917
 30
0.0
 11
234.7689836426489
 21
-160.2861643523363
 31
0.0
  0
LINE
  5
2D1
330
2
100
AcDbEntity
  8
0
100
AcDbLine
 10
234.7953476385064
 20
-160.3088923484472
 30
0.0
 11
234.781256640641
 21
-160.2975283503917
 31
0.0
  0
LINE
  5
2D2
330
2
100
AcDbEntity
  8
0
100
AcDbLine
 10
234.8112566362452
 20
-160.3202554151801
 30
0.0
 11
234.7953476385064
 21
-160.3088923484472
 31
0.0
  0
LINE
  5
2D3
330
2
100
AcDbEntity
  8
0
100
AcDbLine
 10
234.828983662961
 20
-160.3316194132355
 30
0.0
 11
234.8112566362452
 21
-160.3202554151801
 31
0.0
  0
LINE
  5
2D4
330
2
100
AcDbEntity
  8
0
100
AcDbLine
 10
234.8485296499766
 20
-160.3429824799684
 30
0.0
 11
234.828983662961
 21
-160.3316194132355
 31
0.0
  0
LINE
  5
2D5
330
2
100
AcDbEntity
  8
0
100
AcDbLine
 10
234.8698926473353
 20
-160.3543464780239
 30
0.0
 11
234.8485296499766
 21
-160.3429824799684
 31
0.0
  0
LINE
  5
2D6
330
2
100
AcDbEntity
  8
0
100
AcDbLine
 10
234.8930746486494
 20
-160.3657104760793
 30
0.0
 11
234.8698926473353
 21
-160.3543464780239
 31
0.0
  0
LINE
  5
2D7
330
2
100
AcDbEntity
  8
0
100
AcDbLine
 10
234.9180746498368
 20
-160.3770735428122
 30
0.0
 11
234.8930746486494
 21
-160.3657104760793
 31
0.0
  0
LINE
  5
2D8
330
2
100
AcDbEntity
  8
0
100
AcDbLine
 10
234.9448926508976
 20
-160.3884375408677
 30
0.0
 11
234.9180746498368
 21
-160.3770735428122
 31
0.0
  0
LINE
  5
2D9
330
2
100
AcDbEntity
  8
0
100
AcDbLine
 10
234.9735296559138
 20
-160.3998015389231
 30
0.0
 11
234.9448926508976
 21
-160.3884375408677
 31
0.0
  0
LINE
  5
2DA
330
2
100
AcDbEntity
  8
0
100
AcDbLine
 10
235.0264836461483
 20
-160.4228694677738
 30
0.0
 11
234.9735296559138
 21
-160.3998015389231
 31
0.0
  0
LINE
  5
2DB
330
2
100
AcDbEntity
  8
0
100
AcDbLine
 10
235.080802649687
 20
-160.4466191247491
 30
0.0
 11
235.0264836461483
 21
-160.4228694677738
 31
0.0
  0
LINE
  5
2DC
330
2
100
AcDbEntity
  8
0
100
AcDbLine
 10
235.136483649736
 20
-160.4710514411715
 30
0.0
 11
235.080802649687
 21
-160.4466191247491
 31
0.0
  0
LINE
  5
2DD
330
2
100
AcDbEntity
  8
0
100
AcDbLine
 10
235.1935296503561
 20
-160.4961636230735
 30
0.0
 11
235.136483649736
 21
-160.4710514411715
 31
0.0
  0
LINE
  5
2DE
330
2
100
AcDbEntity
  8
0
100
AcDbLine
 10
235.2519386442927
 20
-160.5219603270677
 30
0.0
 11
235.1935296503561
 21
-160.4961636230735
 31
0.0
  0
LINE
  5
2DF
330
2
100
AcDbEntity
  8
0
100
AcDbLine
 10
235.3117116547273
 20
-160.5484368965415
 30
0.0
 11
235.2519386442927
 21
-160.5219603270677
 31
0.0
  0
LINE
  5
2E0
330
2
100
AcDbEntity
  8
0
100
AcDbLine
 10
235.3728476411979
 20
-160.5755961254624
 30
0.0
 11
235.3117116547273
 21
-160.5484368965415
 31
0.0
  0
LINE
  5
2E1
330
2
100
AcDbEntity
  8
0
100
AcDbLine
 10
235.4353476514425
 20
-160.603437082508
 30
0.0
 11
235.3728476411979
 21
-160.5755961254624
 31
0.0
  0
LINE
  5
2E2
330
2
100
AcDbEntity
  8
0
100
AcDbLine
 10
235.4992116418052
 20
-160.6319597676781
 30
0.0
 11
235.4353476514425
 21
-160.603437082508
 31
0.0
  0
LINE
  5
2E3
330
2
100
AcDbEntity
  8
0
100
AcDbLine
 10
235.5644386518597
 20
-160.6611641809729
 30
0.0
 11
235.4992116418052
 21
-160.6319597676781
 31
0.0
  0
LINE
  5
2E4
330
2
100
AcDbEntity
  8
0
100
AcDbLine
 10
235.5825066590532
 20
-160.6684368789581
 30
0.0
 11
235.5644386518597
 21
-160.6611641809729
 31
0.0
  0
LINE
  5
2E5
330
2
100
AcDbEntity
  8
0
100
AcDbLine
 10
235.6003476563692
 20
-160.6766194790987
 30
0.0
 11
235.5825066590532
 21
-160.6684368789581
 31
0.0
  0
LINE
  5
2E6
330
2
100
AcDbEntity
  8
0
100
AcDbLine
 10
235.6179616438076
 20
-160.6857101187495
 30
0.0
 11
235.6003476563692
 21
-160.6766194790987
 31
0.0
  0
LINE
  5
2E7
330
2
100
AcDbEntity
  8
0
100
AcDbLine
 10
235.6353476318381
 20
-160.6957097292331
 30
0.0
 11
235.6179616438076
 21
-160.6857101187495
 31
0.0
  0
LINE
  5
2E8
330
2
100
AcDbEntity
  8
0
100
AcDbLine
 10
235.6525066681988
 20
-160.7066192418722
 30
0.0
 11
235.6353476318381
 21
-160.6957097292331
 31
0.0
  0
LINE
  5
2E9
330
2
100
AcDbEntity
  8
0
100
AcDbLine
 10
235.6694386364743
 20
-160.7184367940215
 30
0.0
 11
235.6525066681988
 21
-160.7066192418722
 31
0.0
  0
LINE
  5
2EA
330
2
100
AcDbEntity
  8
0
100
AcDbLine
 10
235.6861426635496
 20
-160.7311642483262
 30
0.0
 11
235.6694386364743
 21
-160.7184367940215
 31
0.0
  0
LINE
  5
2EB
330
2
100
AcDbEntity
  8
0
100
AcDbLine
 10
235.7026206702776
 20
-160.7448006734637
 30
0.0
 11
235.6861426635496
 21
-160.7311642483262
 31
0.0
  0
LINE
  5
2EC
330
2
100
AcDbEntity
  8
0
100
AcDbLine
 10
235.7188706775978
 20
-160.759346069434
 30
0.0
 11
235.7026206702776
 21
-160.7448006734637
 31
0.0
  0
LINE
  5
2ED
330
2
100
AcDbEntity
  8
0
100
AcDbLine
 10
235.7348926273025
 20
-160.7748013675598
 30
0.0
 11
235.7188706775978
 21
-160.759346069434
 31
0.0
  0
LINE
  5
2EE
330
2
100
AcDbEntity
  8
0
100
AcDbLine
 10
235.7586426335238
 20
-160.8002553448466
 30
0.0
 11
235.7348926273025
 21
-160.7748013675598
 31
0.0
  0
LINE
  5
2EF
330
2
100
AcDbEntity
  8
0
100
AcDbLine
 10
235.7798926207088
 20
-160.8266192242888
 30
0.0
 11
235.7586426335238
 21
-160.8002553448466
 31
0.0
  0
LINE
  5
2F0
330
2
100
AcDbEntity
  8
0
100
AcDbLine
 10
235.7986426470652
 20
-160.8538920745639
 30
0.0
 11
235.7798926207088
 21
-160.8266192242888
 31
0.0
  0
LINE
  5
2F1
330
2
100
AcDbEntity
  8
0
100
AcDbLine
 10
235.8148926543854
 20
-160.8820729643491
 30
0.0
 11
235.7986426470652
 21
-160.8538920745639
 31
0.0
  0
LINE
  5
2F2
330
2
100
AcDbEntity
  8
0
100
AcDbLine
 10
235.8286426426694
 20
-160.9111637562898
 30
0.0
 11
235.8148926543854
 21
-160.8820729643491
 31
0.0
  0
LINE
  5
2F3
330
2
100
AcDbEntity
  8
0
100
AcDbLine
 10
235.8398926701247
 20
-160.9411644503859
 30
0.0
 11
235.8286426426694
 21
-160.9111637562898
 31
0.0
  0
LINE
  5
2F4
330
2
100
AcDbEntity
  8
0
100
AcDbLine
 10
235.8486426203362
 20
-160.9720731839923
 30
0.0
 11
235.8398926701247
 21
-160.9411644503859
 31
0.0
  0
LINE
  5
2F5
330
2
100
AcDbEntity
  8
0
100
AcDbLine
 10
235.8548926679268
 20
-161.003891819754
 30
0.0
 11
235.8486426203362
 21
-160.9720731839923
 31
0.0
  0
LINE
  5
2F6
330
2
100
AcDbEntity
  8
0
100
AcDbLine
 10
235.8586426382735
 20
-161.0366194263486
 30
0.0
 11
235.8548926679268
 21
-161.003891819754
 31
0.0
  0
LINE
  5
2F7
330
2
100
AcDbEntity
  8
0
100
AcDbLine
 10
235.8598926477916
 20
-161.0702550724534
 30
0.0
 11
235.8586426382735
 21
-161.0366194263486
 31
0.0
  0
LINE
  5
2F8
330
2
100
AcDbEntity
  8
0
100
AcDbLine
 10
235.8583026473261
 20
-161.115028405228
 30
0.0
 11
235.8598926477916
 21
-161.0702550724534
 31
0.0
  0
LINE
  5
2F9
330
2
100
AcDbEntity
  8
0
100
AcDbLine
 10
235.8535296773389
 20
-161.1584373504308
 30
0.0
 11
235.8583026473261
 21
-161.115028405228
 31
0.0
  0
LINE
  5
2FA
330
2
100
AcDbEntity
  8
0
100
AcDbLine
 10
235.8455746691525
 20
-161.2004819080619
 30
0.0
 11
235.8535296773389
 21
-161.1584373504308
 31
0.0
  0
LINE
  5
2FB
330
2
100
AcDbEntity
  8
0
100
AcDbLine
 10
235.8344386705048
 20
-161.2411639407662
 30
0.0
 11
235.8455746691525
 21
-161.2004819080619
 31
0.0
  0
LINE
  5
2FC
330
2
100
AcDbEntity
  8
0
100
AcDbLine
 10
235.820120633658
 20
-161.2804825172213
 30
0.0
 11
235.8344386705048
 21
-161.2411639407662
 31
0.0
  0
LINE
  5
2FD
330
2
100
AcDbEntity
  8
0
100
AcDbLine
 10
235.8026206750273
 20
-161.3184367061046
 30
0.0
 11
235.820120633658
 21
-161.2804825172213
 31
0.0
  0
LINE
  5
2FE
330
2
100
AcDbEntity
  8
0
100
AcDbLine
 10
235.7819386781975
 20
-161.3550283700613
 30
0.0
 11
235.8026206750273
 21
-161.3184367061046
 31
0.0
  0
LINE
  5
2FF
330
2
100
AcDbEntity
  8
0
100
AcDbLine
 10
235.7580746431686
 20
-161.3902547151235
 30
0.0
 11
235.7819386781975
 21
-161.3550283700613
 31
0.0
  0
LINE
  5
300
330
2
100
AcDbEntity
  8
0
100
AcDbLine
 10
235.731029675886
 20
-161.4241194665817
 30
0.0
 11
235.7580746431686
 21
-161.3902547151235
 31
0.0
  0
LINE
  5
301
330
2
100
AcDbEntity
  8
0
100
AcDbLine
 10
235.7008026704043
 20
-161.4566188991455
 30
0.0
 11
235.731029675886
 21
-161.4241194665817
 31
0.0
  0
LINE
  5
302
330
2
100
AcDbEntity
  8
0
100
AcDbLine
 10
235.6645526272096
 20
-161.4890047103552
 30
0.0
 11
235.7008026704043
 21
-161.4566188991455
 31
0.0
  0
LINE
  5
303
330
2
100
AcDbEntity
  8
0
100
AcDbLine
 10
235.6239836337827
 20
-161.5179818809417
 30
0.0
 11
235.6645526272096
 21
-161.4890047103552
 31
0.0
  0
LINE
  5
304
330
2
100
AcDbEntity
  8
0
100
AcDbLine
 10
235.5790976400804
 20
-161.5435513422278
 30
0.0
 11
235.6239836337827
 21
-161.5179818809417
 31
0.0
  0
LINE
  5
305
330
2
100
AcDbEntity
  8
0
100
AcDbLine
 10
235.5298926379382
 20
-161.5657103002456
 30
0.0
 11
235.5790976400804
 21
-161.5435513422278
 31
0.0
  0
LINE
  5
306
330
2
100
AcDbEntity
  8
0
100
AcDbLine
 10
235.4763706355206
 20
-161.5844596863178
 30
0.0
 11
235.5298926379382
 21
-161.5657103002456
 31
0.0
  0
LINE
  5
307
330
2
100
AcDbEntity
  8
0
100
AcDbLine
 10
235.4185296537671
 20
-161.5998013630894
 30
0.0
 11
235.4763706355206
 21
-161.5844596863178
 31
0.0
  0
LINE
  5
308
330
2
100
AcDbEntity
  8
0
100
AcDbLine
 10
235.356370653104
 20
-161.6117325365928
 30
0.0
 11
235.4185296537671
 21
-161.5998013630894
 31
0.0
  0
LINE
  5
309
330
2
100
AcDbEntity
  8
0
100
AcDbLine
 10
235.2898926440011
 20
-161.6202550694731
 30
0.0
 11
235.356370653104
 21
-161.6117325365928
 31
0.0
  0
LINE
  5
30A
330
2
100
AcDbEntity
  8
0
100
AcDbLine
 10
235.2190976491747
 20
-161.6253689617304
 30
0.0
 11
235.2898926440011
 21
-161.6202550694731
 31
0.0
  0
LINE
  5
30B
330
2
100
AcDbEntity
  8
0
100
AcDbLine
 10
235.1439836495465
 20
-161.6270732820419
 30
0.0
 11
235.2190976491747
 21
-161.6253689617304
 31
0.0
  0
LINE
  5
30C
330
2
100
AcDbEntity
  8
0
100
AcDbLine
 10
235.0706886502357
 20
-161.625028097668
 30
0.0
 11
235.1439836495465
 21
-161.6270732820419
 31
0.0
  0
LINE
  5
30D
330
2
100
AcDbEntity
  8
0
100
AcDbLine
 10
235.000802651708
 20
-161.6188925445465
 30
0.0
 11
235.0706886502357
 21
-161.625028097668
 31
0.0
  0
LINE
  5
30E
330
2
100
AcDbEntity
  8
0
100
AcDbLine
 10
234.9343246426051
 20
-161.6086638287095
 30
0.0
 11
235.000802651708
 21
-161.6188925445465
 31
0.0
  0
LINE
  5
30F
330
2
100
AcDbEntity
  8
0
100
AcDbLine
 10
234.8712566565573
 20
-161.5943456754473
 30
0.0
 11
234.9343246426051
 21
-161.6086638287095
 31
0.0
  0
LINE
  5
310
330
2
100
AcDbEntity
  8
0
100
AcDbLine
 10
234.8115976458266
 20
-161.5759371534375
 30
0.0
 11
234.8712566565573
 21
-161.5943456754473
 31
0.0
  0
LINE
  5
311
330
2
100
AcDbEntity
  8
0
100
AcDbLine
 10
234.7553476540688
 20
-161.5534373313574
 30
0.0
 11
234.8115976458266
 21
-161.5759371534375
 31
0.0
  0
LINE
  5
312
330
2
100
AcDbEntity
  8
0
100
AcDbLine
 10
234.7025066521801
 20
-161.5268462092069
 30
0.0
 11
234.7553476540688
 21
-161.5534373313574
 31
0.0
  0
LINE
  5
313
330
2
100
AcDbEntity
  8
0
100
AcDbLine
 10
234.6530746401604
 20
-161.4961637869862
 30
0.0
 11
234.7025066521801
 21
-161.5268462092069
 31
0.0
  0
LINE
  5
314
330
2
100
AcDbEntity
  8
0
100
AcDbLine
 10
234.6070526657477
 20
-161.4613919273404
 30
0.0
 11
234.6530746401604
 21
-161.4961637869862
 31
0.0
  0
LINE
  5
315
330
2
100
AcDbEntity
  8
0
100
AcDbLine
 10
234.5644386625699
 20
-161.4225278363017
 30
0.0
 11
234.6070526657477
 21
-161.4613919273404
 31
0.0
  0
LINE
  5
316
330
2
100
AcDbEntity
  8
0
100
AcDbLine
 10
234.5363706374392
 20
-161.3916191026953
 30
0.0
 11
234.5644386625699
 21
-161.4225278363017
 31
0.0
  0
LINE
  5
317
330
2
100
AcDbEntity
  8
0
100
AcDbLine
 10
234.5112566510997
 20
-161.357982525268
 30
0.0
 11
234.5363706374392
 21
-161.3916191026953
 31
0.0
  0
LINE
  5
318
330
2
100
AcDbEntity
  8
0
100
AcDbLine
 10
234.4890976348743
 20
-161.3216190353421
 30
0.0
 11
234.5112566510997
 21
-161.357982525268
 31
0.0
  0
LINE
  5
319
330
2
100
AcDbEntity
  8
0
100
AcDbLine
 10
234.4698926574401
 20
-161.2825277015952
 30
0.0
 11
234.4890976348743
 21
-161.3216190353421
 31
0.0
  0
LINE
  5
31A
330
2
100
AcDbEntity
  8
0
100
AcDbLine
 10
234.4536426501199
 20
-161.2407103866724
 30
0.0
 11
234.4698926574401
 21
-161.2825277015952
 31
0.0
  0
LINE
  5
31B
330
2
100
AcDbEntity
  8
0
100
AcDbLine
 10
234.4403476711213
 20
-161.1961642966059
 30
0.0
 11
234.4536426501199
 21
-161.2407103866724
 31
0.0
  0
LINE
  5
31C
330
2
100
AcDbEntity
  8
0
100
AcDbLine
 10
234.4300066727064
 20
-161.1488922253636
 30
0.0
 11
234.4403476711213
 21
-161.1961642966059
 31
0.0
  0
LINE
  5
31D
330
2
100
AcDbEntity
  8
0
100
AcDbLine
 10
234.4226206444055
 20
-161.0988923103002
 30
0.0
 11
234.4300066727064
 21
-161.1488922253636
 31
0.0
  0
LINE
  5
31E
330
2
100
AcDbEntity
  8
0
100
AcDbLine
 10
234.4181886548958
 20
-161.0461636200932
 30
0.0
 11
234.4226206444055
 21
-161.0988923103002
 31
0.0
  0
LINE
  5
31F
330
2
100
AcDbEntity
  8
0
100
AcDbLine
 10
234.4167116355002
 20
-160.9907098800329
 30
0.0
 11
234.4181886548958
 21
-161.0461636200932
 31
0.0
  0
LINE
  5
320
330
2
100
AcDbEntity
  8
0
100
AcDbLine
 10
234.6780746558998
 20
-160.9907098800329
 30
0.0
 11
234.4167116355002
 21
-160.9907098800329
 31
0.0
  0
LINE
  5
321
330
2
100
AcDbEntity
  8
0
100
AcDbLine
 10
234.6789836558364
 20
-161.0304820105818
 30
0.0
 11
234.6780746558998
 21
-160.9907098800329
 31
0.0
  0
LINE
  5
322
330
2
100
AcDbEntity
  8
0
100
AcDbLine
 10
234.6817116451766
 20
-161.0679817140487
 30
0.0
 11
234.6789836558364
 21
-161.0304820105818
 31
0.0
  0
LINE
  5
323
330
2
100
AcDbEntity
  8
0
100
AcDbLine
 10
234.6862566448599
 20
-161.1032099217561
 30
0.0
 11
234.6817116451766
 21
-161.0679817140487
 31
0.0
  0
LINE
  5
324
330
2
100
AcDbEntity
  8
0
100
AcDbLine
 10
234.6926206630505
 20
-161.1361638397363
 30
0.0
 11
234.6862566448599
 21
-161.1032099217561
 31
0.0
  0
LINE
  5
325
330
2
100
AcDbEntity
  8
0
100
AcDbLine
 10
234.7008026520107
 20
-161.166846261957
 30
0.0
 11
234.6926206630505
 21
-161.1361638397363
 31
0.0
  0
LINE
  5
326
330
2
100
AcDbEntity
  8
0
100
AcDbLine
 10
234.7108026408441
 20
-161.1952553257731
 30
0.0
 11
234.7008026520107
 21
-161.166846261957
 31
0.0
  0
LINE
  5
327
330
2
100
AcDbEntity
  8
0
100
AcDbLine
 10
234.7226206586547
 20
-161.2213919625071
 30
0.0
 11
234.7108026408441
 21
-161.1952553257731
 31
0.0
  0
LINE
  5
328
330
2
100
AcDbEntity
  8
0
100
AcDbLine
 10
234.7362566472348
 20
-161.2452552408365
 30
0.0
 11
234.7226206586547
 21
-161.2213919625071
 31
0.0
  0
LINE
  5
329
330
2
100
AcDbEntity
  8
0
100
AcDbLine
 10
234.7517116543222
 20
-161.2668460920838
 30
0.0
 11
234.7362566472348
 21
-161.2452552408365
 31
0.0
  0
LINE
  5
32A
330
2
100
AcDbEntity
  8
0
100
AcDbLine
 10
234.7689836426489
 20
-161.2861645162491
 30
0.0
 11
234.7517116543222
 21
-161.2668460920838
 31
0.0
  0
LINE
  5
32B
330
2
100
AcDbEntity
  8
0
100
AcDbLine
 10
234.7953476385064
 20
-161.3099141732243
 30
0.0
 11
234.7689836426489
 21
-161.2861645162491
 31
0.0
  0
LINE
  5
32C
330
2
100
AcDbEntity
  8
0
100
AcDbLine
 10
234.8244386632778
 20
-161.3311641604093
 30
0.0
 11
234.7953476385064
 21
-161.3099141732243
 31
0.0
  0
LINE
  5
32D
330
2
100
AcDbEntity
  8
0
100
AcDbLine
 10
234.8562566587552
 20
-161.3499144778041
 30
0.0
 11
234.8244386632778
 21
-161.3311641604093
 31
0.0
  0
LINE
  5
32E
330
2
100
AcDbEntity
  8
0
100
AcDbLine
 10
234.8908026435729
 20
-161.366164194086
 30
0.0
 11
234.8562566587552
 21
-161.3499144778041
 31
0.0
  0
LINE
  5
32F
330
2
100
AcDbEntity
  8
0
100
AcDbLine
 10
234.9280746532222
 20
-161.3799142405776
 30
0.0
 11
234.8908026435729
 21
-161.366164194086
 31
0.0
  0
LINE
  5
330
330
2
100
AcDbEntity
  8
0
100
AcDbLine
 10
234.9680746522117
 20
-161.3911636859564
 30
0.0
 11
234.9280746532222
 21
-161.3799142405776
 31
0.0
  0
LINE
  5
331
330
2
100
AcDbEntity
  8
0
100
AcDbLine
 10
235.0108026478174
 20
-161.3999143928674
 30
0.0
 11
234.9680746522117
 21
-161.3911636859564
 31
0.0
  0
LINE
  5
332
330
2
100
AcDbEntity
  8
0
100
AcDbLine
 10
235.0562566464268
 20
-161.4061644986657
 30
0.0
 11
235.0108026478174
 21
-161.3999143928674
 31
0.0
  0
LINE
  5
333
330
2
100
AcDbEntity
  8
0
100
AcDbLine
 10
235.1044386489284
 20
-161.4099140033511
 30
0.0
 11
235.0562566464268
 21
-161.4061644986657
 31
0.0
  0
LINE
  5
334
330
2
100
AcDbEntity
  8
0
100
AcDbLine
 10
235.1553476494209
 20
-161.4111638382462
 30
0.0
 11
235.1044386489284
 21
-161.4099140033511
 31
0.0
  0
LINE
  5
335
330
2
100
AcDbEntity
  8
0
100
AcDbLine
 10
235.2018246494899
 20
-161.4100276247052
 30
0.0
 11
235.1553476494209
 21
-161.4111638382462
 31
0.0
  0
LINE
  5
336
330
2
100
AcDbEntity
  8
0
100
AcDbLine
 10
235.2458026473378
 20
-161.4066189840821
 30
0.0
 11
235.2018246494899
 21
-161.4100276247052
 31
0.0
  0
LINE
  5
337
330
2
100
AcDbEntity
  8
0
100
AcDbLine
 10
235.2872796438951
 20
-161.4009369850544
 30
0.0
 11
235.2458026473378
 21
-161.4066189840821
 31
0.0
  0
LINE
  5
338
330
2
100
AcDbEntity
  8
0
100
AcDbLine
 10
235.326256643244
 20
-161.392981627622
 30
0.0
 11
235.2872796438951
 21
-161.4009369850544
 31
0.0
  0
LINE
  5
339
330
2
100
AcDbEntity
  8
0
100
AcDbLine
 10
235.3627336526606
 20
-161.3827547744302
 30
0.0
 11
235.326256643244
 21
-161.392981627622
 31
0.0
  0
LINE
  5
33A
330
2
100
AcDbEntity
  8
0
100
AcDbLine
 10
235.3967116471231
 20
-161.3702554941562
 30
0.0
 11
235.3627336526606
 21
-161.3827547744302
 31
0.0
  0
LINE
  5
33B
330
2
100
AcDbEntity
  8
0
100
AcDbLine
 10
235.4281886621229
 20
-161.3554819241551
 30
0.0
 11
235.3967116471231
 21
-161.3702554941562
 31
0.0
  0
LINE
  5
33C
330
2
100
AcDbEntity
  8
0
100
AcDbLine
 10
235.4571656580865
 20
-161.3384368583945
 30
0.0
 11
235.4281886621229
 21
-161.3554819241551
 31
0.0
  0
LINE
  5
33D
330
2
100
AcDbEntity
  8
0
100
AcDbLine
 10
235.4836426350139
 20
-161.3191193655518
 30
0.0
 11
235.4571656580865
 21
-161.3384368583945
 31
0.0
  0
LINE
  5
33E
330
2
100
AcDbEntity
  8
0
100
AcDbLine
 10
235.5076206406429
 20
-161.2975285143045
 30
0.0
 11
235.4836426350139
 21
-161.3191193655518
 31
0.0
  0
LINE
  5
33F
330
2
100
AcDbEntity
  8
0
100
AcDbLine
 10
235.5248926580734
 20
-161.2793463036803
 30
0.0
 11
235.5076206406429
 21
-161.2975285143045
 31
0.0
  0
LINE
  5
340
330
2
100
AcDbEntity
  8
0
100
AcDbLine
 10
235.540347636057
 20
-161.2611640930561
 30
0.0
 11
235.5248926580734
 21
-161.2793463036803
 31
0.0
  0
LINE
  5
341
330
2
100
AcDbEntity
  8
0
100
AcDbLine
 10
235.5539836537409
 20
-161.2429818824319
 30
0.0
 11
235.540347636057
 21
-161.2611640930561
 31
0.0
  0
LINE
  5
342
330
2
100
AcDbEntity
  8
0
100
AcDbLine
 10
235.5658026610818
 20
-161.2248015344528
 30
0.0
 11
235.5539836537409
 21
-161.2429818824319
 31
0.0
  0
LINE
  5
343
330
2
100
AcDbEntity
  8
0
100
AcDbLine
 10
235.5758026499152
 20
-161.2066193238286
 30
0.0
 11
235.5658026610818
 21
-161.2248015344528
 31
0.0
  0
LINE
  5
344
330
2
100
AcDbEntity
  8
0
100
AcDbLine
 10
235.5839836493451
 20
-161.1884371132044
 30
0.0
 11
235.5758026499152
 21
-161.2066193238286
 31
0.0
  0
LINE
  5
345
330
2
100
AcDbEntity
  8
0
100
AcDbLine
 10
235.5903476384319
 20
-161.1702549025801
 30
0.0
 11
235.5839836493451
 21
-161.1884371132044
 31
0.0
  0
LINE
  5
346
330
2
100
AcDbEntity
  8
0
100
AcDbLine
 10
235.5948926381152
 20
-161.1520726919559
 30
0.0
 11
235.5903476384319
 21
-161.1702549025801
 31
0.0
  0
LINE
  5
347
330
2
100
AcDbEntity
  8
0
100
AcDbLine
 10
235.5976206565592
 20
-161.1338923439769
 30
0.0
 11
235.5948926381152
 21
-161.1520726919559
 31
0.0
  0
LINE
  5
348
330
2
100
AcDbEntity
  8
0
100
AcDbLine
 10
235.5985296564959
 20
-161.1157101333526
 30
0.0
 11
235.5976206565592
 21
-161.1338923439769
 31
0.0
  0
LINE
  5
349
330
2
100
AcDbEntity
  8
0
100
AcDbLine
 10
235.597847637333
 20
-161.0955963597087
 30
0.0
 11
235.5985296564959
 21
-161.1157101333526
 31
0.0
  0
LINE
  5
34A
330
2
100
AcDbEntity
  8
0
100
AcDbLine
 10
235.5958026566859
 20
-161.0761643141893
 30
0.0
 11
235.597847637333
 21
-161.0955963597087
 31
0.0
  0
LINE
  5
34B
330
2
100
AcDbEntity
  8
0
100
AcDbLine
 10
235.5923926481828
 20
-161.0574139967946
 30
0.0
 11
235.5958026566859
 21
-161.0761643141893
 31
0.0
  0
LINE
  5
34C
330
2
100
AcDbEntity
  8
0
100
AcDbLine
 10
235.5876206386219
 20
-161.039346338847
 30
0.0
 11
235.5923926481828
 21
-161.0574139967946
 31
0.0
  0
LINE
  5
34D
330
2
100
AcDbEntity
  8
0
100
AcDbLine
 10
235.5814836594127
 20
-161.0219604090241
 30
0.0
 11
235.5876206386219
 21
-161.039346338847
 31
0.0
  0
LINE
  5
34E
330
2
100
AcDbEntity
  8
0
100
AcDbLine
 10
235.5739836605116
 20
-161.0052552760032
 30
0.0
 11
235.5814836594127
 21
-161.0219604090241
 31
0.0
  0
LINE
  5
34F
330
2
100
AcDbEntity
  8
0
100
AcDbLine
 10
235.5651206419188
 20
-160.989231871107
 30
0.0
 11
235.5739836605116
 21
-161.0052552760032
 31
0.0
  0
LINE
  5
350
330
2
100
AcDbEntity
  8
0
100
AcDbLine
 10
235.5548926536776
 20
-160.9738920569805
 30
0.0
 11
235.5651206419188
 21
-160.989231871107
 31
0.0
  0
LINE
  5
351
330
2
100
AcDbEntity
  8
0
100
AcDbLine
 10
235.5433026352748
 20
-160.9592321083335
 30
0.0
 11
235.5548926536776
 21
-160.9738920569805
 31
0.0
  0
LINE
  5
352
330
2
100
AcDbEntity
  8
0
100
AcDbLine
 10
235.5303476472236
 20
-160.9452548191336
 30
0.0
 11
235.5433026352748
 21
-160.9592321083335
 31
0.0
  0
LINE
  5
353
330
2
100
AcDbEntity
  8
0
100
AcDbLine
 10
235.5183026486393
 20
-160.9338917524008
 30
0.0
 11
235.5303476472236
 21
-160.9452548191336
 31
0.0
  0
LINE
  5
354
330
2
100
AcDbEntity
  8
0
100
AcDbLine
 10
235.5048926513027
 20
-160.9225277543453
 30
0.0
 11
235.5183026486393
 21
-160.9338917524008
 31
0.0
  0
LINE
  5
355
330
2
100
AcDbEntity
  8
0
100
AcDbLine
 10
235.4901206529084
 20
-160.9111637562898
 30
0.0
 11
235.5048926513027
 21
-160.9225277543453
 31
0.0
  0
LINE
  5
356
330
2
100
AcDbEntity
  8
0
100
AcDbLine
 10
235.4739836557619
 20
-160.899800689557
 30
0.0
 11
235.4901206529084
 21
-160.9111637562898
 31
0.0
  0
LINE
  5
357
330
2
100
AcDbEntity
  8
0
100
AcDbLine
 10
235.4564836389236
 20
-160.8884366915015
 30
0.0
 11
235.4739836557619
 21
-160.899800689557
 31
0.0
  0
LINE
  5
358
330
2
100
AcDbEntity
  8
0
100
AcDbLine
 10
235.4376206606012
 20
-160.877072693446
 30
0.0
 11
235.4564836389236
 21
-160.8884366915015
 31
0.0
  0
LINE
  5
359
330
2
100
AcDbEntity
  8
0
100
AcDbLine
 10
235.4173926544226
 20
-160.8657096267132
 30
0.0
 11
235.4376206606012
 21
-160.877072693446
 31
0.0
  0
LINE
  5
35A
330
2
100
AcDbEntity
  8
0
100
AcDbLine
 10
235.3958026471864
 20
-160.8543456286577
 30
0.0
 11
235.4173926544226
 21
-160.8657096267132
 31
0.0
  0
LINE
  5
35B
330
2
100
AcDbEntity
  8
0
100
AcDbLine
 10
235.3728476411979
 20
-160.8429816306022
 30
0.0
 11
235.3958026471864
 21
-160.8543456286577
 31
0.0
  0
LINE
  5
35C
330
2
100
AcDbEntity
  8
0
100
AcDbLine
 10
235.3485296446215
 20
-160.8316194951919
 30
0.0
 11
235.3728476411979
 21
-160.8429816306022
 31
0.0
  0
LINE
  5
35D
330
2
100
AcDbEntity
  8
0
100
AcDbLine
 10
235.3251206479817
 20
-160.8200282544283
 30
0.0
 11
235.3485296446215
 21
-160.8316194951919
 31
0.0
  0
LINE
  5
35E
330
2
100
AcDbEntity
  8
0
100
AcDbLine
 10
235.3003476566719
 20
-160.8079825282482
 30
0.0
 11
235.3251206479817
 21
-160.8200282544283
 31
0.0
  0
LINE
  5
35F
330
2
100
AcDbEntity
  8
0
100
AcDbLine
 10
235.2742116456702
 20
-160.7954823166517
 30
0.0
 11
235.3003476566719
 21
-160.8079825282482
 31
0.0
  0
LINE
  5
360
330
2
100
AcDbEntity
  8
0
100
AcDbLine
 10
235.2467116472744
 20
-160.7825276196388
 30
0.0
 11
235.2742116456702
 21
-160.7954823166517
 31
0.0
  0
LINE
  5
361
330
2
100
AcDbEntity
  8
0
100
AcDbLine
 10
235.2178476469326
 20
-160.7691193685321
 30
0.0
 11
235.2467116472744
 21
-160.7825276196388
 31
0.0
  0
LINE
  5
362
330
2
100
AcDbEntity
  8
0
100
AcDbLine
 10
235.1876206487268
 20
-160.7552547693638
 30
0.0
 11
235.2178476469326
 21
-160.7691193685321
 31
0.0
  0
LINE
  5
363
330
2
100
AcDbEntity
  8
0
100
AcDbLine
 10
235.156029648575
 20
-160.7409366161016
 30
0.0
 11
235.1876206487268
 21
-160.7552547693638
 31
0.0
  0
LINE
  5
364
330
2
100
AcDbEntity
  8
0
100
AcDbLine
 10
235.123074649433
 20
-160.7261639774231
 30
0.0
 11
235.156029648575
 21
-160.7409366161016
 31
0.0
  0
LINE
  5
365
330
2
100
AcDbEntity
  8
0
100
AcDbLine
 10
235.0887566501533
 20
-160.7109368533281
 30
0.0
 11
235.123074649433
 21
-160.7261639774231
 31
0.0
  0
LINE
  5
366
330
2
100
AcDbEntity
  8
0
100
AcDbLine
 10
235.0530746518834
 20
-160.6952552438167
 30
0.0
 11
235.0887566501533
 21
-160.7109368533281
 31
0.0
  0
LINE
  5
367
330
2
100
AcDbEntity
  8
0
100
AcDbLine
 10
235.0129616499962
 20
-160.6774138972548
 30
0.0
 11
235.0530746518834
 21
-160.6952552438167
 31
0.0
  0
LINE
  5
368
330
2
100
AcDbEntity
  8
0
100
AcDbLine
 10
234.9744386558505
 20
-160.6602552101401
 30
0.0
 11
235.0129616499962
 21
-160.6774138972548
 31
0.0
  0
LINE
  5
369
330
2
100
AcDbEntity
  8
0
100
AcDbLine
 10
234.9375066517005
 20
-160.64377825115
 30
0.0
 11
234.9744386558505
 21
-160.6602552101401
 31
0.0
  0
LINE
  5
36A
330
2
100
AcDbEntity
  8
0
100
AcDbLine
 10
234.9021656520981
 20
-160.627982088962
 30
0.0
 11
234.9375066517005
 21
-160.64377825115
 31
0.0
  0
LINE
  5
36B
330
2
100
AcDbEntity
  8
0
100
AcDbLine
 10
234.8684156570434
 20
-160.6128695175437
 30
0.0
 11
234.9021656520981
 21
-160.627982088962
 31
0.0
  0
LINE
  5
36C
330
2
100
AcDbEntity
  8
0
100
AcDbLine
 10
234.8362566519845
 20
-160.5984368116049
 30
0.0
 11
234.8684156570434
 21
-160.6128695175437
 31
0.0
  0
LINE
  5
36D
330
2
100
AcDbEntity
  8
0
100
AcDbLine
 10
234.8056886369213
 20
-160.5846867651132
 30
0.0
 11
234.8362566519845
 21
-160.5984368116049
 31
0.0
  0
LINE
  5
36E
330
2
100
AcDbEntity
  8
0
100
AcDbLine
 10
234.7767116409577
 20
-160.5716193780688
 30
0.0
 11
234.8056886369213
 21
-160.5846867651132
 31
0.0
  0
LINE
  5
36F
330
2
100
AcDbEntity
  8
0
100
AcDbLine
 10
234.7493246454596
 20
-160.5592318565038
 30
0.0
 11
234.7767116409577
 21
-160.5716193780688
 31
0.0
  0
LINE
  5
370
330
2
100
AcDbEntity
  8
0
100
AcDbLine
 10
234.7235296585914
 20
-160.5475279257086
 30
0.0
 11
234.7493246454596
 21
-160.5592318565038
 31
0.0
  0
LINE
  5
371
330
2
100
AcDbEntity
  8
0
100
AcDbLine
 10
234.7055746615715
 20
-160.5403688490776
 30
0.0
 11
234.7235296585914
 21
-160.5475279257086
 31
0.0
  0
LINE
  5
372
330
2
100
AcDbEntity
  8
0
100
AcDbLine
 10
234.6880746447332
 20
-160.5325280443219
 30
0.0
 11
234.7055746615715
 21
-160.5403688490776
 31
0.0
  0
LINE
  5
373
330
2
100
AcDbEntity
  8
0
100
AcDbLine
 10
234.6710296371802
 20
-160.5240055114416
 30
0.0
 11
234.6880746447332
 21
-160.5325280443219
 31
0.0
  0
LINE
  5
374
330
2
100
AcDbEntity
  8
0
100
AcDbLine
 10
234.6544386493824
 20
-160.5148012504367
 30
0.0
 11
234.6710296371802
 21
-160.5240055114416
 31
0.0
  0
LINE
  5
375
330
2
100
AcDbEntity
  8
0
100
AcDbLine
 10
234.6383026417661
 20
-160.5049143299845
 30
0.0
 11
234.6544386493824
 21
-160.5148012504367
 31
0.0
  0
LINE
  5
376
330
2
100
AcDbEntity
  8
0
100
AcDbLine
 10
234.622620653905
 20
-160.4943456814078
 30
0.0
 11
234.6383026417661
 21
-160.5049143299845
 31
0.0
  0
LINE
  5
377
330
2
100
AcDbEntity
  8
0
100
AcDbLine
 10
234.6073926566951
 20
-160.483096236029
 30
0.0
 11
234.622620653905
 21
-160.4943456814078
 31
0.0
  0
LINE
  5
378
330
2
100
AcDbEntity
  8
0
100
AcDbLine
 10
234.5926206583008
 20
-160.4711641312031
 30
0.0
 11
234.6073926566951
 21
-160.483096236029
 31
0.0
  0
LINE
  5
379
330
2
100
AcDbEntity
  8
0
100
AcDbLine
 10
234.578302621454
 20
-160.458551229575
 30
0.0
 11
234.5926206583008
 21
-160.4711641312031
 31
0.0
  0
LINE
  5
37A
330
2
100
AcDbEntity
  8
0
100
AcDbLine
 10
234.5644386625699
 20
-160.4452547371773
 30
0.0
 11
234.578302621454
 21
-160.458551229575
 31
0.0
  0
LINE
  5
37B
330
2
100
AcDbEntity
  8
0
100
AcDbLine
 10
234.5450066752583
 20
-160.4241193026689
 30
0.0
 11
234.5644386625699
 21
-160.4452547371773
 31
0.0
  0
LINE
  5
37C
330
2
100
AcDbEntity
  8
0
100
AcDbLine
 10
234.52762062902
 20
-160.4016194805888
 30
0.0
 11
234.5450066752583
 21
-160.4241193026689
 31
0.0
  0
LINE
  5
37D
330
2
100
AcDbEntity
  8
0
100
AcDbLine
 10
234.5122796507403
 20
-160.3777552709368
 30
0.0
 11
234.52762062902
 21
-160.4016194805888
 31
0.0
  0
LINE
  5
37E
330
2
100
AcDbEntity
  8
0
100
AcDbLine
 10
234.4989836240038
 20
-160.3525285363582
 30
0.0
 11
234.5122796507403
 21
-160.3777552709368
 31
0.0
  0
LINE
  5
37F
330
2
100
AcDbEntity
  8
0
100
AcDbLine
 10
234.4877336547561
 20
-160.3259374142078
 30
0.0
 11
234.4989836240038
 21
-160.3525285363582
 31
0.0
  0
LINE
  5
380
330
2
100
AcDbEntity
  8
0
100
AcDbLine
 10
234.4785296265818
 20
-160.2979819044856
 30
0.0
 11
234.4877336547561
 21
-160.3259374142078
 31
0.0
  0
LINE
  5
381
330
2
100
AcDbEntity
  8
0
100
AcDbLine
 10
234.471370666366
 20
-160.2686638698367
 30
0.0
 11
234.4785296265818
 21
-160.2979819044856
 31
0.0
  0
LINE
  5
382
330
2
100
AcDbEntity
  8
0
100
AcDbLine
 10
234.4662566576935
 20
-160.2379823789386
 30
0.0
 11
234.471370666366
 21
-160.2686638698367
 31
0.0
  0
LINE
  5
383
330
2
100
AcDbEntity
  8
0
100
AcDbLine
 10
237.6492116275094
 20
-160.2078689948109
 30
0.0
 11
237.6444385993145
 21
-160.1548013031868
 31
0.0
  0
LINE
  5
384
330
2
100
AcDbEntity
  8
0
100
AcDbLine
 10
237.6508025592975
 20
-160.2634372875479
 30
0.0
 11
237.6492116275094
 21
-160.2078689948109
 31
0.0
  0
LINE
  5
385
330
2
100
AcDbEntity
  8
0
100
AcDbLine
 10
237.6493245503716
 20
-160.3188919589308
 30
0.0
 11
237.6508025592975
 21
-160.2634372875479
 31
0.0
  0
LINE
  5
386
330
2
100
AcDbEntity
  8
0
100
AcDbLine
 10
237.6448926190696
 20
-160.3716187864927
 30
0.0
 11
237.6493245503716
 21
-160.3188919589308
 31
0.0
  0
LINE
  5
387
330
2
100
AcDbEntity
  8
0
100
AcDbLine
 10
237.6375067653917
 20
-160.4216187015561
 30
0.0
 11
237.6448926190696
 21
-160.3716187864927
 31
0.0
  0
LINE
  5
388
330
2
100
AcDbEntity
  8
0
100
AcDbLine
 10
237.6271655923538
 20
-160.468891704121
 30
0.0
 11
237.6375067653917
 21
-160.4216187015561
 31
0.0
  0
LINE
  5
389
330
2
100
AcDbEntity
  8
0
100
AcDbLine
 10
237.6138707297705
 20
-160.5134368628648
 30
0.0
 11
237.6271655923538
 21
-160.468891704121
 31
0.0
  0
LINE
  5
38A
330
2
100
AcDbEntity
  8
0
100
AcDbLine
 10
237.5976205478273
 20
-160.5552551091102
 30
0.0
 11
237.6138707297705
 21
-160.5134368628648
 31
0.0
  0
LINE
  5
38B
330
2
100
AcDbEntity
  8
0
100
AcDbLine
 10
237.5784157450162
 20
-160.5943464428571
 30
0.0
 11
237.5976205478273
 21
-160.5552551091102
 31
0.0
  0
LINE
  5
38C
330
2
100
AcDbEntity
  8
0
100
AcDbLine
 10
237.5562565541677
 20
-160.630709932783
 30
0.0
 11
237.5784157450162
 21
-160.5943464428571
 31
0.0
  0
LINE
  5
38D
330
2
100
AcDbEntity
  8
0
100
AcDbLine
 10
237.5311427424513
 20
-160.6643465102104
 30
0.0
 11
237.5562565541677
 21
-160.630709932783
 31
0.0
  0
LINE
  5
38E
330
2
100
AcDbEntity
  8
0
100
AcDbLine
 10
237.5030745426975
 20
-160.6952552438167
 30
0.0
 11
237.5311427424513
 21
-160.6643465102104
 31
0.0
  0
LINE
  5
38F
330
2
100
AcDbEntity
  8
0
100
AcDbLine
 10
237.4722796632759
 20
-160.7264759704856
 30
0.0
 11
237.5030745426975
 21
-160.6952552438167
 31
0.0
  0
LINE
  5
390
330
2
100
AcDbEntity
  8
0
100
AcDbLine
 10
237.4389837170802
 20
-160.7544100597886
 30
0.0
 11
237.4722796632759
 21
-160.7264759704856
 31
0.0
  0
LINE
  5
391
330
2
100
AcDbEntity
  8
0
100
AcDbLine
 10
237.4031885667555
 20
-160.7790575117258
 30
0.0
 11
237.4389837170802
 21
-160.7544100597886
 31
0.0
  0
LINE
  5
392
330
2
100
AcDbEntity
  8
0
100
AcDbLine
 10
237.3648925824873
 20
-160.8004192576197
 30
0.0
 11
237.4031885667555
 21
-160.7790575117258
 31
0.0
  0
LINE
  5
393
330
2
100
AcDbEntity
  8
0
100
AcDbLine
 10
237.3240976269208
 20
-160.8184943661479
 30
0.0
 11
237.3648925824873
 21
-160.8004192576197
 31
0.0
  0
LINE
  5
394
330
2
100
AcDbEntity
  8
0
100
AcDbLine
 10
237.2808025359027
 20
-160.8332819059876
 30
0.0
 11
237.3240976269208
 21
-160.8184943661479
 31
0.0
  0
LINE
  5
395
330
2
100
AcDbEntity
  8
0
100
AcDbLine
 10
237.2350066109411
 20
-160.8447846711067
 30
0.0
 11
237.2808025359027
 21
-160.8332819059876
 31
0.0
  0
LINE
  5
396
330
2
100
AcDbEntity
  8
0
100
AcDbLine
 10
237.1867117146812
 20
-160.85300079886
 30
0.0
 11
237.2350066109411
 21
-160.8447846711067
 31
0.0
  0
LINE
  5
397
330
2
100
AcDbEntity
  8
0
100
AcDbLine
 10
237.1359157516472
 20
-160.8579302892474
 30
0.0
 11
237.1867117146812
 21
-160.85300079886
 31
0.0
  0
LINE
  5
398
330
2
100
AcDbEntity
  8
0
100
AcDbLine
 10
237.0826205844842
 20
-160.859573142269
 30
0.0
 11
237.1359157516472
 21
-160.8579302892474
 31
0.0
  0
LINE
  5
399
330
2
100
AcDbEntity
  8
0
100
AcDbLine
 10
236.4348926023431
 20
-160.859573142269
 30
0.0
 11
237.0826205844842
 21
-160.859573142269
 31
0.0
  0
LINE
  5
39A
330
2
100
AcDbEntity
  8
0
100
AcDbLine
 10
236.4348926023431
 20
-161.6043462172536
 30
0.0
 11
236.4348926023431
 21
-160.859573142269
 31
0.0
  0
LINE
  5
39B
330
2
100
AcDbEntity
  8
0
100
AcDbLine
 10
236.1587566231228
 20
-161.6043462172536
 30
0.0
 11
236.4348926023431
 21
-161.6043462172536
 31
0.0
  0
LINE
  5
39C
330
2
100
AcDbEntity
  8
0
100
AcDbLine
 10
236.1587566231228
 20
-159.6611640170602
 30
0.0
 11
236.1587566231228
 21
-161.6043462172536
 31
0.0
  0
LINE
  5
39D
330
2
100
AcDbEntity
  8
0
100
AcDbLine
 10
237.0826205844842
 20
-159.6611640170602
 30
0.0
 11
236.1587566231228
 21
-159.6611640170602
 31
0.0
  0
LINE
  5
39E
330
2
100
AcDbEntity
  8
0
100
AcDbLine
 10
237.1317117615454
 20
-159.6627547160176
 30
0.0
 11
237.0826205844842
 21
-159.6611640170602
 31
0.0
  0
LINE
  5
39F
330
2
100
AcDbEntity
  8
0
100
AcDbLine
 10
237.1789835999571
 20
-159.6675277442125
 30
0.0
 11
237.1317117615454
 21
-159.6627547160176
 31
0.0
  0
LINE
  5
3A0
330
2
100
AcDbEntity
  8
0
100
AcDbLine
 10
237.2244386608563
 20
-159.6754821703223
 30
0.0
 11
237.1789835999571
 21
-159.6675277442125
 31
0.0
  0
LINE
  5
3A1
330
2
100
AcDbEntity
  8
0
100
AcDbLine
 10
237.2680746159367
 20
-159.6866189256695
 30
0.0
 11
237.2244386608563
 21
-159.6754821703223
 31
0.0
  0
LINE
  5
3A2
330
2
100
AcDbEntity
  8
0
100
AcDbLine
 10
237.3098926293514
 20
-159.7009370789317
 30
0.0
 11
237.2680746159367
 21
-159.6866189256695
 31
0.0
  0
LINE
  5
3A3
330
2
100
AcDbEntity
  8
0
100
AcDbLine
 10
237.3498927011005
 20
-159.7184366301087
 30
0.0
 11
237.3098926293514
 21
-159.7009370789317
 31
0.0
  0
LINE
  5
3A4
330
2
100
AcDbEntity
  8
0
100
AcDbLine
 10
237.3880745983533
 20
-159.7391194418458
 30
0.0
 11
237.3498927011005
 21
-159.7184366301087
 31
0.0
  0
LINE
  5
3A5
330
2
100
AcDbEntity
  8
0
100
AcDbLine
 10
237.4244385539405
 20
-159.7629817888526
 30
0.0
 11
237.3880745983533
 21
-159.7391194418458
 31
0.0
  0
LINE
  5
3A6
330
2
100
AcDbEntity
  8
0
100
AcDbLine
 10
237.4589836365394
 20
-159.790028327742
 30
0.0
 11
237.4244385539405
 21
-159.7629817888526
 31
0.0
  0
LINE
  5
3A7
330
2
100
AcDbEntity
  8
0
100
AcDbLine
 10
237.4917117087953
 20
-159.8202553332237
 30
0.0
 11
237.4589836365394
 21
-159.790028327742
 31
0.0
  0
LINE
  5
3A8
330
2
100
AcDbEntity
  8
0
100
AcDbLine
 10
237.521938714277
 20
-159.853322872558
 30
0.0
 11
237.4917117087953
 21
-159.8202553332237
 31
0.0
  0
LINE
  5
3A9
330
2
100
AcDbEntity
  8
0
100
AcDbLine
 10
237.5489836233519
 20
-159.8888919443277
 30
0.0
 11
237.521938714277
 21
-159.853322872558
 31
0.0
  0
LINE
  5
3AA
330
2
100
AcDbEntity
  8
0
100
AcDbLine
 10
237.5728476001732
 20
-159.9269597545651
 30
0.0
 11
237.5489836233519
 21
-159.8888919443277
 31
0.0
  0
LINE
  5
3AB
330
2
100
AcDbEntity
  8
0
100
AcDbLine
 10
237.5935297134183
 20
-159.9675281659154
 30
0.0
 11
237.5728476001732
 21
-159.9269597545651
 31
0.0
  0
LINE
  5
3AC
330
2
100
AcDbEntity
  8
0
100
AcDbLine
 10
237.6110297302566
 20
-160.0105962470559
 30
0.0
 11
237.5935297134183
 21
-159.9675281659154
 31
0.0
  0
LINE
  5
3AD
330
2
100
AcDbEntity
  8
0
100
AcDbLine
 10
237.6253476506881
 20
-160.0561639979867
 30
0.0
 11
237.6110297302566
 21
-160.0105962470559
 31
0.0
  0
LINE
  5
3AE
330
2
100
AcDbEntity
  8
0
100
AcDbLine
 10
237.6364837075434
 20
-160.1042323500303
 30
0.0
 11
237.6253476506881
 21
-160.0561639979867
 31
0.0
  0
LINE
  5
3AF
330
2
100
AcDbEntity
  8
0
100
AcDbLine
 10
237.6444385993145
 20
-160.1548013031868
 30
0.0
 11
237.6364837075434
 21
-160.1042323500303
 31
0.0
  0
CIRCLE
  5
3B0
330
2
100
AcDbEntity
  8
0
100
AcDbCircle
 10
-243.9535285988559
 20
-182.1166408085385
 30
0.0000000000017035
 40
1.374999999999971
210
0.000000000000007
220
0.0
230
-1.0
  0
CIRCLE
  5
3B1
330
2
100
AcDbEntity
  8
0
100
AcDbCircle
 10
243.9535285988559
 20
-159.1093939400928
 30
0.0
 40
1.374999999999971
  0
CIRCLE
  5
3B2
330
2
100
AcDbEntity
  8
0
100
AcDbCircle
 10
-226.299447157603
 20
-159.1093939400928
 30
0.0000000000015802
 40
1.375
210
0.000000000000007
220
0.0
230
-1.0
  0
CIRCLE
  5
3B3
330
2
100
AcDbEntity
  8
0
100
AcDbCircle
 10
-222.1264878782295
 20
-170.6130173743156
 30
0.0000000000015511
 40
2.850000000000022
210
0.000000000000007
220
0.0
230
-1.0
  0
CIRCLE
  5
3B4
330
2
100
AcDbEntity
  8
0
100
AcDbCircle
 10
-248.1264878782294
 20
-170.6130173743156
 30
0.0000000000017327
 40
2.850000000000022
210
0.000000000000007
220
0.0
230
-1.0
  0
CIRCLE
  5
3B5
330
2
100
AcDbEntity
  8
0
100
AcDbCircle
 10
226.299447157603
 20
-182.1166408085385
 30
0.0
 40
1.375
  0
CIRCLE
  5
3B6
330
2
100
AcDbEntity
  8
0
100
AcDbCircle
 10
-235.1264878782294
 20
-170.6130173743156
 30
0.0000000000016419
 40
17.5
210
0.000000000000007
220
0.0
230
-1.0
  0
LINE
  5
3E1
330
2
100
AcDbEntity
  8
0
100
AcDbLine
 10
222.1264878782295
 20
-164.3923354654141
 30
0.0
 11
222.1264878782295
 21
-176.8336992832171
 31
0.0
  0
LINE
  5
3E2
330
2
100
AcDbEntity
  8
0
100
AcDbLine
 10
248.1264878782294
 20
-164.3923354654143
 30
0.0
 11
248.1264878782294
 21
-176.8336992832173
 31
0.0
  0
LINE
  5
400
330
2
100
AcDbEntity
  8
T
100
AcDbLine
 10
62.40734281302867
 20
-200.0629521903684
 30
0.0
 11
62.40734281302867
 21
-54.97668089408398
 31
0.0
  0
LINE
  5
401
330
2
100
AcDbEntity
  8
T
100
AcDbLine
 10
32.95740799697547
 20
-170.6130173743154
 30
0.0
 11
276.0
 21
-170.6130173743154
 31
0.0
  0
ARC
  5
402
330
2
100
AcDbEntity
  8
0
  6
HIDDEN2
370
    15
100
AcDbCircle
 10
-84.59265718697134
 20
-92.14538518255086
 30
0.0
 40
150.0
100
AcDbArc
 50
351.6756577797561
 51
357.8388823466915
  0
ARC
  5
403
330
2
100
AcDbEntity
  8
0
  6
HIDDEN2
370
    15
100
AcDbCircle
 10
209.4073428130287
 20
-92.14538518255176
 30
0.0
 40
150.0
100
AcDbArc
 50
182.1611176533084
 51
188.7216603834597
  0
LINE
  5
404
330
2
100
AcDbEntity
  8
0
  6
HIDDEN2
370
    15
100
AcDbLine
 10
61.42840528305079
 20
-115.1453851825513
 30
0.0
 11
62.36226973173553
 21
-115.1453851825513
 31
0.0
  0
ARC
  5
405
330
2
100
AcDbEntity
  8
0
  6
HIDDEN2
370
    15
100
AcDbCircle
 10
62.34269948570819
 20
-113.645381349932
 30
0.0
 40
1.500003782708649
100
AcDbArc
 50
270.0000076543642
 51
351.6754029984528
  0
ARC
  5
406
330
2
100
AcDbEntity
  8
0
  6
HIDDEN2
370
    15
100
AcDbCircle
 10
61.43842833907139
 20
-114.8453837461161
 30
0.0
 40
0.3000013819991668
100
AcDbArc
 50
188.7217791643317
 51
269.9999973525409
  0
LWPOLYLINE
  5
469
330
2
100
AcDbEntity
  8
0
100
AcDbPolyline
 90
        3
 70
   128
 43
0.0
 10
65.8449627021837
 20
-178.3286412001039
 10
66.18700372339663
 20
-178.116055646577
 10
66.22200352424261
 20
-178.0921979561831
  0
LWPOLYLINE
  5
46A
330
2
100
AcDbEntity
  8
0
100
AcDbPolyline
 90
        3
 70
   128
 43
0.0
 10
66.22200352424261
 20
-163.1338367924477
 10
66.18700372339663
 20
-163.1099791020537
 10
65.81098269955692
 20
-162.8782450907315
  0
ARC
  5
46B
330
2
100
AcDbEntity
  8
0
100
AcDbCircle
 10
62.760896203622
 20
-170.6130173743154
 30
0.0
 40
17.00000000000001
100
AcDbArc
 50
275.7038650101775
 51
279.335734285265
  0
ARC
  5
46C
330
2
100
AcDbEntity
  8
0
100
AcDbCircle
 10
68.657782452035
 20
-172.2659971076582
 30
0.0
 40
13.37145716731147
100
AcDbArc
 50
314.586416669487
 51
325.9226081035774
  0
ARC
  5
46D
330
2
100
AcDbEntity
  8
0
100
AcDbCircle
 10
65.91547467067243
 20
-171.2451896963316
 30
0.0
 40
16.92757835475587
100
AcDbArc
 50
35.08384344971901
 51
44.23252230020945
  0
ARC
  5
46E
330
2
100
AcDbEntity
  8
0
100
AcDbCircle
 10
66.19742846622057
 20
-169.934319154434
 30
0.0
 40
17.18761933319134
100
AcDbArc
 50
18.6814709656834
 51
41.38742895573269
  0
ARC
  5
46F
330
2
100
AcDbEntity
  8
0
100
AcDbCircle
 10
66.17701802907982
 20
-171.277209099162
 30
0.0
 40
17.21252351671522
100
AcDbArc
 50
318.6212614090107
 51
341.3290596657908
  0
ARC
  5
470
330
2
100
AcDbEntity
  8
0
100
AcDbCircle
 10
62.40734281302867
 20
-170.6130173743154
 30
0.0
 40
21.89612622821305
100
AcDbArc
 50
11.5492893726323
 51
348.2562983611773
  0
ARC
  5
471
330
2
100
AcDbEntity
  8
0
100
AcDbCircle
 10
63.47005593938366
 20
-174.1561902808166
 30
0.0
 40
4.800992481336973
100
AcDbArc
 50
287.2689920764226
 51
299.6479895386725
  0
ARC
  5
472
330
2
100
AcDbEntity
  8
0
100
AcDbCircle
 10
63.51199977364604
 20
-166.9719972841994
 30
0.0
 40
4.695117625273448
100
AcDbArc
 50
60.68216025867135
 51
72.86532138810253
  0
ARC
  5
473
330
2
100
AcDbEntity
  8
0
100
AcDbCircle
 10
62.40734281302867
 20
-170.6130173743154
 30
0.0
 40
8.500000000000015
100
AcDbArc
 50
285.2423539496992
 51
287.0195065394212
  0
ARC
  5
474
330
2
100
AcDbEntity
  8
0
100
AcDbCircle
 10
62.40734281302867
 20
-170.6130173743154
 30
0.0
 40
8.499999999999998
100
AcDbArc
 50
72.98049346057887
 51
74.75764605031343
  0
ARC
  5
475
330
2
100
AcDbEntity
  8
0
100
AcDbCircle
 10
62.40734281302867
 20
-170.6130173743154
 30
0.0
 40
17.5
100
AcDbArc
 50
275.1915781109911
 51
282.1771145444525
  0
ARC
  5
476
330
2
100
AcDbEntity
  8
0
100
AcDbCircle
 10
62.40734281302867
 20
-170.6130173743154
 30
0.0
 40
17.5
100
AcDbArc
 50
77.82288545554752
 51
84.80842188900892
  0
ARC
  5
477
330
2
100
AcDbEntity
  8
0
100
AcDbCircle
 10
63.94560811915108
 20
-187.5432784428276
 30
0.0
 40
0.500000000000007
100
AcDbArc
 50
275.1915781109911
 51
353.4975388083328
  0
ARC
  5
478
330
2
100
AcDbEntity
  8
0
100
AcDbCircle
 10
62.40734281302867
 20
-170.6130173743154
 30
0.0
 40
17.5
100
AcDbArc
 50
84.80842188900892
 51
275.1915781109911
  0
ARC
  5
479
330
2
100
AcDbEntity
  8
0
100
AcDbCircle
 10
63.94560811915108
 20
-153.6827563058032
 30
0.0
 40
0.500000000000007
100
AcDbArc
 50
6.502461191667187
 51
84.80842188900892
  0
ARC
  5
47A
330
2
100
AcDbEntity
  8
0
100
AcDbCircle
 10
60.35734281302872
 20
-178.4130173743151
 30
0.0
 40
0.200000000000017
100
AcDbArc
 50
90.0
 51
180.0
  0
ARC
  5
47B
330
2
100
AcDbEntity
  8
0
100
AcDbCircle
 10
64.45734281302861
 20
-178.4130173743151
 30
0.0
 40
0.200000000000017
100
AcDbArc
 50
0.0
 51
90.0
  0
LINE
  5
47C
330
2
100
AcDbEntity
  8
0
100
AcDbLine
 10
60.35734280297038
 20
-178.2130175024654
 30
0.0
 11
64.45734282308695
 21
-178.2130175024654
 31
0.0
  0
LINE
  5
47D
330
2
100
AcDbEntity
  8
0
100
AcDbLine
 10
60.15734290988621
 20
-162.4162192210938
 30
0.0
 11
60.15734290988621
 21
-162.8130175859119
 31
0.0
  0
LINE
  5
47E
330
2
100
AcDbEntity
  8
0
100
AcDbLine
 10
64.65734271617112
 20
-162.4162192210938
 30
0.0
 11
64.65734271617112
 21
-162.8130175859119
 31
0.0
  0
LINE
  5
47F
330
2
100
AcDbEntity
  8
0
100
AcDbLine
 10
64.62315968522307
 20
-162.3968113899613
 30
0.0
 11
64.64201384508488
 21
-162.4120264068628
 31
0.0
  0
LINE
  5
480
330
2
100
AcDbEntity
  8
0
100
AcDbLine
 10
64.65734271617112
 20
-178.4130171627189
 30
0.0
 11
64.65734271617112
 21
-178.809815527537
 31
0.0
  0
LINE
  5
481
330
2
100
AcDbEntity
  8
0
100
AcDbLine
 10
60.15734290988621
 20
-178.4130171627189
 30
0.0
 11
60.15734290988621
 21
-178.809815527537
 31
0.0
  0
LINE
  5
482
330
2
100
AcDbEntity
  8
0
100
AcDbLine
 10
64.64201384508488
 20
-178.8140083417679
 30
0.0
 11
64.62315968522307
 21
-178.8292233586694
 31
0.0
  0
ARC
  5
483
330
2
100
AcDbEntity
  8
0
100
AcDbCircle
 10
64.45734281302861
 20
-162.8130173743152
 30
0.0
 40
0.2000000000000028
100
AcDbArc
 50
270.0
 51
0.0
  0
ARC
  5
484
330
2
100
AcDbEntity
  8
0
100
AcDbCircle
 10
60.35734281302872
 20
-162.8130173743152
 30
0.0
 40
0.2000000000000028
100
AcDbArc
 50
180.0
 51
270.0
  0
LINE
  5
485
330
2
100
AcDbEntity
  8
0
100
AcDbLine
 10
64.45734282308695
 20
-163.0130172461654
 30
0.0
 11
60.35734280297038
 21
-163.0130172461654
 31
0.0
  0
LWPOLYLINE
  5
486
330
2
100
AcDbEntity
  8
0
100
AcDbPolyline
 90
        3
 70
   128
 43
0.0
 10
64.44239160330472
 20
-153.6261331975843
 10
64.87144772247848
 20
-157.9448929742361
 10
65.15224078023312
 20
-161.868559637704
  0
LWPOLYLINE
  5
487
330
2
100
AcDbEntity
  8
0
100
AcDbPolyline
 90
        3
 70
   128
 43
0.0
 10
65.15224078023312
 20
-179.3574751109267
 10
64.87144772247848
 20
-183.2811417743946
 10
64.44239160330472
 20
-187.5999015510465
  0
ARC
  5
488
330
2
100
AcDbEntity
  8
0
100
AcDbCircle
 10
64.65309111234842
 20
-179.328326581458
 30
0.0
 40
0.5000000000000764
100
AcDbArc
 50
356.6579685221924
 51
104.449559095346
  0
ARC
  5
489
330
2
100
AcDbEntity
  8
0
100
AcDbCircle
 10
64.65309111234842
 20
-161.8977081671728
 30
0.0
 40
0.5000000000000183
100
AcDbArc
 50
255.550440904654
 51
3.342031477650785
  0
ARC
  5
48A
330
2
100
AcDbEntity
  8
0
100
AcDbCircle
 10
62.40734281302867
 20
-170.6130173743154
 30
0.0
 40
8.500000000000012
100
AcDbArc
 50
92.07503713971437
 51
267.9249628602856
  0
LWPOLYLINE
  5
48B
330
2
100
AcDbEntity
  8
0
100
AcDbPolyline
 90
        3
 70
   128
 43
0.0
 10
62.09957213425514
 20
-162.1185908779884
 10
62.11063106595975
 20
-162.1181950658942
 10
62.71511349180219
 20
-162.1185908779884
  0
ARC
  5
48C
330
2
100
AcDbEntity
  8
0
100
AcDbCircle
 10
62.40734281302867
 20
-170.6130173743154
 30
0.0
 40
8.499999999999998
100
AcDbArc
 50
75.55044090464133
 51
87.92496286028564
  0
ARC
  5
48D
330
2
100
AcDbEntity
  8
0
100
AcDbCircle
 10
62.40734281302867
 20
-170.6130173743154
 30
0.0
 40
8.500000000000012
100
AcDbArc
 50
272.0750371397144
 51
284.4495590953587
  0
LWPOLYLINE
  5
48E
330
2
100
AcDbEntity
  8
0
100
AcDbPolyline
 90
        3
 70
   128
 43
0.0
 10
62.71511349180219
 20
-179.1074438706423
 10
62.70405456009758
 20
-179.1078396827365
 10
62.09957213425514
 20
-179.1074438706423
  0
ARC
  5
48F
330
2
100
AcDbEntity
  8
0
100
AcDbCircle
 10
78.40734081159758
 20
-170.6130173743154
 30
0.0
 40
7.000001364862755
100
AcDbArc
 50
324.97657735685
 51
35.02342264314998
  0
ARC
  5
490
330
2
100
AcDbEntity
  8
0
100
AcDbCircle
 10
-84.59265718697134
 20
-170.6130173743154
 30
0.0
 40
151.0
100
AcDbArc
 50
2.771361818915862
 51
2.992817011091405
  0
ARC
  5
491
330
2
100
AcDbEntity
  8
0
100
AcDbCircle
 10
-84.59265718697134
 20
-170.6130173743154
 30
0.0
 40
151.0
100
AcDbArc
 50
357.0071829889086
 51
357.2286381810841
  0
ARC
  5
492
330
2
100
AcDbEntity
  8
0
100
AcDbCircle
 10
65.73132240486552
 20
-177.8897721230378
 30
0.0
 40
0.5000000000000135
100
AcDbArc
 50
357.2286381810841
 51
114.5506471193427
  0
ARC
  5
493
330
2
100
AcDbEntity
  8
0
100
AcDbCircle
 10
65.73132240486552
 20
-163.3362626255934
 30
0.0
 40
0.4999999999999993
100
AcDbArc
 50
245.4493528806692
 51
2.771361818915862
  0
ARC
  5
494
330
2
100
AcDbEntity
  8
0
100
AcDbCircle
 10
62.40734281302867
 20
-170.6130173743154
 30
0.0
 40
17.5
100
AcDbArc
 50
66.67275811728967
 51
77.82288545554752
  0
ARC
  5
495
330
2
100
AcDbEntity
  8
0
100
AcDbCircle
 10
65.99322716677011
 20
-153.995513548482
 30
0.0
 40
0.5000000000000147
100
AcDbArc
 50
77.82288545554752
 51
186.2972436382469
  0
ARC
  5
496
330
2
100
AcDbEntity
  8
0
100
AcDbCircle
 10
62.40734281302867
 20
-170.6130173743154
 30
0.0
 40
17.49999999999997
100
AcDbArc
 50
282.1771145444525
 51
293.3272418827103
  0
ARC
  5
497
330
2
100
AcDbEntity
  8
0
100
AcDbCircle
 10
65.99322716677011
 20
-187.2305212001488
 30
0.0
 40
0.4999999999999992
100
AcDbArc
 50
173.702756361753
 51
282.1771145444525
  0
ARC
  5
498
330
2
100
AcDbEntity
  8
0
100
AcDbCircle
 10
66.70071015996746
 20
-162.7030871076035
 30
0.0
 40
0.5000000000000658
100
AcDbArc
 50
182.9928170112742
 51
241.5076892487809
  0
LWPOLYLINE
  5
499
330
2
100
AcDbEntity
  8
0
100
AcDbPolyline
 90
        3
 70
   128
 43
0.0
 10
65.49624409811077
 20
-187.1756785303737
 10
65.91111244918284
 20
-182.8447510242845
 10
66.20139219151315
 20
-178.4968427136923
  0
ARC
  5
49A
330
2
100
AcDbEntity
  8
0
100
AcDbCircle
 10
62.40734281302867
 20
-170.6130173743154
 30
0.0
 40
8.500000000000003
100
AcDbArc
 50
298.4923107512191
 51
61.50768924878095
  0
ARC
  5
49B
330
2
100
AcDbEntity
  8
0
100
AcDbCircle
 10
66.70071015996746
 20
-178.5229476410268
 30
0.0
 40
0.5000000000000147
100
AcDbArc
 50
118.492310751219
 51
177.0071829888825
  0
CIRCLE
  5
49C
330
2
100
AcDbEntity
  8
0
100
AcDbCircle
 10
-62.40734281302867
 20
-170.6130173743154
 30
0.0000000000000321
 40
7.500000000000014
210
0.0000000000000001
220
-0.0000000000000002
230
-1.0
  0
LWPOLYLINE
  5
49D
330
2
100
AcDbEntity
  8
0
100
AcDbPolyline
 90
        3
 70
   128
 43
0.0
 10
66.20139219151315
 20
-162.7291920349384
 10
65.91127566346404
 20
-158.3832916558171
 10
65.49624409811077
 20
-154.0503562182571
  0
ARC
  5
49E
330
2
100
AcDbEntity
  8
0
100
AcDbCircle
 10
55.47765890953225
 20
-186.6825314253756
 30
0.0
 40
34.99999411427487
100
AcDbArc
 50
35.02342852676099
 51
66.67276003528574
  0
ARC
  5
49F
330
2
100
AcDbEntity
  8
0
100
AcDbCircle
 10
55.47767147481978
 20
-154.5435187562507
 30
0.0
 40
34.99997496717082
100
AcDbArc
 50
293.3272310806014
 51
324.976580357335
  0
LWPOLYLINE
  5
4A0
330
2
100
AcDbEntity
  8
0
100
AcDbPolyline
 90
        3
 70
   128
 43
0.0
 10
75.75988127203164
 20
-183.6790661082054
 10
76.94846960069117
 20
-182.7848753646399
 10
78.04433452249941
 20
-181.7890484571839
  0
ARC
  5
4A1
330
2
100
AcDbEntity
  8
0
100
AcDbCircle
 10
62.73908313411698
 20
-171.1775477469937
 30
0.0
 40
17.34957608029171
100
AcDbArc
 50
293.2174226023181
 51
312.8706925137307
  0
LWPOLYLINE
  5
4A2
330
2
100
AcDbEntity
  8
0
100
AcDbPolyline
 90
        3
 70
   128
 43
0.0
 10
78.04433452249941
 20
-159.4369862914468
 10
76.96174374134717
 20
-158.452038162985
 10
75.75988127203164
 20
-157.5469686404253
  0
ARC
  5
4A3
330
2
100
AcDbEntity
  8
0
100
AcDbCircle
 10
62.7376844806579
 20
-170.0508611887207
 30
0.0
 40
17.35231292147322
100
AcDbArc
 50
47.05175407343981
 51
66.78203596037338
  0
ARC
  5
4A4
330
2
100
AcDbEntity
  8
0
100
AcDbCircle
 10
62.40734281302867
 20
-170.6130173743154
 30
0.0
 40
18.0
100
AcDbArc
 50
66.67275811728967
 51
293.3272418827103
  0
LINE
  5
4A5
330
2
100
AcDbEntity
  8
0
100
AcDbLine
 10
70.49391707689938
 20
-154.514821687379
 30
0.0
 11
69.53502130047855
 21
-154.0843699813272
 31
0.0
  0
LINE
  5
4A6
330
2
100
AcDbEntity
  8
0
100
AcDbLine
 10
69.53502130047855
 20
-187.1416647673036
 30
0.0
 11
70.49391707689938
 21
-186.7112130612517
 31
0.0
  0
ARC
  5
4A7
330
2
100
AcDbEntity
  8
0
100
AcDbCircle
 10
62.40734281302867
 20
-170.6130173743154
 30
0.0
 40
20.17472273075604
100
AcDbArc
 50
61.10299748788229
 51
298.8970025120937
  0
ARC
  5
4A8
330
2
100
AcDbEntity
  8
0
100
AcDbCircle
 10
59.4963769530009
 20
-175.6635667314603
 30
0.0
 40
26.00333575059295
100
AcDbArc
 50
41.09662568481664
 51
60.865225908734
  0
ARC
  5
4A9
330
2
100
AcDbEntity
  8
0
100
AcDbCircle
 10
55.47766035666337
 20
-186.6825295091667
 30
0.0
 40
35.49999144219542
100
AcDbArc
 50
55.15695588684662
 51
64.97629142957581
  0
ARC
  5
4AA
330
2
100
AcDbEntity
  8
0
100
AcDbCircle
 10
55.47772240380528
 20
-154.5436129974428
 30
0.0
 40
35.49986755363205
100
AcDbArc
 50
295.0236913944416
 51
304.843061289132
  0
ARC
  5
4AB
330
2
100
AcDbEntity
  8
0
100
AcDbCircle
 10
59.46224991188411
 20
-165.5203533059289
 30
0.0
 40
26.05673892164019
100
AcDbArc
 50
299.1552346699564
 51
318.8829137365031
  0
CIRCLE
  5
4AC
330
2
100
AcDbEntity
  8
0
100
AcDbCircle
 10
-62.40734281302867
 20
-170.6130173743154
 30
0.0
 40
24.0
210
0.0
220
0.0
230
-1.0
  0
LINE
  5
4AD
330
2
100
AcDbEntity
  8
0
100
AcDbLine
 10
61.40734276553121
 20
-178.0460518539334
 30
0.0
 11
61.40734276553121
 21
-178.2130175024654
 31
0.0
  0
LINE
  5
4AE
330
2
100
AcDbEntity
  8
0
100
AcDbLine
 10
61.40734276553121
 20
-163.0130172461654
 30
0.0
 11
61.40734276553121
 21
-163.1799828946973
 31
0.0
  0
LINE
  5
4AF
330
2
100
AcDbEntity
  8
0
100
AcDbLine
 10
63.40734286052612
 20
-163.1799828946973
 30
0.0
 11
63.40734286052612
 21
-163.0130172461654
 31
0.0
  0
LINE
  5
4B0
330
2
100
AcDbEntity
  8
0
100
AcDbLine
 10
63.40734286052612
 20
-178.2130175024654
 30
0.0
 11
63.40734286052612
 21
-178.0460518539334
 31
0.0
  0
LINE
  5
4B1
330
2
100
AcDbEntity
  8
0
100
AcDbLine
 10
58.70734281191108
 20
-64.14538475041855
 30
0.0
 11
58.89059705944237
 21
-64.14538475041855
 31
0.0
  0
LINE
  5
4B2
330
2
100
AcDbEntity
  8
0
100
AcDbLine
 10
58.89059705944237
 20
-64.14538475041855
 30
0.0
 11
59.42112449841079
 21
-64.14538475041855
 31
0.0
  0
LINE
  5
4B3
330
2
100
AcDbEntity
  8
0
100
AcDbLine
 10
58.89059705944237
 20
-64.14538475041855
 30
0.0
 11
57.85020543546853
 21
-65.14538491433132
 31
0.0
  0
LINE
  5
4B4
330
2
100
AcDbEntity
  8
0
100
AcDbLine
 10
65.39356112764654
 20
-64.14538475041855
 30
0.0
 11
65.92408856661496
 21
-64.14538475041855
 31
0.0
  0
LINE
  5
4B5
330
2
100
AcDbEntity
  8
0
100
AcDbLine
 10
65.92408856661496
 20
-64.14538475041855
 30
0.0
 11
66.10734281414625
 21
-64.14538475041855
 31
0.0
  0
LINE
  5
4B6
330
2
100
AcDbEntity
  8
0
100
AcDbLine
 10
66.9644801905888
 20
-65.14538491433132
 30
0.0
 11
65.92408856661496
 21
-64.14538475041855
 31
0.0
  0
LINE
  5
4B7
330
2
100
AcDbEntity
  8
0
100
AcDbLine
 10
59.42112449841079
 20
-64.14538475041855
 30
0.0
 11
61.25734278751043
 21
-64.14538475041855
 31
0.0
  0
LINE
  5
4B8
330
2
100
AcDbEntity
  8
0
100
AcDbLine
 10
59.42112449841079
 20
-64.14538475041855
 30
0.0
 11
59.42112449841079
 21
-72.64538521235454
 31
0.0
  0
LINE
  5
4B9
330
2
100
AcDbEntity
  8
0
100
AcDbLine
 10
63.5573428385469
 20
-64.14538475041855
 30
0.0
 11
65.39356112764654
 21
-64.14538475041855
 31
0.0
  0
LINE
  5
4BA
330
2
100
AcDbEntity
  8
0
100
AcDbLine
 10
65.39356112764654
 20
-64.14538475041855
 30
0.0
 11
65.39356112764654
 21
-72.64538521235454
 31
0.0
  0
LWPOLYLINE
  5
4BB
330
2
100
AcDbEntity
  8
0
100
AcDbPolyline
 90
        7
 70
   128
 43
0.0
 10
59.42112449841079
 20
-72.64538521235454
 10
59.40646711090085
 20
-72.79011087780464
 10
59.36614969098446
 20
-72.91794235175121
 10
59.30296923318383
 20
-73.02579695647228
 10
59.21387169794616
 20
-73.10884857838619
 10
59.09810993173596
 20
-73.14536946182716
 10
59.09562120498595
 20
-73.1453862256335
  0
LWPOLYLINE
  5
4BC
330
2
100
AcDbEntity
  8
0
100
AcDbPolyline
 90
        7
 70
   128
 43
0.0
 10
65.39356112764654
 20
-72.64538521235454
 10
65.40821851515648
 20
-72.79011087780464
 10
65.44853593507287
 20
-72.91794235175121
 10
65.5117163928735
 20
-73.02579695647228
 10
65.60081392811117
 20
-73.10884857838619
 10
65.71657569432137
 20
-73.14536946182716
 10
65.71906442107138
 20
-73.1453862256335
  0
LINE
  5
4BD
330
2
100
AcDbEntity
  8
0
100
AcDbLine
 10
67.10734274522838
 20
-65.14538491433132
 30
0.0
 11
66.9644801905888
 21
-65.14538491433132
 31
0.0
  0
LINE
  5
4BE
330
2
100
AcDbEntity
  8
0
100
AcDbLine
 10
66.9644801905888
 20
-65.14538491433132
 30
0.0
 11
66.9644801905888
 21
-72.64538521235454
 31
0.0
  0
LWPOLYLINE
  5
4BF
330
2
100
AcDbEntity
  8
0
100
AcDbPolyline
 90
        6
 70
   128
 43
0.0
 10
66.9644801905888
 20
-72.64538521235454
 10
66.95765219913301
 20
-72.8066697931813
 10
66.93715658323345
 20
-72.94974888031948
 10
66.90292954729375
 20
-73.06032108431327
 10
66.85503674955544
 20
-73.12797794406879
 10
66.80819494934258
 20
-73.1453862256335
  0
LINE
  5
4C0
330
2
100
AcDbEntity
  8
0
100
AcDbLine
 10
64.05734280408797
 20
-73.14538622563396
 30
0.0
 11
66.80819494934258
 21
-73.1453862256335
 31
0.0
  0
ARC
  5
4C1
330
2
100
AcDbEntity
  8
0
100
AcDbCircle
 10
64.05734470692983
 20
-72.64538435725217
 30
0.0
 40
0.5000018683851238
100
AcDbArc
 50
180.0
 51
269.9997819511925
  0
LINE
  5
4C2
330
2
100
AcDbEntity
  8
0
100
AcDbLine
 10
63.5573428385469
 20
-65.14538491433177
 30
0.0
 11
63.5573428385469
 21
-72.645385212355
 31
0.0
  0
LINE
  5
4C3
330
2
100
AcDbEntity
  8
0
100
AcDbLine
 10
61.25734278751043
 20
-65.14538491433177
 30
0.0
 11
61.25734278751043
 21
-72.645385212355
 31
0.0
  0
ARC
  5
4C4
330
2
100
AcDbEntity
  8
0
100
AcDbCircle
 10
60.75734200218335
 20
-72.64538544030756
 30
0.0
 40
0.5000007853270554
100
AcDbArc
 50
270.0000939404006
 51
0.0
  0
LINE
  5
4C5
330
2
100
AcDbEntity
  8
0
100
AcDbLine
 10
58.00649067671475
 20
-73.1453862256335
 30
0.0
 11
60.75734282196936
 21
-73.14538622563396
 31
0.0
  0
LWPOLYLINE
  5
4C6
330
2
100
AcDbEntity
  8
0
100
AcDbPolyline
 90
        6
 70
   128
 43
0.0
 10
58.00649067671475
 20
-73.1453862256335
 10
57.94631978781399
 20
-73.11546096866596
 10
57.89840137870488
 20
-73.02658113008011
 10
57.86737762676057
 20
-72.89370933835972
 10
57.85233304189024
 20
-72.73663992350567
 10
57.85020543546853
 20
-72.64538521235454
  0
LINE
  5
4C7
330
2
100
AcDbEntity
  8
0
100
AcDbLine
 10
57.85020543546853
 20
-65.14538491433132
 30
0.0
 11
57.85020543546853
 21
-72.64538521235454
 31
0.0
  0
LINE
  5
4C8
330
2
100
AcDbEntity
  8
0
100
AcDbLine
 10
57.85020543546853
 20
-65.14538491433132
 30
0.0
 11
57.70734288082895
 21
-65.14538491433132
 31
0.0
  0
LINE
  5
4C9
330
2
100
AcDbEntity
  8
0
100
AcDbLine
 10
61.25734278751043
 20
-65.14538491433177
 30
0.0
 11
61.25734278751043
 21
-64.145384750419
 31
0.0
  0
LINE
  5
4CA
330
2
100
AcDbEntity
  8
0
100
AcDbLine
 10
63.5573428385469
 20
-65.14538491433177
 30
0.0
 11
61.25734278751043
 21
-65.14538491433177
 31
0.0
  0
LINE
  5
4CB
330
2
100
AcDbEntity
  8
0
100
AcDbLine
 10
63.5573428385469
 20
-64.145384750419
 30
0.0
 11
63.5573428385469
 21
-65.14538491433177
 31
0.0
  0
LINE
  5
4CC
330
2
100
AcDbEntity
  8
0
100
AcDbLine
 10
61.25734278751043
 20
-64.145384750419
 30
0.0
 11
63.5573428385469
 21
-64.145384750419
 31
0.0
  0
LINE
  5
4CD
330
2
100
AcDbEntity
  8
0
100
AcDbLine
 10
64.66060187952098
 20
-94.87332978574249
 30
0.0
 11
64.653091228618
 21
-94.87423666109952
 31
0.0
  0
LINE
  5
4CE
330
2
100
AcDbEntity
  8
0
100
AcDbLine
 10
70.70388095737872
 20
-93.99440225502166
 30
0.0
 11
70.7331663957375
 21
-93.99061025874379
 31
0.0
  0
ARC
  5
4CF
330
2
100
AcDbEntity
  8
0
100
AcDbCircle
 10
71.24446033337972
 20
-80.1739316730077
 30
0.0
 40
13.82613570858476
100
AcDbArc
 50
267.8807045980051
 51
279.4424239600358
  0
LINE
  5
4D0
330
2
100
AcDbEntity
  8
0
100
AcDbLine
 10
45.40734188915667
 20
-76.14538485472667
 30
0.0
 11
79.40734373690066
 21
-76.14538485472667
 31
0.0
  0
LINE
  5
4D1
330
2
100
AcDbEntity
  8
0
100
AcDbLine
 10
84.11028432012972
 20
-87.1453857264446
 30
0.0
 11
40.70440130592761
 21
-87.1453857264446
 31
0.0
  0
LINE
  5
4D2
330
2
100
AcDbEntity
  8
0
100
AcDbLine
 10
38.40734260441241
 20
-78.14538518255222
 30
0.0
 11
86.40734302164492
 21
-78.14538518255222
 31
0.0
  0
LINE
  5
4D3
330
2
100
AcDbEntity
  8
0
100
AcDbLine
 10
38.40734260441241
 20
-79.14538534646499
 30
0.0
 11
86.40734302164492
 21
-79.14538534646499
 31
0.0
  0
LINE
  5
4D4
330
2
100
AcDbEntity
  8
0
100
AcDbLine
 10
58.70734281191108
 20
-64.14538475041855
 30
0.0
 11
57.70734288082895
 21
-65.14538491433132
 31
0.0
  0
LINE
  5
4D5
330
2
100
AcDbEntity
  8
0
100
AcDbLine
 10
67.10734274522838
 20
-65.14538491433132
 30
0.0
 11
66.10734281414625
 21
-64.14538475041855
 31
0.0
  0
LINE
  5
4D6
330
2
100
AcDbEntity
  8
0
100
AcDbLine
 10
57.70734288082895
 20
-65.14538491433132
 30
0.0
 11
57.70734288082895
 21
-76.14538485472667
 31
0.0
  0
LINE
  5
4D7
330
2
100
AcDbEntity
  8
0
100
AcDbLine
 10
67.10734274522838
 20
-76.14538485472667
 30
0.0
 11
67.10734274522838
 21
-65.14538491433132
 31
0.0
  0
LINE
  5
4D8
330
2
100
AcDbEntity
  8
0
100
AcDbLine
 10
65.15309107774374
 20
-94.37423681197378
 30
0.0
 11
65.15309107774374
 21
-93.99632089594069
 31
0.0
  0
ARC
  5
4D9
330
2
100
AcDbEntity
  8
0
100
AcDbCircle
 10
64.65309111234842
 20
-94.37423671258875
 30
0.0
 40
0.5
100
AcDbArc
 50
270.0
 51
0.0
  0
LINE
  5
4DA
330
2
100
AcDbEntity
  8
0
100
AcDbLine
 10
53.40734320045886
 20
-94.87423666109908
 30
0.0
 11
64.653091228618
 21
-94.87423666109952
 31
0.0
  0
ARC
  5
4DB
330
2
100
AcDbEntity
  8
0
100
AcDbCircle
 10
53.40734281302867
 20
-94.37423671258875
 30
0.0
 40
0.5
100
AcDbArc
 50
266.5486689304604
 51
270.0
  0
ARC
  5
4DC
330
2
100
AcDbEntity
  8
0
100
AcDbCircle
 10
62.40734281302867
 20
54.85461438531365
 30
0.0
 40
150.0
100
AcDbArc
 50
263.4706376357741
 51
266.5486689304604
  0
ARC
  5
4DD
330
2
100
AcDbEntity
  8
0
100
AcDbCircle
 10
45.40734281302866
 20
-93.67568555378966
 30
0.0
 40
0.5000000000000204
100
AcDbArc
 50
219.8866372070372
 51
263.4706376357741
  0
ARC
  5
4DE
330
2
100
AcDbEntity
  8
0
100
AcDbCircle
 10
85.10734047618871
 20
-93.11429930328268
 30
0.0
 40
0.3000023815447065
100
AcDbArc
 50
278.7219885636922
 51
0.0
  0
ARC
  5
4DF
330
2
100
AcDbEntity
  8
0
100
AcDbCircle
 10
83.90734032055958
 20
-92.21002787790803
 30
0.0
 40
1.500002537172855
100
AcDbArc
 50
0.0
 51
81.67544039750582
  0
LINE
  5
4E0
330
2
100
AcDbEntity
  8
0
100
AcDbLine
 10
85.40734285773215
 20
-93.12432310366649
 30
0.0
 11
85.40734285773215
 21
-92.19045869508637
 31
0.0
  0
ARC
  5
4E1
330
2
100
AcDbEntity
  8
0
100
AcDbCircle
 10
62.40734281302867
 20
54.85461438531411
 30
0.0
 40
150.0
100
AcDbArc
 50
267.3162732411539
 51
272.6837267588461
  0
ARC
  5
4E2
330
2
100
AcDbEntity
  8
0
100
AcDbCircle
 10
69.40734281302866
 20
-94.48141609628146
 30
0.0
 40
0.500000000000029
100
AcDbArc
 50
272.6837267587811
 51
308.2199766101934
  0
ARC
  5
4E3
330
2
100
AcDbEntity
  8
0
100
AcDbCircle
 10
55.40734281302867
 20
-94.48141609628146
 30
0.0
 40
0.500000000000029
100
AcDbArc
 50
231.7800233898066
 51
267.3162732412189
  0
ARC
  5
4E4
330
2
100
AcDbEntity
  8
0
100
AcDbCircle
 10
66.70071015996746
 20
-94.37423671258875
 30
0.0
 40
0.5000000000000223
100
AcDbArc
 50
225.4310901886548
 51
270.0
  0
LINE
  5
4E5
330
2
100
AcDbEntity
  8
0
100
AcDbLine
 10
66.70071007968363
 20
-94.87423666109952
 30
0.0
 11
71.40734242559847
 21
-94.87423666109908
 31
0.0
  0
ARC
  5
4E6
330
2
100
AcDbEntity
  8
0
100
AcDbCircle
 10
71.40734281302866
 20
-94.37423671258875
 30
0.0
 40
0.5000000000000103
100
AcDbArc
 50
270.0
 51
273.4513310695136
  0
LWPOLYLINE
  5
4E7
330
2
100
AcDbEntity
  8
0
100
AcDbPolyline
 90
        6
 70
   128
 43
0.0
 10
65.63772410438833
 20
-94.02772357975754
 10
65.70518352375803
 20
-94.09442187575313
 10
65.96726607815799
 20
-94.35315143605384
 10
66.18100949847576
 20
-94.56413208795401
 10
66.3463986507195
 20
-94.72753589329931
 10
66.34868970425305
 20
-94.72980226678464
  0
ARC
  5
4E8
330
2
100
AcDbEntity
  8
0
100
AcDbCircle
 10
62.40734281302867
 20
54.85461438531411
 30
0.0
 40
150.0
100
AcDbArc
 50
273.4513310695396
 51
278.7216636071192
  0
ARC
  5
4E9
330
2
100
AcDbEntity
  8
0
100
AcDbCircle
 10
65.99322716677011
 20
-93.67568555378966
 30
0.0
 40
0.5000000000000215
100
AcDbArc
 50
219.8866372070372
 51
225.296683434054
  0
ARC
  5
4EA
330
2
100
AcDbEntity
  8
0
100
AcDbCircle
 10
62.40734281302867
 20
-239.1453856146863
 30
0.0
 40
150.0
100
AcDbArc
 50
81.67569093664241
 51
82.27303885540738
  0
ARC
  5
4EB
330
2
100
AcDbEntity
  8
0
100
AcDbCircle
 10
83.03217266054412
 20
-89.86057223524904
 30
0.0
 40
0.5
100
AcDbArc
 50
270.0
 51
345.0000000000056
  0
ARC
  5
4EC
330
2
100
AcDbEntity
  8
0
100
AcDbCircle
 10
82.32971489567285
 20
-90.10394523262903
 30
0.0
 40
0.4999999999999793
100
AcDbArc
 50
289.6427710249806
 51
297.9402500767941
  0
LWPOLYLINE
  5
4ED
330
2
100
AcDbEntity
  8
0
100
AcDbPolyline
 90
        6
 70
   128
 43
0.0
 10
82.56213749112067
 20
-90.54637576741788
 10
82.70158069492755
 20
-90.47106832554254
 10
82.86036001802859
 20
-90.38959960275951
 10
82.9531085705894
 20
-90.34734503188747
 10
82.98703851462779
 20
-90.33475227011013
 10
82.98427434922633
 20
-90.33528195982444
  0
ARC
  5
4EE
330
2
100
AcDbEntity
  8
0
100
AcDbCircle
 10
90.74037444544774
 20
-112.2631151895675
 30
0.0
 40
23.20064220662995
100
AcDbArc
 50
110.8303880826385
 51
120.5691794890665
  0
LWPOLYLINE
  5
4EF
330
2
100
AcDbEntity
  8
0
100
AcDbPolyline
 90
        3
 70
   128
 43
0.0
 10
69.73209521086392
 20
-93.99604685427311
 10
70.09172449172911
 20
-93.99607013733747
 10
70.70385394902405
 20
-93.9934818754873
  0
LWPOLYLINE
  5
4F0
330
2
100
AcDbEntity
  8
0
100
AcDbPolyline
 90
        3
 70
   128
 43
0.0
 10
73.51247789622721
 20
-93.81101832082185
 10
74.21958456100401
 20
-93.72021914282504
 10
74.54127269150195
 20
-93.67566886180702
  0
ARC
  5
4F1
330
2
100
AcDbEntity
  8
0
100
AcDbCircle
 10
73.32978701785123
 20
-82.34683719041596
 30
0.0
 40
11.39342462019977
100
AcDbArc
 50
276.1039144397677
 51
299.4661352405103
  0
LINE
  5
4F2
330
2
100
AcDbEntity
  8
0
100
AcDbLine
 10
43.90734257461009
 20
-93.99632089594025
 30
0.0
 11
69.73301256359992
 21
-93.99632089594069
 31
0.0
  0
ARC
  5
4F3
330
2
100
AcDbEntity
  8
0
100
AcDbCircle
 10
43.90734281302867
 20
-93.49632089990791
 30
0.0
 40
0.5
100
AcDbArc
 50
262.8916657927419
 51
270.0
  0
ARC
  5
4F4
330
2
100
AcDbEntity
  8
0
100
AcDbCircle
 10
62.40734281302867
 20
54.8546143853232
 30
0.0
 40
150.0000000000092
100
AcDbArc
 50
262.4311511299481
 51
262.8916657927547
  0
ARC
  5
4F5
330
2
100
AcDbEntity
  8
0
100
AcDbCircle
 10
42.71558299541721
 20
-93.3428369938697
 30
0.0
 40
0.4999999999999976
100
AcDbArc
 50
194.9999999999944
 51
262.4311511299352
  0
LINE
  5
4F6
330
2
100
AcDbEntity
  8
0
100
AcDbLine
 10
83.51513566733775
 20
-89.98998177526164
 30
0.0
 11
84.2098836815494
 21
-87.39714922671783
 31
0.0
  0
LINE
  5
4F7
330
2
100
AcDbEntity
  8
0
100
AcDbLine
 10
40.60480194450793
 20
-87.39714922671783
 30
0.0
 11
42.23261969448504
 21
-93.47224647467601
 31
0.0
  0
ARC
  5
4F8
330
2
100
AcDbEntity
  8
0
100
AcDbCircle
 10
40.79798788759695
 20
-87.34538561468616
 30
0.0
 40
0.200000000000017
100
AcDbArc
 50
90.0
 51
195.000000000023
  0
ARC
  5
4F9
330
2
100
AcDbEntity
  8
0
100
AcDbCircle
 10
84.01669773846037
 20
-87.34538561468616
 30
0.0
 40
0.200000000000017
100
AcDbArc
 50
344.9999999999771
 51
90.0
  0
ARC
  5
4FA
330
2
100
AcDbEntity
  8
0
100
AcDbCircle
 10
45.40734281302866
 20
-76.64538561468635
 30
0.0
 40
0.5
100
AcDbArc
 50
90.0
 51
180.0
  0
ARC
  5
4FB
330
2
100
AcDbEntity
  8
0
100
AcDbCircle
 10
79.40734281302866
 20
-76.64538561468635
 30
0.0
 40
0.5
100
AcDbArc
 50
0.0
 51
90.0
  0
LINE
  5
4FC
330
2
100
AcDbEntity
  8
0
100
AcDbLine
 10
79.90734288753447
 20
-78.14538518255222
 30
0.0
 11
79.90734288753447
 21
-76.64538586800563
 31
0.0
  0
LINE
  5
4FD
330
2
100
AcDbEntity
  8
0
100
AcDbLine
 10
44.90734273852286
 20
-76.64538586800563
 30
0.0
 11
44.90734273852286
 21
-78.14538518255222
 31
0.0
  0
ARC
  5
4FE
330
2
100
AcDbEntity
  8
0
100
AcDbCircle
 10
84.1102838759839
 20
-86.94538561468608
 30
0.0
 40
0.2000000000000112
100
AcDbArc
 50
270.0
 51
345.0000000000056
  0
ARC
  5
4FF
330
2
100
AcDbEntity
  8
0
100
AcDbCircle
 10
40.70440175007344
 20
-86.94538561468608
 30
0.0
 40
0.1999999999999975
100
AcDbArc
 50
194.9999999999944
 51
270.0
  0
LINE
  5
500
330
2
100
AcDbEntity
  8
0
100
AcDbLine
 10
84.30346856178221
 20
-86.99714944054949
 30
0.0
 11
86.40734302164492
 21
-79.14538534646499
 31
0.0
  0
LINE
  5
501
330
2
100
AcDbEntity
  8
0
100
AcDbLine
 10
38.40734260441241
 20
-79.14538534646499
 30
0.0
 11
40.51121706427512
 21
-86.99714944054949
 31
0.0
  0
LINE
  5
502
330
2
100
AcDbEntity
  8
0
100
AcDbLine
 10
86.40734302164492
 20
-79.14538534646499
 30
0.0
 11
86.40734302164492
 21
-78.14538518255222
 31
0.0
  0
LINE
  5
503
330
2
100
AcDbEntity
  8
0
100
AcDbLine
 10
38.40734260441241
 20
-78.14538518255222
 30
0.0
 11
38.40734260441241
 21
-79.14538534646499
 31
0.0
  0
LINE
  5
5D0
330
2
100
AcDbEntity
  8
W
100
AcDbLine
 10
393.4000000000001
 20
-29.59999999999991
 30
0.0
 11
393.4000000000001
 21
-15.35425862108513
 31
0.0
  0
LINE
  5
5D1
330
2
100
AcDbEntity
  8
W
100
AcDbLine
 10
393.4000000000001
 20
-29.59999999999991
 30
0.0
 11
406.5874936504323
 21
-29.59999999999991
 31
0.0
  0
LINE
  5
5D2
330
2
100
AcDbEntity
  8
W
100
AcDbLine
 10
0.0000000000000071
 20
-309.0
 30
0.0
 11
0.0000000000000071
 21
-322.8733587202851
 31
0.0
  0
LINE
  5
5D3
330
2
100
AcDbEntity
  8
W
100
AcDbLine
 10
0.0000000000000071
 20
-309.0
 30
0.0
 11
-16.16275866951968
 21
-309.0
 31
0.0
  0
TEXT
  5
60F
330
2
100
AcDbEntity
  8
0
370
    30
100
AcDbText
 10
289.1999999999998
 20
-300.3
 30
0.0
 40
4.5
  1
STB060**-***
  7
OPNUS
100
AcDbText
  0
TEXT
  5
610
330
2
100
AcDbEntity
  8
0
370
    30
100
AcDbText
 10
288.5126947720435
 20
-291.1538670741099
 30
0.0
 40
3.0
  1
スウィングサムターン
 41
0.6
  7
OPNUS
100
AcDbText
  0
TEXT
  5
64E
330
2
100
AcDbEntity
  8
0
370
    30
100
AcDbText
 10
313.4932067703594
 20
-291.3
 30
0.0
 40
4.0
  1
パタンテ
 41
0.9
  7
OPNUS
100
AcDbText
  0
CIRCLE
  5
E2C
330
2
100
AcDbEntity
  8
0
 48
0.7
100
AcDbCircle
 10
326.4461981964539
 20
-137.5499999999999
 30
0.0
 40
2.75
  0
LINE
  5
E2D
330
2
100
AcDbEntity
  8
0
100
AcDbLine
 10
325.9302078128046
 20
-138.0659903836497
 30
0.0
 11
326.0299439790785
 21
-138.2915233367209
 31
0.0
  0
LINE
  5
E2E
330
2
100
AcDbEntity
  8
0
100
AcDbLine
 10
326.0409805464604
 20
-136.0037744078074
 30
0.0
 11
326.0299439790785
 21
-136.8084766632789
 31
0.0
  0
LINE
  5
E2F
330
2
100
AcDbEntity
  8
0
100
AcDbLine
 10
326.0299439790785
 20
-136.8084766632789
 30
0.0
 11
325.9302078128046
 21
-137.0340096163502
 31
0.0
  0
LINE
  5
E30
330
2
100
AcDbEntity
  8
0
100
AcDbLine
 10
325.9302078128046
 20
-137.0340096163502
 30
0.0
 11
325.7046748597329
 21
-137.1337457826246
 31
0.0
  0
LINE
  5
E31
330
2
100
AcDbEntity
  8
0
100
AcDbLine
 10
325.7046748597329
 20
-137.1337457826246
 30
0.0
 11
324.899972604261
 21
-137.1447823500059
 31
0.0
  0
ARC
  5
E32
330
2
100
AcDbEntity
  8
0
100
AcDbCircle
 10
326.4461981964539
 20
-137.5499999999999
 30
0.0
 40
1.598441405187397
100
AcDbArc
 50
165.3148061323648
 51
194.6851938676352
  0
LINE
  5
E33
330
2
100
AcDbEntity
  8
0
100
AcDbLine
 10
324.8999726042618
 20
-137.955217649994
 30
0.0
 11
325.7046748597329
 21
-137.9662542173753
 31
0.0
  0
LINE
  5
E34
330
2
100
AcDbEntity
  8
0
100
AcDbLine
 10
325.7046748597329
 20
-137.9662542173753
 30
0.0
 11
325.9302078128046
 21
-138.0659903836497
 31
0.0
  0
LINE
  5
E35
330
2
100
AcDbEntity
  8
0
100
AcDbLine
 10
326.0299439790785
 20
-138.2915233367209
 30
0.0
 11
326.0409805464604
 21
-139.0962255921925
 31
0.0
  0
ARC
  5
E36
330
2
100
AcDbEntity
  8
0
100
AcDbCircle
 10
326.4461981964539
 20
-137.5499999999999
 30
0.0
 40
1.598441405187406
100
AcDbArc
 50
255.314806132368
 51
284.685193867632
  0
LINE
  5
E37
330
2
100
AcDbEntity
  8
0
100
AcDbLine
 10
326.8514158464475
 20
-139.0962255921925
 30
0.0
 11
326.8624524138293
 21
-138.2915233367209
 31
0.0
  0
LINE
  5
E38
330
2
100
AcDbEntity
  8
0
100
AcDbLine
 10
326.8624524138293
 20
-138.2915233367209
 30
0.0
 11
326.9621885801032
 21
-138.0659903836497
 31
0.0
  0
LINE
  5
E39
330
2
100
AcDbEntity
  8
0
100
AcDbLine
 10
326.9621885801032
 20
-138.0659903836497
 30
0.0
 11
327.1877215331749
 21
-137.9662542173753
 31
0.0
  0
LINE
  5
E3A
330
2
100
AcDbEntity
  8
0
100
AcDbLine
 10
327.1877215331749
 20
-137.9662542173753
 30
0.0
 11
327.992423788646
 21
-137.955217649994
 31
0.0
  0
ARC
  5
E3B
330
2
100
AcDbEntity
  8
0
100
AcDbCircle
 10
326.4461981964539
 20
-137.5499999999999
 30
0.0
 40
1.598441405187409
100
AcDbArc
 50
345.3148061323648
 51
14.68519386763517
  0
LINE
  5
E3C
330
2
100
AcDbEntity
  8
0
100
AcDbLine
 10
327.992423788646
 20
-137.1447823500059
 30
0.0
 11
327.1877215331749
 21
-137.1337457826246
 31
0.0
  0
LINE
  5
E3D
330
2
100
AcDbEntity
  8
0
100
AcDbLine
 10
327.1877215331749
 20
-137.1337457826246
 30
0.0
 11
326.9621885801032
 21
-137.0340096163502
 31
0.0
  0
LINE
  5
E3E
330
2
100
AcDbEntity
  8
0
100
AcDbLine
 10
326.9621885801032
 20
-137.0340096163502
 30
0.0
 11
326.8624524138293
 21
-136.8084766632789
 31
0.0
  0
LINE
  5
E3F
330
2
100
AcDbEntity
  8
0
100
AcDbLine
 10
326.8624524138293
 20
-136.8084766632789
 30
0.0
 11
326.8514158464475
 21
-136.0037744078074
 31
0.0
  0
ARC
  5
E40
330
2
100
AcDbEntity
  8
0
100
AcDbCircle
 10
326.4461981964539
 20
-137.5499999999999
 30
0.0
 40
1.598441405187367
100
AcDbArc
 50
75.31480613236798
 51
104.685193867632
  0
ARC
  5
E41
330
2
100
AcDbEntity
  8
0
 48
0.7
100
AcDbCircle
 10
337.1961676817143
 20
-136.3419248918287
 30
0.0
 40
1.5
100
AcDbArc
 50
95.00000000002598
 51
171.8290845893069
  0
ARC
  5
E42
330
2
100
AcDbEntity
  8
0
 48
0.7
100
AcDbCircle
 10
337.1961676817143
 20
-138.7580751081711
 30
0.0
 40
1.5
100
AcDbArc
 50
188.1709154106931
 51
264.999999999974
  0
ARC
  5
E43
330
2
100
AcDbEntity
  8
0
 48
0.7
100
AcDbCircle
 10
345.6098799737417
 20
-137.5499999999999
 30
0.0
 40
10.0
100
AcDbArc
 50
171.8290845893069
 51
188.1709154106931
  0
LINE
  5
E44
330
2
100
AcDbEntity
  8
0
 48
0.7
100
AcDbLine
 10
337.6098799737399
 20
-134.7999999999999
 30
0.0
 11
337.0654340675926
 21
-134.8476328446911
 31
0.0
  0
LINE
  5
E45
330
2
100
AcDbEntity
  8
0
 48
0.7
100
AcDbLine
 10
337.6098799737417
 20
-140.2999999999999
 30
0.0
 11
337.0654340675926
 21
-140.2523671553088
 31
0.0
  0
LINE
  5
E46
330
2
100
AcDbEntity
  8
0
 48
0.7
100
AcDbLine
 10
337.6098799737417
 20
-140.2999999999999
 30
0.0
 11
337.6098799737399
 21
-134.7999999999999
 31
0.0
  0
ARC
  5
F48
330
2
100
AcDbEntity
  8
0
100
AcDbCircle
 10
325.5461981964538
 20
-153.0392250438282
 30
0.0
 40
0.4
100
AcDbArc
 50
0.000000000000007
 51
90.0
  0
LINE
  5
F49
330
2
100
AcDbEntity
  8
0
100
AcDbLine
 10
335.0791059737417
 20
-152.5592250438282
 30
0.0
 11
335.0791059737417
 21
-151.7192250438282
 31
0.0
  0
LINE
  5
F4A
330
2
100
AcDbEntity
  8
0
100
AcDbLine
 10
335.0791059737417
 20
-152.5592250438282
 30
0.0
 11
334.7193289737418
 21
-152.5592250438282
 31
0.0
  0
LINE
  5
F4B
330
2
100
AcDbEntity
  8
0
100
AcDbLine
 10
335.0791059737417
 20
-151.7192250438282
 30
0.0
 11
334.7193289737418
 21
-151.7192250438282
 31
0.0
  0
ARC
  5
F4C
330
2
100
AcDbEntity
  8
0
100
AcDbCircle
 10
344.0487689737417
 20
-152.1392250438282
 30
0.0
 40
9.338888999999999
100
AcDbArc
 50
154.6392330000002
 51
177.4223539999998
  0
ARC
  5
F4D
330
2
100
AcDbEntity
  8
0
100
AcDbCircle
 10
344.0487689737417
 20
-152.1392250438282
 30
0.0
 40
9.338888999999999
100
AcDbArc
 50
182.5776460000002
 51
205.3607669999998
  0
CIRCLE
  5
F4E
330
2
100
AcDbEntity
  8
0
100
AcDbCircle
 10
326.4461981964537
 20
-152.1392250438282
 30
0.0
 40
4.0
  0
LINE
  5
F4F
330
2
100
AcDbEntity
  8
0
100
AcDbLine
 10
329.0461981964538
 20
-152.6392250438282
 30
0.0
 11
329.0461981964538
 21
-151.6392250438282
 31
0.0
  0
LINE
  5
F50
330
2
100
AcDbEntity
  8
0
100
AcDbLine
 10
335.6098799737417
 20
-156.1392250438282
 30
0.0
 11
335.6098799737417
 21
-148.1392250438282
 31
0.0
  0
LINE
  5
F51
330
2
100
AcDbEntity
  8
0
100
AcDbLine
 10
335.6098799737417
 20
-148.1392250438282
 30
0.0
 11
335.9098799737417
 21
-148.1392250438282
 31
0.0
  0
LINE
  5
F52
330
2
100
AcDbEntity
  8
0
100
AcDbLine
 10
335.9098799737417
 20
-148.1392250438282
 30
0.0
 11
337.3598799737417
 21
-149.5892250438282
 31
0.0
  0
LINE
  5
F53
330
2
100
AcDbEntity
  8
0
100
AcDbLine
 10
335.9098799737417
 20
-156.1392250438282
 30
0.0
 11
337.3598799737417
 21
-154.6892250438282
 31
0.0
  0
LINE
  5
F54
330
2
100
AcDbEntity
  8
0
100
AcDbLine
 10
335.6098799737417
 20
-156.1392250438282
 30
0.0
 11
335.9098799737417
 21
-156.1392250438282
 31
0.0
  0
LINE
  5
F55
330
2
100
AcDbEntity
  8
0
100
AcDbLine
 10
335.9098799737417
 20
-156.1392250438282
 30
0.0
 11
335.9098799737417
 21
-148.1392250438282
 31
0.0
  0
LINE
  5
F56
330
2
100
AcDbEntity
  8
0
100
AcDbLine
 10
353.9098799737417
 20
-154.3892250438281
 30
0.0
 11
353.9098799737417
 21
-149.8892250438283
 31
0.0
  0
LINE
  5
F57
330
2
100
AcDbEntity
  8
0
100
AcDbLine
 10
353.6098799737417
 20
-154.6892250438282
 30
0.0
 11
353.9098799737417
 21
-154.3892250438281
 31
0.0
  0
LINE
  5
F58
330
2
100
AcDbEntity
  8
0
100
AcDbLine
 10
327.3461981964538
 20
-152.6392250438282
 30
0.0
 11
329.0461981964538
 21
-152.6392250438282
 31
0.0
  0
ARC
  5
F59
330
2
100
AcDbEntity
  8
0
100
AcDbCircle
 10
327.3461981964538
 20
-153.0392250438282
 30
0.0
 40
0.4
100
AcDbArc
 50
90.0
 51
180.0
  0
LINE
  5
F5A
330
2
100
AcDbEntity
  8
0
100
AcDbLine
 10
326.9461981964537
 20
-154.7392250438282
 30
0.0
 11
326.9461981964537
 21
-153.0392250438282
 31
0.0
  0
LINE
  5
F5B
330
2
100
AcDbEntity
  8
0
100
AcDbLine
 10
325.9461981964537
 20
-154.7392250438282
 30
0.0
 11
326.9461981964537
 21
-154.7392250438282
 31
0.0
  0
LINE
  5
F5C
330
2
100
AcDbEntity
  8
0
100
AcDbLine
 10
325.9461981964537
 20
-153.0392250438282
 30
0.0
 11
325.9461981964537
 21
-154.7392250438282
 31
0.0
  0
LINE
  5
F5D
330
2
100
AcDbEntity
  8
0
100
AcDbLine
 10
323.8461981964538
 20
-152.6392250438282
 30
0.0
 11
325.5461981964538
 21
-152.6392250438282
 31
0.0
  0
LINE
  5
F5E
330
2
100
AcDbEntity
  8
0
100
AcDbLine
 10
323.8461981964538
 20
-151.6392250438282
 30
0.0
 11
323.8461981964538
 21
-152.6392250438282
 31
0.0
  0
LINE
  5
F5F
330
2
100
AcDbEntity
  8
0
100
AcDbLine
 10
325.5461981964538
 20
-151.6392250438282
 30
0.0
 11
323.8461981964538
 21
-151.6392250438282
 31
0.0
  0
ARC
  5
F60
330
2
100
AcDbEntity
  8
0
100
AcDbCircle
 10
325.5461981964538
 20
-151.2392250438282
 30
0.0
 40
0.4
100
AcDbArc
 50
270.0
 51
0.000000000000007
  0
LINE
  5
F61
330
2
100
AcDbEntity
  8
0
100
AcDbLine
 10
325.9461981964537
 20
-149.5392250438282
 30
0.0
 11
325.9461981964537
 21
-151.2392250438282
 31
0.0
  0
LINE
  5
F62
330
2
100
AcDbEntity
  8
0
100
AcDbLine
 10
326.9461981964537
 20
-149.5392250438282
 30
0.0
 11
325.9461981964537
 21
-149.5392250438282
 31
0.0
  0
LINE
  5
F63
330
2
100
AcDbEntity
  8
0
100
AcDbLine
 10
326.9461981964537
 20
-151.2392250438282
 30
0.0
 11
326.9461981964537
 21
-149.5392250438282
 31
0.0
  0
ARC
  5
F64
330
2
100
AcDbEntity
  8
0
100
AcDbCircle
 10
327.3461981964538
 20
-151.2392250438282
 30
0.0
 40
0.4
100
AcDbArc
 50
180.0
 51
270.0
  0
LINE
  5
F65
330
2
100
AcDbEntity
  8
0
100
AcDbLine
 10
329.0461981964538
 20
-151.6392250438282
 30
0.0
 11
327.3461981964538
 21
-151.6392250438282
 31
0.0
  0
LINE
  5
F66
330
2
100
AcDbEntity
  8
0
100
AcDbLine
 10
327.5911981964537
 20
-152.6392250438282
 30
0.0
 11
327.5911981964537
 21
-151.6392250438282
 31
0.0
  0
LINE
  5
F67
330
2
100
AcDbEntity
  8
0
100
AcDbLine
 10
325.3011981964537
 20
-152.6392250438282
 30
0.0
 11
325.3011981964537
 21
-151.6392250438282
 31
0.0
  0
LINE
  5
F68
330
2
100
AcDbEntity
  8
0
100
AcDbLine
 10
326.9461981964537
 20
-150.9942250438282
 30
0.0
 11
325.9461981964537
 21
-150.9942250438282
 31
0.0
  0
LINE
  5
F69
330
2
100
AcDbEntity
  8
0
100
AcDbLine
 10
326.9461981964537
 20
-153.2842250438282
 30
0.0
 11
325.9461981964537
 21
-153.2842250438282
 31
0.0
  0
LINE
  5
F6A
330
2
100
AcDbEntity
  8
0
100
AcDbLine
 10
353.6098799737417
 20
-149.5892250438282
 30
0.0
 11
337.3598799737417
 21
-149.5892250438282
 31
0.0
  0
LINE
  5
F6B
330
2
100
AcDbEntity
  8
0
100
AcDbLine
 10
353.9098799737417
 20
-149.8892250438283
 30
0.0
 11
353.6098799737417
 21
-149.5892250438282
 31
0.0
  0
LINE
  5
F6C
330
2
100
AcDbEntity
  8
0
100
AcDbLine
 10
353.6098799737417
 20
-154.6892250438282
 30
0.0
 11
337.3598799737417
 21
-154.6892250438282
 31
0.0
  0
LINE
  5
F6D
330
2
100
AcDbEntity
  8
0
100
AcDbLine
 10
337.3598799737417
 20
-149.5892250438282
 30
0.0
 11
337.3598799737417
 21
-154.6892250438283
 31
0.0
  0
LINE
  5
F6E
330
2
100
AcDbEntity
  8
0
100
AcDbLine
 10
353.9098799737417
 20
-150.3892250438282
 30
0.0
 11
376.5598799737418
 21
-150.3892250438282
 31
0.0
  0
LINE
  5
F6F
330
2
100
AcDbEntity
  8
0
100
AcDbLine
 10
376.5598799737418
 20
-150.3892250438282
 30
0.0
 11
376.9098799737417
 21
-150.7392250438282
 31
0.0
  0
LINE
  5
F70
330
2
100
AcDbEntity
  8
0
100
AcDbLine
 10
353.9098799737417
 20
-153.8892250438282
 30
0.0
 11
376.5598799737418
 21
-153.8892250438282
 31
0.0
  0
LINE
  5
F71
330
2
100
AcDbEntity
  8
0
100
AcDbLine
 10
376.5598799737418
 20
-153.8892250438282
 30
0.0
 11
376.9098799737417
 21
-153.5392250438282
 31
0.0
  0
LINE
  5
F72
330
2
100
AcDbEntity
  8
0
100
AcDbLine
 10
376.9098799737417
 20
-150.7392250438282
 30
0.0
 11
376.9098799737417
 21
-153.5392250438282
 31
0.0
  0
LINE
  5
F73
330
2
100
AcDbEntity
  8
0
370
    -2
100
AcDbLine
 10
355.3036621910926
 20
-150.3892250438282
 30
0.0
 11
355.9098799737417
 21
-150.7392250438282
 31
0.0
  0
LINE
  5
F74
330
2
100
AcDbEntity
  8
0
370
    -2
100
AcDbLine
 10
355.9098799737417
 20
-150.7392250438282
 30
0.0
 11
376.9098799737417
 21
-150.7392250438282
 31
0.0
  0
LINE
  5
F75
330
2
100
AcDbEntity
  8
0
370
    -2
100
AcDbLine
 10
355.3036621910926
 20
-153.8892250438282
 30
0.0
 11
355.9098799737417
 21
-153.5392250438282
 31
0.0
  0
LINE
  5
F76
330
2
100
AcDbEntity
  8
0
370
    -2
100
AcDbLine
 10
355.9098799737417
 20
-153.5392250438282
 30
0.0
 11
376.9098799737417
 21
-153.5392250438282
 31
0.0
  0
LINE
  5
F77
330
2
100
AcDbEntity
  8
0
100
AcDbLine
 10
355.9098799737417
 20
-150.3892250438282
 30
0.0
 11
355.9098799737417
 21
-153.8892250438282
 31
0.0
  0
LINE
  5
F78
330
2
100
AcDbEntity
  8
0
100
AcDbLine
 10
376.5598799737418
 20
-150.3892250438282
 30
0.0
 11
376.5598799737418
 21
-153.8892250438282
 31
0.0
  0
LINE
  5
F79
330
2
100
AcDbEntity
  8
0
100
AcDbLine
 10
353.6098799737417
 20
-149.5892250438282
 30
0.0
 11
353.6098799737417
 21
-154.6892250438282
 31
0.0
  0
LINE
  5
11D5
330
2
100
AcDbEntity
  8
0
370
    15
100
AcDbLine
 10
62.40734281302867
 20
-195.6130173743158
 30
0.0
 11
62.40734281302867
 21
-211.0
 31
0.0
  0
ENDSEC
  0
SECTION
  2
OBJECTS
  0
DICTIONARY
  5
7
330
0
100
AcDbDictionary
281
     1
  3
ACAD_COLOR
350
29
  3
ACAD_GROUP
350
25
  3
ACAD_LAYOUT
350
B
  3
ACAD_MATERIAL
350
28
  3
ACAD_MLINESTYLE
350
26
  3
ACAD_PLOTSETTINGS
350
27
  3
ACAD_PLOTSTYLENAME
350
6
  3
ACAD_TABLESTYLE
350
EB6
  3
ACDBHEADERROUNDTRIPXREC
350
128E
  3
AcDbVariableDictionary
350
FC9
  0
DICTIONARY
  5
11
330
10
100
AcDbDictionary
280
     1
281
     1
  3
ACAD_LAYERFILTERS
360
12
  3
ACAD_LAYERSTATES
360
13
  0
DICTIONARY
  5
29
102
{ACAD_REACTORS
330
7
102
}
330
7
100
AcDbDictionary
281
     1
  0
DICTIONARY
  5
25
102
{ACAD_REACTORS
330
7
102
}
330
7
100
AcDbDictionary
281
     1
  3
*A1
350
E62
  3
*A2
350
E63
  0
DICTIONARY
  5
B
102
{ACAD_REACTORS
330
7
102
}
330
7
100
AcDbDictionary
281
     1
  3
Model
350
A
  3
レイアウト1
350
F
  0
DICTIONARY
  5
28
102
{ACAD_REACTORS
330
7
102
}
330
7
100
AcDbDictionary
281
     1
  0
DICTIONARY
  5
26
102
{ACAD_REACTORS
330
7
102
}
330
7
100
AcDbDictionary
281
     1
  3
Standard
350
2B
  0
DICTIONARY
  5
27
102
{ACAD_REACTORS
330
7
102
}
330
7
100
AcDbDictionary
281
     1
  0
ACDBDICTIONARYWDFLT
  5
6
102
{ACAD_REACTORS
330
7
102
}
330
7
100
AcDbDictionary
281
     1
  3
Normal
350
5
100
AcDbDictionaryWithDefault
340
5
  0
DICTIONARY
  5
EB6
102
{ACAD_REACTORS
330
7
102
}
330
7
100
AcDbDictionary
281
     1
  3
Standard
350
EB7
  0
DICTIONARY
  5
128E
102
{ACAD_REACTORS
330
7
102
}
330
7
100
AcDbDictionary
281
     1
  3
COLORDICT
350
1290
  3
MATERIALDICT
350
128F
  0
DICTIONARY
  5
FC9
102
{ACAD_REACTORS
330
7
102
}
330
7
100
AcDbDictionary
281
     1
  3
CTABLESTYLE
350
FCA
  3
DIMASSOC
350
128B
  3
HIDETEXT
350
128A
  3
PROJECTNAME
350
128C
  0
DICTIONARY
  5
12
102
{ACAD_REACTORS
330
11
102
}
330
11
100
AcDbDictionary
281
     1
  0
DICTIONARY
  5
13
102
{ACAD_REACTORS
330
11
102
}
330
11
100
AcDbDictionary
281
     1
  3
OPNUS
350
E64
  0
GROUP
  5
E62
102
{ACAD_REACTORS
330
25
102
}
330
25
100
AcDbGroup
300

 70
     1
 71
     1
  0
GROUP
  5
E63
102
{ACAD_REACTORS
330
25
102
}
330
25
100
AcDbGroup
300

 70
     3
 71
     1
340
E9B
340
E9A
340
E99
340
E98
340
E97
340
E96
340
E95
340
E94
340
E93
340
E92
340
E91
340
E90
340
E8F
340
E8E
340
E8D
340
E8C
340
E8B
340
E8A
340
E89
340
E88
340
E87
340
E86
340
E85
340
E84
340
E83
340
E82
340
E81
340
E80
340
E7F
340
E7E
340
E7D
340
E7C
340
E7B
340
E7A
340
E79
340
E78
340
E77
340
E76
340
E75
340
E74
340
E73
340
E72
340
E71
340
E70
340
E6F
340
E6E
340
E6D
340
E6C
340
E6B
340
E6A
340
E69
340
E68
340
E67
340
E66
  0
LAYOUT
  5
A
102
{ACAD_XDICTIONARY
360
1291
102
}
102
{ACAD_REACTORS
330
B
102
}
330
B
100
AcDbPlotSettings
  1

  2
Adobe PDF
  4
A4
  6

 40
3.174999952316284
 41
3.174999952316284
 42
3.175003051757812
 43
3.17498779296875
 44
209.9098358154297
 45
297.0318298339844
 46
0.0
 47
1.889999999999999
 48
-0.1270779152766863
 49
-308.8960637427905
140
393.491659149699
141
-29.6163884129943
142
1.0
143
1.371978309633473
 70
 11956
 72
     1
 73
     1
 74
     4
  7
monochrome.ctb
 75
     0
147
0.7288744967601942
148
0.1270779152766863
149
308.8960637427905
100
AcDbLayout
  1
Model
 70
     1
 71
     0
 10
0.0
 20
0.0
 11
12.0
 21
9.0
 12
0.0
 22
0.0
 32
0.0
 14
0.0
 24
0.0
 34
0.0
 15
0.0
 25
0.0
 35
0.0
146
0.0
 13
0.0
 23
0.0
 33
0.0
 16
1.0
 26
0.0
 36
0.0
 17
0.0
 27
1.0
 37
0.0
 76
     0
330
2
  0
LAYOUT
  5
F
102
{ACAD_XDICTIONARY
360
1293
102
}
102
{ACAD_REACTORS
330
B
102
}
330
B
100
AcDbPlotSettings
  1

  2
None
  4

  6

 40
0.0
 41
0.0
 42
0.0
 43
0.0
 44
0.0
 45
0.0
 46
0.0
 47
0.0
 48
0.0
 49
0.0
140
0.0
141
0.0
142
1.0
143
1.0
 70
   688
 72
     0
 73
     0
 74
     5
  7
monochrome.ctb
 75
    16
147
1.0
148
0.0
149
0.0
100
AcDbLayout
  1
レイアウト1
 70
     1
 71
     1
 10
0.0
 20
0.0
 11
12.0
 21
9.0
 12
0.0
 22
0.0
 32
0.0
 14
0.0
 24
0.0
 34
0.0
 15
0.0
 25
0.0
 35
0.0
146
0.0
 13
0.0
 23
0.0
 33
0.0
 16
1.0
 26
0.0
 36
0.0
 17
0.0
 27
1.0
 37
0.0
 76
     0
330
C
  0
MLINESTYLE
  5
2B
102
{ACAD_REACTORS
330
26
102
}
330
26
100
AcDbMlineStyle
  2
STANDARD
 70
     0
  3

 62
   256
 51
90.0
 52
90.0
 71
     2
 49
0.5
 62
   256
  6
BYLAYER
 49
-0.5
 62
   256
  6
BYLAYER
  0
ACDBPLACEHOLDER
  5
5
102
{ACAD_REACTORS
330
6
102
}
330
6
  0
ACAD_PROXY_OBJECT
  5
EB7
102
{ACAD_REACTORS
330
EB6
102
}
330
EB6
100
AcDbProxyObject
 90
      499
 91
      505
 95
  2555929
 70
     0
 93
     1849
310
4214DD185B99185C992420000000000000F83F0000000000003E0FC00000000000004901028000000C1008070000C3001FDFF8000000C1003FBFF000000182007F7FE00000030400FEFFC00000060801FDFF8000000C1003FBFF000000182000000000000000C2020B0000001820100E000186003FBFF000000182007F7FE0
310
0000030400FEFFC00000060801FDFF8000000C1003FBFF000000182007F7FE0000003040000000000000012404160000003040201C00030C007F7FE00000030400FEFFC00000060801FDFF8000000C1003FBFF000000182007F7FE00000030400FEFFC000000608020
340
15
340
15
340
15
 94
        0
1001
ACAD
1000
AcRTDxfName
1000
TABLESTYLE
  0
XRECORD
  5
1290
102
{ACAD_REACTORS
330
128E
102
}
330
128E
100
AcDbXrecord
280
     1
340
29
  0
XRECORD
  5
128F
102
{ACAD_REACTORS
330
128E
102
}
330
128E
100
AcDbXrecord
280
     1
340
28
  0
DICTIONARYVAR
  5
FCA
102
{ACAD_REACTORS
330
FC9
102
}
330
FC9
100
DictionaryVariables
280
     0
  1
STANDARD
  0
DICTIONARYVAR
  5
128B
102
{ACAD_REACTORS
330
FC9
102
}
330
FC9
100
DictionaryVariables
280
     0
  1
2
  0
DICTIONARYVAR
  5
128A
102
{ACAD_REACTORS
330
FC9
102
}
330
FC9
100
DictionaryVariables
280
     0
  1
1
  0
DICTIONARYVAR
  5
128C
102
{ACAD_REACTORS
330
FC9
102
}
330
FC9
100
DictionaryVariables
280
     0
  1

  0
XRECORD
  5
E64
102
{ACAD_REACTORS
330
13
102
}
330
13
100
AcDbXrecord
280
     1
 91
       16
330
0
 90
        8
 62
     7
370
    15
331
8
  1
色_7
330
0
 90
        8
 62
     6
370
    15
331
8
  1
色_6
330
0
 90
        8
 62
     5
370
    15
331
8
  1
色_5
330
63F
 90
        8
 62
     4
370
    30
331
8
  1
色_4
330
0
 90
        8
 62
     3
370
    30
331
8
  1
色_3
330
0
 90
        8
 62
     2
370
    30
331
8
  1
色_2
330
0
 90
        8
 62
     1
370
    30
331
8
  1
色_1
330
4
 90
        8
 62
     7
370
    30
331
8
  1
色_7
  0
DICTIONARY
  5
1291
330
A
100
AcDbDictionary
280
     1
281
     1
  3
ACAD_XREC_ROUNDTRIP
360
1292
  0
DICTIONARY
  5
1293
330
F
100
AcDbDictionary
280
     1
281
     1
  3
ACAD_XREC_ROUNDTRIP
360
1294
  0
XRECORD
  5
1292
102
{ACAD_REACTORS
330
1291
102
}
330
1291
100
AcDbXrecord
280
     1
102
SHADEPLOT
 70
     0
102
SHADEPLOTRESLEVEL
 70
     2
102
SHADEPLOTCUSTOMDPI
 70
   300
  0
XRECORD
  5
1294
102
{ACAD_REACTORS
330
1293
102
}
330
1293
100
AcDbXrecord
280
     1
102
SHADEPLOT
 70
     0
102
SHADEPLOTRESLEVEL
 70
     2
102
SHADEPLOTCUSTOMDPI
 70
   300
  0
ENDSEC
  0
EOF
