  0
SECTION
  2
HEADER
  9
$ACADVER
  1
AC1015
  9
$ACADMAINTVER
 70
    20
  9
$DWGCODEPAGE
  3
ANSI_932
  9
$INSBASE
 10
1584.0
 20
1497.0
 30
0.0
  9
$EXTMIN
 10
1567.746981340344
 20
1483.126503861489
 30
-0.0000000000112498
  9
$EXTMAX
 10
1990.71942105542
 20
1790.665260648416
 30
0.0000000000002956
  9
$LIMMIN
 10
0.0
 20
0.0
  9
$LIMMAX
 10
12.0
 20
9.0
  9
$ORTHOMODE
 70
     0
  9
$REGENMODE
 70
     1
  9
$FILLMODE
 70
     1
  9
$QTEXTMODE
 70
     0
  9
$MIRRTEXT
 70
     0
  9
$LTSCALE
 40
1.0
  9
$ATTMODE
 70
     1
  9
$TEXTSIZE
 40
3.0
  9
$TRACEWID
 40
0.05
  9
$TEXTSTYLE
  7
OPNUS
  9
$CLAYER
  8
S
  9
$CELTYPE
  6
ByLayer
  9
$CECOLOR
 62
   256
  9
$CELTSCALE
 40
1.0
  9
$DISPSILH
 70
     0
  9
$DIMSCALE
 40
1.0
  9
$DIMASZ
 40
3.0
  9
$DIMEXO
 40
1.0
  9
$DIMDLI
 40
6.0
  9
$DIMRND
 40
0.0
  9
$DIMDLE
 40
0.0
  9
$DIMEXE
 40
1.0
  9
$DIMTP
 40
0.1
  9
$DIMTM
 40
0.0
  9
$DIMTXT
 40
3.0
  9
$DIMCEN
 40
0.0
  9
$DIMTSZ
 40
0.0
  9
$DIMTOL
 70
     0
  9
$DIMLIM
 70
     0
  9
$DIMTIH
 70
     0
  9
$DIMTOH
 70
     0
  9
$DIMSE1
 70
     0
  9
$DIMSE2
 70
     0
  9
$DIMTAD
 70
     1
  9
$DIMZIN
 70
     8
  9
$DIMBLK
  1

  9
$DIMASO
 70
     1
  9
$DIMSHO
 70
     1
  9
$DIMPOST
  1

  9
$DIMAPOST
  1

  9
$DIMALT
 70
     0
  9
$DIMALTD
 70
     2
  9
$DIMALTF
 40
25.4
  9
$DIMLFAC
 40
1.0
  9
$DIMTOFL
 70
     1
  9
$DIMTVP
 40
0.0
  9
$DIMTIX
 70
     0
  9
$DIMSOXD
 70
     0
  9
$DIMSAH
 70
     0
  9
$DIMBLK1
  1

  9
$DIMBLK2
  1

  9
$DIMSTYLE
  2
AMLT_1
  9
$DIMCLRD
 70
     6
  9
$DIMCLRE
 70
     6
  9
$DIMCLRT
 70
     2
  9
$DIMTFAC
 40
0.6
  9
$DIMGAP
 40
0.5
  9
$DIMJUST
 70
     0
  9
$DIMSD1
 70
     0
  9
$DIMSD2
 70
     0
  9
$DIMTOLJ
 70
     1
  9
$DIMTZIN
 70
     8
  9
$DIMALTZ
 70
     0
  9
$DIMALTTZ
 70
     0
  9
$DIMUPT
 70
     0
  9
$DIMDEC
 70
     2
  9
$DIMTDEC
 70
     2
  9
$DIMALTU
 70
     2
  9
$DIMALTTD
 70
     2
  9
$DIMTXSTY
  7
OPNUS
  9
$DIMAUNIT
 70
     0
  9
$DIMADEC
 70
     2
  9
$DIMALTRND
 40
0.0
  9
$DIMAZIN
 70
     2
  9
$DIMDSEP
 70
    46
  9
$DIMATFIT
 70
     3
  9
$DIMFRAC
 70
     0
  9
$DIMLDRBLK
  1

  9
$DIMLUNIT
 70
     2
  9
$DIMLWD
 70
    15
  9
$DIMLWE
 70
    15
  9
$DIMTMOVE
 70
     0
  9
$LUNITS
 70
     2
  9
$LUPREC
 70
     4
  9
$SKETCHINC
 40
0.1
  9
$FILLETRAD
 40
0.0
  9
$AUNITS
 70
     0
  9
$AUPREC
 70
     0
  9
$MENU
  1
.
  9
$ELEVATION
 40
0.0
  9
$PELEVATION
 40
0.0
  9
$THICKNESS
 40
0.0
  9
$LIMCHECK
 70
     0
  9
$CHAMFERA
 40
0.0
  9
$CHAMFERB
 40
0.0
  9
$CHAMFERC
 40
0.0
  9
$CHAMFERD
 40
0.0
  9
$SKPOLY
 70
     0
  9
$TDCREATE
 40
2453317.930412419
  9
$TDUCREATE
 40
2453317.555412419
  9
$TDUPDATE
 40
2455143.595139248
  9
$TDUUPDATE
 40
2455143.220139248
  9
$TDINDWG
 40
-203.3085947801
  9
$TDUSRTIMER
 40
-203.3085948958
  9
$USRTIMER
 70
     1
  9
$ANGBASE
 50
0.0
  9
$ANGDIR
 70
     0
  9
$PDMODE
 70
     0
  9
$PDSIZE
 40
0.0
  9
$PLINEWID
 40
0.0
  9
$SPLFRAME
 70
     0
  9
$SPLINETYPE
 70
     6
  9
$SPLINESEGS
 70
     8
  9
$HANDSEED
  5
1083
  9
$SURFTAB1
 70
     6
  9
$SURFTAB2
 70
     6
  9
$SURFTYPE
 70
     6
  9
$SURFU
 70
     6
  9
$SURFV
 70
     6
  9
$UCSBASE
  2

  9
$UCSNAME
  2

  9
$UCSORG
 10
0.0
 20
0.0
 30
0.0
  9
$UCSXDIR
 10
1.0
 20
0.0
 30
0.0
  9
$UCSYDIR
 10
0.0
 20
1.0
 30
0.0
  9
$UCSORTHOREF
  2

  9
$UCSORTHOVIEW
 70
     0
  9
$UCSORGTOP
 10
0.0
 20
0.0
 30
0.0
  9
$UCSORGBOTTOM
 10
0.0
 20
0.0
 30
0.0
  9
$UCSORGLEFT
 10
0.0
 20
0.0
 30
0.0
  9
$UCSORGRIGHT
 10
0.0
 20
0.0
 30
0.0
  9
$UCSORGFRONT
 10
0.0
 20
0.0
 30
0.0
  9
$UCSORGBACK
 10
0.0
 20
0.0
 30
0.0
  9
$PUCSBASE
  2

  9
$PUCSNAME
  2

  9
$PUCSORG
 10
0.0
 20
0.0
 30
0.0
  9
$PUCSXDIR
 10
1.0
 20
0.0
 30
0.0
  9
$PUCSYDIR
 10
0.0
 20
1.0
 30
0.0
  9
$PUCSORTHOREF
  2

  9
$PUCSORTHOVIEW
 70
     0
  9
$PUCSORGTOP
 10
0.0
 20
0.0
 30
0.0
  9
$PUCSORGBOTTOM
 10
0.0
 20
0.0
 30
0.0
  9
$PUCSORGLEFT
 10
0.0
 20
0.0
 30
0.0
  9
$PUCSORGRIGHT
 10
0.0
 20
0.0
 30
0.0
  9
$PUCSORGFRONT
 10
0.0
 20
0.0
 30
0.0
  9
$PUCSORGBACK
 10
0.0
 20
0.0
 30
0.0
  9
$USERI1
 70
     0
  9
$USERI2
 70
     0
  9
$USERI3
 70
     0
  9
$USERI4
 70
     0
  9
$USERI5
 70
     0
  9
$USERR1
 40
0.0
  9
$USERR2
 40
0.0
  9
$USERR3
 40
0.0
  9
$USERR4
 40
2.0
  9
$USERR5
 40
1.0
  9
$WORLDVIEW
 70
     1
  9
$SHADEDGE
 70
     3
  9
$SHADEDIF
 70
    70
  9
$TILEMODE
 70
     1
  9
$MAXACTVP
 70
    64
  9
$PINSBASE
 10
0.0
 20
0.0
 30
0.0
  9
$PLIMCHECK
 70
     0
  9
$PEXTMIN
 10
1.000000000000000E+20
 20
1.000000000000000E+20
 30
1.000000000000000E+20
  9
$PEXTMAX
 10
-1.000000000000000E+20
 20
-1.000000000000000E+20
 30
-1.000000000000000E+20
  9
$PLIMMIN
 10
0.0
 20
0.0
  9
$PLIMMAX
 10
12.0
 20
9.0
  9
$UNITMODE
 70
     0
  9
$VISRETAIN
 70
     1
  9
$PLINEGEN
 70
     0
  9
$PSLTSCALE
 70
     1
  9
$TREEDEPTH
 70
  3020
  9
$CMLSTYLE
  2
Standard
  9
$CMLJUST
 70
     0
  9
$CMLSCALE
 40
1.0
  9
$PROXYGRAPHICS
 70
     1
  9
$MEASUREMENT
 70
     1
  9
$CELWEIGHT
370
    -1
  9
$ENDCAPS
280
     0
  9
$JOINSTYLE
280
     0
  9
$LWDISPLAY
290
     0
  9
$INSUNITS
 70
     1
  9
$HYPERLINKBASE
  1

  9
$STYLESHEET
  1
monochrome.ctb
  9
$XEDIT
290
     1
  9
$CEPSNTYPE
380
     0
  9
$PSTYLEMODE
290
     1
  9
$FINGERPRINTGUID
  2
{FDEAD576-A652-11D2-9A35-0060089B3A3F}
  9
$VERSIONGUID
  2
{983FC590-3956-4809-B5EB-AB940DD28809}
  9
$EXTNAMES
290
     1
  9
$PSVPSCALE
 40
0.0
  9
$OLESTARTUP
290
     0
  0
ENDSEC
  0
SECTION
  2
CLASSES
  0
CLASS
  1
ACDBDICTIONARYWDFLT
  2
AcDbDictionaryWithDefault
  3
ObjectDBX Classes
 90
        0
280
     0
281
     0
  0
CLASS
  1
ACDBPLACEHOLDER
  2
AcDbPlaceHolder
  3
ObjectDBX Classes
 90
        0
280
     0
281
     0
  0
CLASS
  1
LAYOUT
  2
AcDbLayout
  3
ObjectDBX Classes
 90
        0
280
     0
281
     0
  0
CLASS
  1
DICTIONARYVAR
  2
AcDbDictionaryVar
  3
ObjectDBX Classes
 90
        0
280
     0
281
     0
  0
CLASS
  1
DIMASSOC
  2
AcDbDimAssoc
  3
"AcDbDimAssoc|Product Desc:     AcDim ARX App For Dimension|Company:          Autodesk, Inc.|WEB Address:      www.autodesk.com"
 90
        0
280
     0
281
     0
  0
ENDSEC
  0
SECTION
  2
TABLES
  0
TABLE
  2
VPORT
  5
1D
330
0
100
AcDbSymbolTable
 70
     4
  0
VPORT
  5
107B
330
1D
100
AcDbSymbolTableRecord
100
AcDbViewportTableRecord
  2
*Active
 70
     0
 10
0.0
 20
0.0
 11
1.0
 21
1.0
 12
1879.234142485637
 22
1640.005171808512
 13
0.0
 23
0.0
 14
3.0
 24
3.0
 15
0.5
 25
0.5
 16
0.0
 26
0.0
 36
1.0
 17
0.0
 27
0.0
 37
0.0
 40
378.7861349103903
 41
2.050420168067226
 42
50.0
 43
0.0
 44
0.0
 50
0.0
 51
0.0
 71
     0
 72
  1000
 73
     1
 74
     3
 75
     0
 76
     0
 77
     0
 78
     0
281
     0
 65
     1
110
0.0
120
0.0
130
0.0
111
1.0
121
0.0
131
0.0
112
0.0
122
1.0
132
0.0
 79
     0
146
0.0
  0
ENDTAB
  0
TABLE
  2
LTYPE
  5
18
330
0
100
AcDbSymbolTable
 70
     4
  0
LTYPE
  5
19
330
18
100
AcDbSymbolTableRecord
100
AcDbLinetypeTableRecord
  2
ByBlock
 70
     0
  3

 72
    65
 73
     0
 40
0.0
  0
LTYPE
  5
1A
330
18
100
AcDbSymbolTableRecord
100
AcDbLinetypeTableRecord
  2
ByLayer
 70
     0
  3

 72
    65
 73
     0
 40
0.0
  0
LTYPE
  5
8
330
18
100
AcDbSymbolTableRecord
100
AcDbLinetypeTableRecord
  2
Continuous
 70
     0
  3
Solid line
 72
    65
 73
     0
 40
0.0
  0
LTYPE
  5
AA
330
18
100
AcDbSymbolTableRecord
100
AcDbLinetypeTableRecord
  2
CENTER
 70
     0
  3
Center ____ _ ____ _ ____ _ ____ _ ____ _ ____
 72
    65
 73
     4
 40
50.8
 49
31.75
 74
     0
 49
-6.349999999999999
 74
     0
 49
6.349999999999999
 74
     0
 49
-6.349999999999999
 74
     0
  0
LTYPE
  5
1BD
330
18
100
AcDbSymbolTableRecord
100
AcDbLinetypeTableRecord
  2
HIDDEN2
 70
     0
  3
Hidden (.5x) _ _ _ _ _ _ _ _ _ _ _ _ _ _ _ _ _
 72
    65
 73
     2
 40
4.762499999999999
 49
3.174999999999999
 74
     0
 49
-1.587499999999999
 74
     0
  0
LTYPE
  5
388
330
18
100
AcDbSymbolTableRecord
100
AcDbLinetypeTableRecord
  2
HIDDENX2
 70
     0
  3
Hidden (2x) ____ ____ ____ ____ ____ ____ ____
 72
    65
 73
     2
 40
19.05
 49
12.7
 74
     0
 49
-6.349999999999999
 74
     0
  0
ENDTAB
  0
TABLE
  2
LAYER
  5
10
102
{ACAD_XDICTIONARY
360
11
102
}
330
0
100
AcDbSymbolTable
 70
     8
  0
LAYER
  5
4
330
10
100
AcDbSymbolTableRecord
100
AcDbLayerTableRecord
  2
0
 70
     0
 62
     7
  6
Continuous
370
    15
390
5
  0
LAYER
  5
2B
330
10
100
AcDbSymbolTableRecord
100
AcDbLayerTableRecord
  2
S
 70
     0
 62
     6
  6
Continuous
370
    15
390
5
  0
LAYER
  5
A9
330
10
100
AcDbSymbolTableRecord
100
AcDbLayerTableRecord
  2
T
 70
     0
 62
     5
  6
CENTER
370
    15
390
5
  0
LAYER
  5
2E
330
10
100
AcDbSymbolTableRecord
100
AcDbLayerTableRecord
  2
W
 70
     0
 62
     7
  6
Continuous
370
    15
390
5
  0
LAYER
  5
A0
330
10
100
AcDbSymbolTableRecord
100
AcDbLayerTableRecord
  2
DEFPOINTS
 70
     0
 62
     7
  6
Continuous
290
     0
370
    -3
390
5
  0
ENDTAB
  0
TABLE
  2
STYLE
  5
14
330
0
100
AcDbSymbolTable
 70
     3
  0
STYLE
  5
15
330
14
100
AcDbSymbolTableRecord
100
AcDbTextStyleTableRecord
  2
Standard
 70
     0
 40
0.0
 41
1.0
 50
0.0
 71
     0
 42
0.2
  3
MS Mincho.ttf
  4

1001
ACAD
1000
MS Mincho
1071
    32785
  0
STYLE
  5
22
330
14
100
AcDbSymbolTableRecord
100
AcDbTextStyleTableRecord
  2
OPNUS
 70
     0
 40
0.0
 41
1.0
 50
0.0
 71
     0
 42
3.0
  3
MS PGothic.ttf
  4

1001
ACAD
1000
MS PGothic
1071
    32818
  0
ENDTAB
  0
TABLE
  2
VIEW
  5
1B
330
0
100
AcDbSymbolTable
 70
     0
  0
ENDTAB
  0
TABLE
  2
UCS
  5
1C
330
0
100
AcDbSymbolTable
 70
     0
  0
ENDTAB
  0
TABLE
  2
APPID
  5
1F
330
0
100
AcDbSymbolTable
 70
     1
  0
APPID
  5
16
330
1F
100
AcDbSymbolTableRecord
100
AcDbRegAppTableRecord
  2
ACAD
 70
     0
  0
ENDTAB
  0
TABLE
  2
DIMSTYLE
  5
20
330
0
100
AcDbSymbolTable
 70
     3
100
AcDbDimStyleTable
 71
     2
340
21
340
24
  0
DIMSTYLE
105
24
330
20
100
AcDbSymbolTableRecord
100
AcDbDimStyleTableRecord
  2
Standard
 70
     0
340
15
  0
DIMSTYLE
105
21
102
{ACAD_REACTORS
330
1BB
330
60
330
5C
330
58
330
54
330
50
330
48
102
}
330
20
100
AcDbSymbolTableRecord
100
AcDbDimStyleTableRecord
  2
AMLT_1
 70
     0
 41
3.0
 42
1.0
 43
6.0
 44
1.0
 47
0.03
 73
     0
 74
     0
 77
     1
 78
     8
 79
     2
140
3.0
141
0.0
146
0.6
147
0.5
172
     1
176
     6
177
     6
178
     2
179
     2
271
     2
272
     2
284
     8
340
22
371
    15
372
    15
  0
ENDTAB
  0
TABLE
  2
BLOCK_RECORD
  5
1
330
0
100
AcDbSymbolTable
 70
    55
  0
BLOCK_RECORD
  5
2
330
1
100
AcDbSymbolTableRecord
100
AcDbBlockTableRecord
  2
*Model_Space
340
A
  0
BLOCK_RECORD
  5
C
330
1
100
AcDbSymbolTableRecord
100
AcDbBlockTableRecord
  2
*Paper_Space
340
F
  0
BLOCK_RECORD
  5
49
330
1
100
AcDbSymbolTableRecord
100
AcDbBlockTableRecord
  2
_DotSmall
340
0
102
{BLKREFS
331
B5
331
C7
331
F77
331
1030
102
}
  0
ENDTAB
  0
ENDSEC
  0
SECTION
  2
BLOCKS
  0
BLOCK
  5
3
330
2
100
AcDbEntity
  8
0
100
AcDbBlockBegin
  2
*Model_Space
 70
     0
 10
0.0
 20
0.0
 30
0.0
  3
*Model_Space
  1

  0
ENDBLK
  5
9
330
2
100
AcDbEntity
  8
0
100
AcDbBlockEnd
  0
BLOCK
  5
D
330
C
100
AcDbEntity
 67
     1
  8
0
100
AcDbBlockBegin
  2
*Paper_Space
 70
     0
 10
0.0
 20
0.0
 30
0.0
  3
*Paper_Space
  1

  0
ENDBLK
  5
E
330
C
100
AcDbEntity
 67
     1
  8
0
100
AcDbBlockEnd
  0
BLOCK
  5
4A
330
49
100
AcDbEntity
  8
0
100
AcDbBlockBegin
  2
_DotSmall
 70
     0
 10
0.0
 20
0.0
 30
0.0
  3
_DotSmall
  1

  0
LWPOLYLINE
  5
4B
330
49
100
AcDbEntity
  8
0
  6
ByBlock
 62
     0
100
AcDbPolyline
 90
        2
 70
     1
 43
0.5
 10
-0.0625
 20
0.0
 42
1.0
 10
0.0625
 20
0.0
 42
1.0
  0
ENDBLK
  5
4C
330
49
100
AcDbEntity
  8
0
100
AcDbBlockEnd
  0
ENDSEC
  0
SECTION
  2
ENTITIES
  0
LWPOLYLINE
  5
13C
330
2
100
AcDbEntity
  8
0
100
AcDbPolyline
 90
        8
 70
   128
 43
0.0
 10
1743.86290129389
 20
1723.225653100529
 10
1743.742165310384
 20
1723.306081906203
 10
1743.439968664412
 20
1723.453480735012
 10
1743.048726706647
 20
1723.552519289969
 10
1742.747404154612
 20
1723.568104689327
 10
1742.452511254523
 20
1723.534106015036
 10
1742.120527625722
 20
1723.433650613948
 10
1741.747928510768
 20
1723.225653100529
  0
ARC
  5
13E
330
2
100
AcDbEntity
  8
0
100
AcDbCircle
 10
1742.805414902329
 20
1721.769039722977
 30
0.0
 40
1.800000000000009
100
AcDbArc
 50
125.9792653086999
 51
54.02073469130003
  0
ARC
  5
13F
330
2
100
AcDbEntity
  8
0
100
AcDbCircle
 10
1742.805414902329
 20
1748.869039722977
 30
0.0
 40
1.799999999999986
100
AcDbArc
 50
234.0207346913
 51
305.9792653086999
  0
ARC
  5
140
330
2
100
AcDbEntity
  8
0
100
AcDbCircle
 10
1742.805414902329
 20
1748.869039722977
 30
0.0
 40
1.800000000000018
100
AcDbArc
 50
305.9792653086999
 51
234.0207346913
  0
LINE
  5
141
330
2
100
AcDbEntity
  8
0
100
AcDbLine
 10
1763.08310348607
 20
1706.735857109336
 30
0.0
 11
1765.005414902329
 21
1708.658168525596
 31
0.0
  0
LINE
  5
143
330
2
100
AcDbEntity
  8
0
100
AcDbLine
 10
1758.592975425535
 20
1706.735857109336
 30
0.0
 11
1765.005414902329
 21
1713.14829658613
 31
0.0
  0
LINE
  5
144
330
2
100
AcDbEntity
  8
0
100
AcDbLine
 10
1754.102847365
 20
1706.735857109335
 30
0.0
 11
1765.005414902329
 21
1717.638424646664
 31
0.0
  0
LINE
  5
145
330
2
100
AcDbEntity
  8
0
100
AcDbLine
 10
1749.612719304465
 20
1706.735857109336
 30
0.0
 11
1765.005414902329
 21
1722.128552707199
 31
0.0
  0
LINE
  5
146
330
2
100
AcDbEntity
  8
0
100
AcDbLine
 10
1745.12259124393
 20
1706.735857109335
 30
0.0
 11
1765.005414902329
 21
1726.618680767734
 31
0.0
  0
LINE
  5
147
330
2
100
AcDbEntity
  8
0
100
AcDbLine
 10
1740.632463183396
 20
1706.735857109335
 30
0.0
 11
1765.005414902329
 21
1731.108808828269
 31
0.0
  0
LINE
  5
148
330
2
100
AcDbEntity
  8
0
100
AcDbLine
 10
1736.142335122862
 20
1706.735857109336
 30
0.0
 11
1765.005414902329
 21
1735.598936888803
 31
0.0
  0
LINE
  5
149
330
2
100
AcDbEntity
  8
0
100
AcDbLine
 10
1732.005414902329
 20
1707.089064949337
 30
0.0
 11
1765.005414902329
 21
1740.089064949337
 31
0.0
  0
LINE
  5
14A
330
2
100
AcDbEntity
  8
0
100
AcDbLine
 10
1732.005414902329
 20
1711.579193009872
 30
0.0
 11
1765.005414902329
 21
1744.579193009872
 31
0.0
  0
LINE
  5
14B
330
2
100
AcDbEntity
  8
0
100
AcDbLine
 10
1732.005414902329
 20
1716.069321070406
 30
0.0
 11
1765.005414902329
 21
1749.069321070406
 31
0.0
  0
LINE
  5
14C
330
2
100
AcDbEntity
  8
0
100
AcDbLine
 10
1732.005414902329
 20
1720.559449130941
 30
0.0
 11
1765.005414902329
 21
1753.559449130941
 31
0.0
  0
LINE
  5
14D
330
2
100
AcDbEntity
  8
0
100
AcDbLine
 10
1732.005414902329
 20
1725.049577191476
 30
0.0
 11
1765.005414902329
 21
1758.049577191476
 31
0.0
  0
LINE
  5
14E
330
2
100
AcDbEntity
  8
0
100
AcDbLine
 10
1732.005414902329
 20
1729.53970525201
 30
0.0
 11
1765.005414902329
 21
1762.539705252011
 31
0.0
  0
LINE
  5
14F
330
2
100
AcDbEntity
  8
0
100
AcDbLine
 10
1732.005414902329
 20
1734.029833312544
 30
0.0
 11
1762.411152544811
 21
1764.435570955027
 31
0.0
  0
LINE
  5
150
330
2
100
AcDbEntity
  8
0
100
AcDbLine
 10
1732.005414902329
 20
1738.519961373079
 30
0.0
 11
1757.921024484277
 21
1764.435570955027
 31
0.0
  0
LINE
  5
151
330
2
100
AcDbEntity
  8
0
100
AcDbLine
 10
1732.005414902329
 20
1743.010089433614
 30
0.0
 11
1753.430896423742
 21
1764.435570955027
 31
0.0
  0
LINE
  5
152
330
2
100
AcDbEntity
  8
0
100
AcDbLine
 10
1732.005414902329
 20
1747.500217494148
 30
0.0
 11
1748.940768363208
 21
1764.435570955027
 31
0.0
  0
LINE
  5
153
330
2
100
AcDbEntity
  8
0
100
AcDbLine
 10
1732.005414902329
 20
1751.990345554682
 30
0.0
 11
1744.450640302673
 21
1764.435570955027
 31
0.0
  0
LINE
  5
154
330
2
100
AcDbEntity
  8
0
100
AcDbLine
 10
1732.005414902329
 20
1756.480473615217
 30
0.0
 11
1739.960512242139
 21
1764.435570955027
 31
0.0
  0
LINE
  5
155
330
2
100
AcDbEntity
  8
0
100
AcDbLine
 10
1732.005414902329
 20
1760.970601675752
 30
0.0
 11
1735.470384181604
 21
1764.435570955027
 31
0.0
  0
LINE
  5
15D
330
2
100
AcDbEntity
  8
0
100
AcDbLine
 10
1735.005414902329
 20
1721.819039722976
 30
0.0
 11
1735.005414902329
 21
1718.819039722976
 31
0.0
  0
LINE
  5
15E
330
2
100
AcDbEntity
  8
0
100
AcDbLine
 10
1735.005414902329
 20
1751.819039722977
 30
0.0
 11
1735.005414902329
 21
1748.819039722978
 31
0.0
  0
LINE
  5
15F
330
2
100
AcDbEntity
  8
0
100
AcDbLine
 10
1737.80541490233
 20
1750.875388909082
 30
0.0
 11
1737.80541490233
 21
1751.819039722978
 31
0.0
  0
LINE
  5
160
330
2
100
AcDbEntity
  8
0
100
AcDbLine
 10
1737.80541490233
 20
1718.819039722976
 30
0.0
 11
1737.80541490233
 21
1719.762690536871
 31
0.0
  0
LINE
  5
161
330
2
100
AcDbEntity
  8
0
100
AcDbLine
 10
1745.80541490233
 20
1751.819039722978
 30
0.0
 11
1745.80541490233
 21
1750.875388909082
 31
0.0
  0
LINE
  5
162
330
2
100
AcDbEntity
  8
0
100
AcDbLine
 10
1745.80541490233
 20
1719.762690536871
 30
0.0
 11
1745.80541490233
 21
1718.819039722976
 31
0.0
  0
LINE
  5
163
330
2
100
AcDbEntity
  8
0
100
AcDbLine
 10
1737.80541490233
 20
1748.819039722978
 30
0.0
 11
1737.80541490233
 21
1750.875388909082
 31
0.0
  0
LINE
  5
164
330
2
100
AcDbEntity
  8
0
100
AcDbLine
 10
1737.80541490233
 20
1719.762690536871
 30
0.0
 11
1737.805414902331
 21
1721.819039722976
 31
0.0
  0
LINE
  5
165
330
2
100
AcDbEntity
  8
0
100
AcDbLine
 10
1745.80541490233
 20
1750.875388909082
 30
0.0
 11
1745.80541490233
 21
1747.098258712368
 31
0.0
  0
LINE
  5
166
330
2
100
AcDbEntity
  8
0
100
AcDbLine
 10
1745.80541490233
 20
1723.539820733586
 30
0.0
 11
1745.80541490233
 21
1719.762690536871
 31
0.0
  0
LINE
  5
167
330
2
100
AcDbEntity
  8
0
100
AcDbLine
 10
1745.805414902331
 20
1730.619039722978
 30
0.0
 11
1745.80541490233
 21
1723.539820733586
 31
0.0
  0
LINE
  5
168
330
2
100
AcDbEntity
  8
0
100
AcDbLine
 10
1745.80541490233
 20
1747.098258712368
 30
0.0
 11
1745.805414902331
 21
1740.019039722976
 31
0.0
  0
LINE
  5
169
330
2
100
AcDbEntity
  8
0
100
AcDbLine
 10
1746.805414902329
 20
1731.802294068256
 30
0.0
 11
1746.805414902329
 21
1731.619039722977
 31
0.0
  0
LINE
  5
16A
330
2
100
AcDbEntity
  8
0
100
AcDbLine
 10
1746.805414902329
 20
1739.019039722977
 30
0.0
 11
1746.805414902329
 21
1738.835785377698
 31
0.0
  0
LINE
  5
16B
330
2
100
AcDbEntity
  8
0
100
AcDbLine
 10
1746.805414902329
 20
1732.332821378649
 30
0.0
 11
1746.805414902329
 21
1731.802294068256
 31
0.0
  0
LINE
  5
16C
330
2
100
AcDbEntity
  8
0
100
AcDbLine
 10
1746.805414902329
 20
1738.835785377698
 30
0.0
 11
1746.805414902329
 21
1738.305258067305
 31
0.0
  0
LINE
  5
16D
330
2
100
AcDbEntity
  8
0
100
AcDbLine
 10
1746.805414902329
 20
1734.169039722977
 30
0.0
 11
1746.805414902329
 21
1732.332821378649
 31
0.0
  0
LINE
  5
16E
330
2
100
AcDbEntity
  8
0
100
AcDbLine
 10
1746.805414902329
 20
1738.305258067305
 30
0.0
 11
1746.805414902329
 21
1736.469039722977
 31
0.0
  0
LINE
  5
16F
330
2
100
AcDbEntity
  8
0
100
AcDbLine
 10
1746.805414902329
 20
1736.469039722977
 30
0.0
 11
1746.805414902329
 21
1734.169039722977
 31
0.0
  0
LINE
  5
170
330
2
100
AcDbEntity
  8
0
100
AcDbLine
 10
1732.005414902329
 20
1718.319039722977
 30
0.0
 11
1734.505414902329
 21
1718.319039722977
 31
0.0
  0
LINE
  5
171
330
2
100
AcDbEntity
  8
0
100
AcDbLine
 10
1734.505414902329
 20
1752.319039722977
 30
0.0
 11
1732.005414902329
 21
1752.319039722977
 31
0.0
  0
ARC
  5
172
330
2
100
AcDbEntity
  8
0
100
AcDbCircle
 10
1734.505414902329
 20
1718.819039722976
 30
0.0
 40
0.5
100
AcDbArc
 50
270.0
 51
0.0
  0
ARC
  5
173
330
2
100
AcDbEntity
  8
0
100
AcDbCircle
 10
1734.505414902329
 20
1751.819039722977
 30
0.0
 40
0.5
100
AcDbArc
 50
0.0
 51
90.0
  0
ARC
  5
174
330
2
100
AcDbEntity
  8
0
100
AcDbCircle
 10
1738.30541490233
 20
1751.819039722978
 30
0.0
 40
0.5
100
AcDbArc
 50
90.0
 51
180.0
  0
ARC
  5
175
330
2
100
AcDbEntity
  8
0
100
AcDbCircle
 10
1738.30541490233
 20
1718.819039722976
 30
0.0
 40
0.5
100
AcDbArc
 50
180.0
 51
270.0
  0
LINE
  5
176
330
2
100
AcDbEntity
  8
0
100
AcDbLine
 10
1745.30541490233
 20
1752.319039722978
 30
0.0
 11
1738.30541490233
 21
1752.319039722978
 31
0.0
  0
ARC
  5
177
330
2
100
AcDbEntity
  8
0
100
AcDbCircle
 10
1745.30541490233
 20
1751.819039722978
 30
0.0
 40
0.5
100
AcDbArc
 50
0.0
 51
90.0
  0
LINE
  5
178
330
2
100
AcDbEntity
  8
0
100
AcDbLine
 10
1738.30541490233
 20
1718.319039722975
 30
0.0
 11
1745.30541490233
 21
1718.319039722975
 31
0.0
  0
ARC
  5
179
330
2
100
AcDbEntity
  8
0
100
AcDbCircle
 10
1745.30541490233
 20
1718.819039722976
 30
0.0
 40
0.5
100
AcDbArc
 50
270.0
 51
0.0
  0
LINE
  5
17A
330
2
100
AcDbEntity
  8
0
100
AcDbLine
 10
1735.005414902329
 20
1721.819039722976
 30
0.0
 11
1737.80541490233
 21
1721.819039722976
 31
0.0
  0
LINE
  5
17B
330
2
100
AcDbEntity
  8
0
100
AcDbLine
 10
1737.80541490233
 20
1748.819039722978
 30
0.0
 11
1735.005414902329
 21
1748.819039722978
 31
0.0
  0
LINE
  5
17C
330
2
100
AcDbEntity
  8
0
100
AcDbLine
 10
1745.80541490233
 20
1730.619039722977
 30
0.0
 11
1746.805414902329
 21
1731.619039722977
 31
0.0
  0
LINE
  5
17D
330
2
100
AcDbEntity
  8
0
100
AcDbLine
 10
1746.805414902329
 20
1739.019039722977
 30
0.0
 11
1745.80541490233
 21
1740.019039722977
 31
0.0
  0
LINE
  5
17E
330
2
100
AcDbEntity
  8
0
100
AcDbLine
 10
1765.005414902329
 20
1764.435570955027
 30
0.0
 11
1765.005414902329
 21
1706.735857109335
 31
0.0
  0
ARC
  5
17F
330
2
100
AcDbEntity
  8
0
100
AcDbCircle
 10
1720.385880406837
 20
1756.514905530291
 30
0.0
 40
0.2000000000000104
100
AcDbArc
 50
20.00000000000343
 51
109.9999999999995
  0
ARC
  5
180
330
2
100
AcDbEntity
  8
0
100
AcDbCircle
 10
1720.385880406837
 20
1714.123173915663
 30
0.0
 40
0.2000000000000037
100
AcDbArc
 50
250.0000000000005
 51
339.9999999999965
  0
LINE
  5
181
330
2
100
AcDbEntity
  8
0
100
AcDbLine
 10
1720.573818930995
 20
1714.054769886998
 30
0.0
 11
1721.397945753638
 21
1716.319039722977
 31
0.0
  0
LINE
  5
182
330
2
100
AcDbEntity
  8
0
100
AcDbLine
 10
1721.397945753638
 20
1754.319039722977
 30
0.0
 11
1720.573818930995
 21
1756.583309558957
 31
0.0
  0
LINE
  5
183
330
2
100
AcDbEntity
  8
0
100
AcDbLine
 10
1721.397945753638
 20
1716.319039722977
 30
0.0
 11
1724.061757455151
 21
1716.319039722977
 31
0.0
  0
LINE
  5
184
330
2
100
AcDbEntity
  8
0
100
AcDbLine
 10
1724.061757455151
 20
1754.319039722978
 30
0.0
 11
1721.397945753638
 21
1754.319039722977
 31
0.0
  0
LINE
  5
185
330
2
100
AcDbEntity
  8
0
100
AcDbLine
 10
1721.397945753638
 20
1716.319039722977
 30
0.0
 11
1721.397945753638
 21
1754.319039722977
 31
0.0
  0
LINE
  5
186
330
2
100
AcDbEntity
  8
0
100
AcDbLine
 10
1720.505414902329
 20
1714.337522555375
 30
0.0
 11
1720.505414902329
 21
1756.30055689058
 31
0.0
  0
LINE
  5
187
330
2
100
AcDbEntity
  8
0
100
AcDbLine
 10
1714.616614371282
 20
1753.543338788398
 30
0.0
 11
1714.616614371282
 21
1752.60204775832
 31
0.0
  0
LINE
  5
188
330
2
100
AcDbEntity
  8
0
100
AcDbLine
 10
1714.616614371282
 20
1718.036031687634
 30
0.0
 11
1714.616614371282
 21
1717.094740657557
 31
0.0
  0
LINE
  5
189
330
2
100
AcDbEntity
  8
0
100
AcDbLine
 10
1713.777470656943
 20
1744.349140057425
 30
0.0
 11
1713.777470656942
 21
1744.063497121448
 31
0.0
  0
LINE
  5
18A
330
2
100
AcDbEntity
  8
0
100
AcDbLine
 10
1713.777470656942
 20
1726.574582324506
 30
0.0
 11
1713.777470656943
 21
1726.288939388529
 31
0.0
  0
LINE
  5
18B
330
2
100
AcDbEntity
  8
0
100
AcDbLine
 10
1713.777470656942
 20
1744.063497121448
 30
0.0
 11
1713.776563804427
 21
1744.034348930119
 31
0.0
  0
LINE
  5
18C
330
2
100
AcDbEntity
  8
0
100
AcDbLine
 10
1713.776563804427
 20
1726.603730515835
 30
0.0
 11
1713.777470656942
 21
1726.574582324506
 31
0.0
  0
LINE
  5
18D
330
2
100
AcDbEntity
  8
0
100
AcDbLine
 10
1732.005414902329
 20
1759.319039722977
 30
0.0
 11
1732.005414902329
 21
1711.319039722977
 31
0.0
  0
LINE
  5
18E
330
2
100
AcDbEntity
  8
0
100
AcDbLine
 10
1731.005414902329
 20
1759.319039722977
 30
0.0
 11
1731.005414902329
 21
1711.319039722977
 31
0.0
  0
LWPOLYLINE
  5
18F
330
2
100
AcDbEntity
  8
0
100
AcDbPolyline
 90
        5
 70
   128
 43
0.0
 10
1714.721141487382
 20
1721.389619747546
 10
1714.675824191609
 20
1720.408655817792
 10
1714.643158300395
 20
1719.521665856966
 10
1714.623276726042
 20
1718.727636771895
 10
1714.616614371282
 20
1718.036031687634
  0
LWPOLYLINE
  5
190
330
2
100
AcDbEntity
  8
0
100
AcDbPolyline
 90
        5
 70
   128
 43
0.0
 10
1714.616614371282
 20
1752.60204775832
 10
1714.623069017644
 20
1751.922131098531
 10
1714.642494425604
 20
1751.137715335048
 10
1714.67520372446
 20
1750.24430764823
 10
1714.721141487382
 20
1749.248459698409
  0
LINE
  5
191
330
2
100
AcDbEntity
  8
0
100
AcDbLine
 10
1714.986978941243
 20
1722.16252542601
 30
0.0
 11
1714.984072546171
 21
1722.16014168471
 31
0.0
  0
LWPOLYLINE
  5
192
330
2
100
AcDbEntity
  8
0
100
AcDbPolyline
 90
        5
 70
   128
 43
0.0
 10
1718.16291140273
 20
1729.466683447283
 10
1718.264150046939
 20
1730.444834732642
 10
1718.305077793186
 20
1731.656947828101
 10
1718.305077582366
 20
1731.657006577547
 10
1718.305077582366
 20
1731.657006577547
  0
LINE
  5
193
330
2
100
AcDbEntity
  8
0
100
AcDbLine
 10
1713.776563804427
 20
1743.228969989689
 30
0.0
 11
1713.777470656942
 21
1743.255424605965
 31
0.0
  0
LINE
  5
194
330
2
100
AcDbEntity
  8
0
100
AcDbLine
 10
1713.777470656942
 20
1743.255424605965
 30
0.0
 11
1713.777470656942
 21
1727.382654839989
 31
0.0
  0
LINE
  5
195
330
2
100
AcDbEntity
  8
0
100
AcDbLine
 10
1724.061757455151
 20
1756.651713587622
 30
0.0
 11
1724.061757455151
 21
1713.986365858332
 31
0.0
  0
ARC
  5
196
330
2
100
AcDbEntity
  8
0
100
AcDbCircle
 10
1724.261757455151
 20
1756.651713587622
 30
0.0
 40
0.2000000000000028
100
AcDbArc
 50
109.9999999999892
 51
180.0
  0
ARC
  5
197
330
2
100
AcDbEntity
  8
0
100
AcDbCircle
 10
1724.261757455151
 20
1713.986365858332
 30
0.0
 40
0.1999999999999922
100
AcDbArc
 50
180.0
 51
250.0000000000108
  0
LINE
  5
198
330
2
100
AcDbEntity
  8
0
100
AcDbLine
 10
1724.193353426486
 20
1713.798427334175
 30
0.0
 11
1731.005414902329
 21
1711.319039722977
 31
0.0
  0
LINE
  5
199
330
2
100
AcDbEntity
  8
0
100
AcDbLine
 10
1731.005414902329
 20
1759.319039722977
 30
0.0
 11
1724.193353426486
 21
1756.839652111779
 31
0.0
  0
LINE
  5
19A
330
2
100
AcDbEntity
  8
0
100
AcDbLine
 10
1731.005414902329
 20
1711.319039722977
 30
0.0
 11
1732.005414902329
 21
1711.319039722977
 31
0.0
  0
LINE
  5
19B
330
2
100
AcDbEntity
  8
0
100
AcDbLine
 10
1732.005414902329
 20
1759.319039722977
 30
0.0
 11
1731.005414902329
 21
1759.319039722977
 31
0.0
  0
ARC
  5
19C
330
2
100
AcDbEntity
  8
0
100
AcDbCircle
 10
1714.81513277199
 20
1717.119039722977
 30
0.0
 40
0.199999999999992
100
AcDbArc
 50
180.0
 51
186.978410011129
  0
ARC
  5
19D
330
2
100
AcDbEntity
  8
0
100
AcDbCircle
 10
1863.505414902329
 20
1735.319039722977
 30
0.0
 40
150.0
100
AcDbArc
 50
172.7003217417284
 51
173.021589988871
  0
ARC
  5
19E
330
2
100
AcDbEntity
  8
0
100
AcDbCircle
 10
1863.505414902329
 20
1735.319039722977
 30
0.0
 40
150.0
100
AcDbArc
 50
186.978410011129
 51
187.2996782582815
  0
ARC
  5
19F
330
2
100
AcDbEntity
  8
0
100
AcDbCircle
 10
1715.217089065431
 20
1716.32371344281
 30
0.0
 40
0.5000000000000266
100
AcDbArc
 50
187.2996782582584
 51
250.0000000000108
  0
ARC
  5
1A0
330
2
100
AcDbEntity
  8
0
100
AcDbCircle
 10
1715.217089065431
 20
1754.314366003144
 30
0.0
 40
0.5000000000000266
100
AcDbArc
 50
109.9999999999892
 51
172.7003217417415
  0
LWPOLYLINE
  5
1A1
330
2
100
AcDbEntity
  8
0
100
AcDbPolyline
 90
        7
 70
   128
 43
0.0
 10
1714.724953847921
 20
1749.174423019616
 10
1714.730659847786
 20
1749.087267851619
 10
1714.771365903261
 20
1748.868214237134
 10
1714.824733804241
 20
1748.707828207495
 10
1714.887493791984
 20
1748.590649429839
 10
1714.97804670186
 20
1748.483236262016
 10
1714.984716644756
 20
1748.478613131956
  0
LWPOLYLINE
  5
1A2
330
2
100
AcDbEntity
  8
0
100
AcDbPolyline
 90
        7
 70
   128
 43
0.0
 10
1714.984894637687
 20
1722.159215618743
 10
1714.93460101943
 20
1722.110835900695
 10
1714.867441556924
 20
1722.014566453224
 10
1714.813791695137
 20
1721.903757434558
 10
1714.75826703263
 20
1721.727897347422
 10
1714.724836126484
 20
1721.498502473958
 10
1714.722820276256
 20
1721.417813685535
  0
LWPOLYLINE
  5
1A3
330
2
100
AcDbEntity
  8
0
100
AcDbPolyline
 90
        3
 70
   128
 43
0.0
 10
1715.351618661801
 20
1722.474578495122
 10
1715.344529143627
 20
1722.468728534552
 10
1714.988878390173
 20
1722.160580932176
  0
LWPOLYLINE
  5
1A4
330
2
100
AcDbEntity
  8
0
100
AcDbPolyline
 90
        3
 70
   128
 43
0.0
 10
1714.985035259797
 20
1748.478234583267
 10
1715.175648205393
 20
1748.312867615177
 10
1715.411611661462
 20
1748.116031879789
  0
LINE
  5
1A5
330
2
100
AcDbEntity
  8
0
100
AcDbLine
 10
1718.30312210755
 20
1739.252281880871
 30
0.0
 11
1718.30312210755
 21
1731.651290648907
 31
0.0
  0
LWPOLYLINE
  5
1A6
330
2
100
AcDbEntity
  8
0
100
AcDbPolyline
 90
       15
 70
   128
 43
0.0
 10
1715.405122626952
 20
1748.120300539164
 10
1715.525134163868
 20
1748.013172190745
 10
1715.877625996188
 20
1747.627814971409
 10
1716.21112664065
 20
1747.175471437469
 10
1716.532872337977
 20
1746.643391455364
 10
1716.836861696576
 20
1746.038693671979
 10
1717.126987591548
 20
1745.357670164152
 10
1717.405795181502
 20
1744.598835296071
 10
1717.660664116499
 20
1743.774560601343
 10
1717.874871750464
 20
1742.929488726401
 10
1718.047993218864
 20
1742.067500443899
 10
1718.16333277168
 20
1741.311427889591
 10
1718.243214209958
 20
1740.479360349122
 10
1718.283903285643
 20
1739.657570142926
 10
1718.29164645059
 20
1739.250433634196
  0
LWPOLYLINE
  5
1A7
330
2
100
AcDbEntity
  8
0
100
AcDbPolyline
 90
       13
 70
   128
 43
0.0
 10
1718.144817261585
 20
1729.444624995561
 10
1718.099191958592
 20
1729.08260148343
 10
1717.962905183991
 20
1728.303180003601
 10
1717.778933322108
 20
1727.469319289858
 10
1717.55778588546
 20
1726.65150457346
 10
1717.300749457745
 20
1725.856848277325
 10
1717.010436604557
 20
1725.090439749117
 10
1716.718807126235
 20
1724.42515991732
 10
1716.414924688159
 20
1723.839401284149
 10
1716.095325440839
 20
1723.328575344641
 10
1715.756998129302
 20
1722.887022643036
 10
1715.355488728149
 20
1722.470399036293
 10
1715.352561850011
 20
1722.467846556275
  0
LINE
  5
1A8
330
2
100
AcDbEntity
  8
0
100
AcDbLine
 10
1715.046078993769
 20
1715.853867132417
 30
0.0
 11
1720.317476378173
 21
1713.935235391506
 31
0.0
  0
LINE
  5
1A9
330
2
100
AcDbEntity
  8
0
100
AcDbLine
 10
1720.317476378173
 20
1756.702844054449
 30
0.0
 11
1715.046078993769
 21
1754.784212313537
 31
0.0
  0
ARC
  5
1AA
330
2
100
AcDbEntity
  8
0
100
AcDbCircle
 10
1714.975114963226
 20
1718.319039722977
 30
0.0
 40
0.5000000000000079
100
AcDbArc
 50
186.5293623642264
 51
224.1925555899292
  0
ARC
  5
1AB
330
2
100
AcDbEntity
  8
0
100
AcDbCircle
 10
1714.975114963226
 20
1752.319039722977
 30
0.0
 40
0.5000000000000079
100
AcDbArc
 50
135.8074444100707
 51
173.4706376357735
  0
LINE
  5
1AC
330
2
100
AcDbEntity
  8
0
100
AcDbLine
 10
1713.776563804427
 20
1744.319039722977
 30
0.0
 11
1713.776563804427
 21
1744.03434893012
 31
0.0
  0
LINE
  5
1AD
330
2
100
AcDbEntity
  8
0
100
AcDbLine
 10
1713.776563804427
 20
1726.603730515835
 30
0.0
 11
1713.776563804427
 21
1726.319039722977
 31
0.0
  0
LINE
  5
1AE
330
2
100
AcDbEntity
  8
0
100
AcDbLine
 10
1713.776563804427
 20
1728.009698546597
 30
0.0
 11
1713.776563804427
 21
1726.603730515835
 31
0.0
  0
LINE
  5
1AF
330
2
100
AcDbEntity
  8
0
100
AcDbLine
 10
1713.776563804427
 20
1744.03434893012
 30
0.0
 11
1713.776563804427
 21
1743.228969989689
 31
0.0
  0
ARC
  5
1B0
330
2
100
AcDbEntity
  8
0
100
AcDbCircle
 10
1714.276563804427
 20
1726.319039722977
 30
0.0
 40
0.5
100
AcDbArc
 50
180.0
 51
183.4513310695532
  0
ARC
  5
1B1
330
2
100
AcDbEntity
  8
0
100
AcDbCircle
 10
1863.505414902329
 20
1735.319039722977
 30
0.0
 40
150.0
100
AcDbArc
 50
173.4706376357735
 51
176.5486689304597
  0
ARC
  5
1B2
330
2
100
AcDbEntity
  8
0
100
AcDbCircle
 10
1863.505414902329
 20
1735.319039722977
 30
0.0
 40
150.0
100
AcDbArc
 50
183.4513310695402
 51
186.5293623642395
  0
ARC
  5
1B3
330
2
100
AcDbEntity
  8
0
100
AcDbCircle
 10
1714.276563804427
 20
1726.603730515835
 30
0.0
 40
0.5
100
AcDbArc
 50
159.2045303997254
 51
180.0
  0
ARC
  5
1B4
330
2
100
AcDbEntity
  8
0
100
AcDbCircle
 10
1863.505414902329
 20
1735.319039722977
 30
0.0
 40
150.0
100
AcDbArc
 50
177.3162732411536
 51
182.6837267588463
  0
ARC
  5
1B5
330
2
100
AcDbEntity
  8
0
100
AcDbCircle
 10
1714.169384420734
 20
1728.319039722977
 30
0.0
 40
0.5000000000000286
100
AcDbArc
 50
182.6837267587811
 51
218.2199766101923
  0
ARC
  5
1B6
330
2
100
AcDbEntity
  8
0
100
AcDbCircle
 10
1714.169384420734
 20
1742.319039722977
 30
0.0
 40
0.5000000000000286
100
AcDbArc
 50
141.7800233898076
 51
177.3162732412189
  0
LINE
  5
1B7
330
2
100
AcDbEntity
  8
0
100
AcDbLine
 10
1732.005414902329
 20
1764.435570955027
 30
0.0
 11
1732.005414902329
 21
1706.735857109335
 31
0.0
  0
LINE
  5
1BC
330
2
100
AcDbEntity
  8
0
  6
HIDDEN2
370
    15
100
AcDbLine
 10
1824.479119978073
 20
1623.636982625684
 30
0.0
 11
1837.773855778386
 21
1623.636982625685
 31
0.0
  0
LINE
  5
1BE
330
2
100
AcDbEntity
  8
0
  6
HIDDEN2
370
    15
100
AcDbLine
 10
1825.126487878229
 20
1620.036982625685
 30
0.0
 11
1837.12648787823
 21
1620.036982625684
 31
0.0
  0
LINE
  5
1BF
330
2
100
AcDbEntity
  8
0
  6
HIDDEN2
370
    15
100
AcDbLine
 10
1824.479119978073
 20
1647.136982625684
 30
0.0
 11
1837.773855778386
 21
1647.136982625684
 31
0.0
  0
LINE
  5
1C0
330
2
100
AcDbEntity
  8
0
  6
HIDDEN2
370
    15
100
AcDbLine
 10
1825.126487878229
 20
1650.736982625684
 30
0.0
 11
1837.12648787823
 21
1650.736982625684
 31
0.0
  0
LINE
  5
1C1
330
2
100
AcDbEntity
  8
0
  6
HIDDEN2
370
    15
100
AcDbLine
 10
1640.407342813029
 20
1740.35461481745
 30
0.0
 11
1652.407342813029
 21
1740.354614817449
 31
0.0
  0
LINE
  5
1C2
330
2
100
AcDbEntity
  8
0
  6
HIDDEN2
370
    15
100
AcDbLine
 10
1640.407342813029
 20
1743.95461481745
 30
0.0
 11
1652.407342813029
 21
1743.95461481745
 31
0.0
  0
TEXT
  5
1C3
330
2
100
AcDbEntity
  8
0
370
    30
100
AcDbText
 10
1897.493206770359
 20
1514.7
 30
0.0
 40
4.0
  1
パタンテ
 41
0.9
  7
OPNUS
100
AcDbText
  0
TEXT
  5
241
330
2
100
AcDbEntity
  8
0
370
    30
100
AcDbText
 10
1872.512694772044
 20
1514.84613292589
 30
0.0
 40
3.0
  1
スウィングサムターン
 41
0.6
  7
OPNUS
100
AcDbText
  0
TEXT
  5
242
330
2
100
AcDbEntity
  8
0
370
    30
100
AcDbText
 10
1873.2
 20
1505.7
 30
0.0
 40
4.5
  1
STB011**-***
  7
OPNUS
100
AcDbText
  0
LINE
  5
27F
330
2
100
AcDbEntity
  8
W
100
AcDbLine
 10
1584.0
 20
1497.0
 30
0.0
 11
1567.83724133048
 21
1497.0
 31
0.0
  0
LINE
  5
280
330
2
100
AcDbEntity
  8
W
100
AcDbLine
 10
1584.0
 20
1497.0
 30
0.0
 11
1584.0
 21
1483.126641279715
 31
0.0
  0
LINE
  5
281
330
2
100
AcDbEntity
  8
W
100
AcDbLine
 10
1977.4
 20
1776.4
 30
0.0
 11
1990.587493650432
 21
1776.4
 31
0.0
  0
LINE
  5
282
330
2
100
AcDbEntity
  8
W
100
AcDbLine
 10
1977.4
 20
1776.4
 30
0.0
 11
1977.4
 21
1790.645741378915
 31
0.0
  0
LINE
  5
34C
330
2
100
AcDbEntity
  8
0
100
AcDbLine
 10
1646.407342813029
 20
1715.854614817448
 30
0.0
 11
1674.724136508739
 21
1715.854614817448
 31
0.0
  0
ARC
  5
37F
330
2
100
AcDbEntity
  8
0
  6
HIDDEN2
370
    15
100
AcDbCircle
 10
1700.505414902329
 20
1635.386982625685
 30
0.0
 40
7.0
100
AcDbArc
 50
144.9768148328185
 51
215.0231851671814
  0
ARC
  5
380
330
2
100
AcDbEntity
  8
0
  6
HIDDEN2
370
    15
100
AcDbCircle
 10
1723.435171408449
 20
1619.317562394387
 30
0.0
 40
35.0
100
AcDbArc
 50
113.3280559994176
 51
144.9768148328185
  0
ARC
  5
381
330
2
100
AcDbEntity
  8
0
  6
HIDDEN2
370
    15
100
AcDbCircle
 10
1723.435171408449
 20
1651.456402856982
 30
0.0
 40
35.0
100
AcDbArc
 50
215.0231851671814
 51
246.6719440005824
  0
ARC
  5
382
330
2
100
AcDbEntity
  8
0
  6
HIDDEN2
370
    15
100
AcDbCircle
 10
1863.505255577089
 20
1635.386982625685
 30
0.0
 40
151.0
100
AcDbArc
 50
173.702756361757
 51
177.2286381810743
  0
ARC
  5
383
330
2
100
AcDbEntity
  8
0
  6
HIDDEN2
370
    15
100
AcDbCircle
 10
1863.505255577089
 20
1635.386982625685
 30
0.0
 40
151.0
100
AcDbArc
 50
182.7713618189257
 51
186.2972436382429
  0
ARC
  5
384
330
2
100
AcDbEntity
  8
0
  6
HIDDEN2
370
    15
100
AcDbCircle
 10
1712.919371223347
 20
1652.004486451518
 30
0.0
 40
0.5
100
AcDbArc
 50
353.7027563617537
 51
102.1771145444486
  0
ARC
  5
385
330
2
100
AcDbEntity
  8
0
  6
HIDDEN2
370
    15
100
AcDbCircle
 10
1712.919371223347
 20
1618.769478799851
 30
0.0
 40
0.5
100
AcDbArc
 50
257.8228854555498
 51
6.297243638246312
  0
ARC
  5
386
330
2
100
AcDbEntity
  8
0
  6
HIDDEN2
370
    15
100
AcDbCircle
 10
1716.505255577089
 20
1635.386982625685
 30
0.0
 40
17.5
100
AcDbArc
 50
102.1771145444502
 51
113.3280559994176
  0
ARC
  5
387
330
2
100
AcDbEntity
  8
0
  6
HIDDENX2
370
    15
100
AcDbCircle
 10
1716.505255577089
 20
1635.386982625685
 30
0.0
 40
17.5
100
AcDbArc
 50
246.6719440005824
 51
257.8228854555498
  0
ARC
  5
389
330
2
100
AcDbEntity
  8
0
  6
HIDDEN2
370
    15
100
AcDbCircle
 10
1713.181275985252
 20
1642.663737374407
 30
0.0
 40
0.5
100
AcDbArc
 50
177.228638181084
 51
294.5506471193482
  0
ARC
  5
38A
330
2
100
AcDbEntity
  8
0
  6
HIDDEN2
370
    15
100
AcDbCircle
 10
1713.181275985252
 20
1628.110227876962
 30
0.0
 40
0.5
100
AcDbArc
 50
65.44935288065174
 51
182.7713618189159
  0
ARC
  5
3A8
330
2
100
AcDbEntity
  8
0
100
AcDbCircle
 10
1646.407342813029
 20
1635.386982625685
 30
0.0
 40
8.500000000000003
100
AcDbArc
 50
298.4923107512205
 51
61.50768924877953
  0
ARC
  5
3A9
330
2
100
AcDbEntity
  8
0
100
AcDbCircle
 10
1662.407183487788
 20
1635.386982625685
 30
0.0
 40
7.0
100
AcDbArc
 50
324.9768148328186
 51
35.02318516718093
  0
ARC
  5
3AA
330
2
100
AcDbEntity
  8
0
100
AcDbCircle
 10
1639.477426981668
 20
1651.456402856982
 30
0.0
 40
35.0
100
AcDbArc
 50
293.3280559994177
 51
324.9768148328186
  0
ARC
  5
3AB
330
2
100
AcDbEntity
  8
0
100
AcDbCircle
 10
1639.477426981668
 20
1619.317562394387
 30
0.0
 40
35.0
100
AcDbArc
 50
35.02318516718093
 51
66.67194400058235
  0
ARC
  5
3AC
330
2
100
AcDbEntity
  8
0
100
AcDbCircle
 10
1499.407342813029
 20
1635.386982625685
 30
0.0
 40
151.0
100
AcDbArc
 50
353.702756361757
 51
357.2286381810743
  0
ARC
  5
3AD
330
2
100
AcDbEntity
  8
0
100
AcDbCircle
 10
1499.407342813029
 20
1635.386982625685
 30
0.0
 40
151.0
100
AcDbArc
 50
2.77136181892574
 51
6.297243638243074
  0
ARC
  5
3AE
330
2
100
AcDbEntity
  8
0
100
AcDbCircle
 10
1650.700710159967
 20
1627.477052358973
 30
0.0
 40
0.5
100
AcDbArc
 50
118.492310751222
 51
177.0071829889083
  0
ARC
  5
3AF
330
2
100
AcDbEntity
  8
0
100
AcDbCircle
 10
1650.700710159967
 20
1643.296912892396
 30
0.0
 40
0.5
100
AcDbArc
 50
182.9928170110916
 51
241.507689248778
  0
ARC
  5
3B0
330
2
100
AcDbEntity
  8
0
100
AcDbCircle
 10
1649.99322716677
 20
1618.769478799851
 30
0.0
 40
0.5
100
AcDbArc
 50
173.7027563617536
 51
282.1771145444486
  0
ARC
  5
3B1
330
2
100
AcDbEntity
  8
0
100
AcDbCircle
 10
1649.99322716677
 20
1652.004486451518
 30
0.0
 40
0.5
100
AcDbArc
 50
77.8228854555498
 51
186.2972436382463
  0
ARC
  5
3B2
330
2
100
AcDbEntity
  8
0
100
AcDbCircle
 10
1646.407342813029
 20
1635.386982625685
 30
0.0
 40
17.5
100
AcDbArc
 50
282.1771145444502
 51
293.3280559994177
  0
ARC
  5
3B3
330
2
100
AcDbEntity
  8
0
100
AcDbCircle
 10
1646.407342813029
 20
1635.386982625685
 30
0.0
 40
17.5
100
AcDbArc
 50
66.67194400058235
 51
77.8228854555498
  0
ARC
  5
3B4
330
2
100
AcDbEntity
  8
0
100
AcDbCircle
 10
1649.731322404865
 20
1628.110227876962
 30
0.0
 40
0.5
100
AcDbArc
 50
357.2286381810841
 51
114.5506471193482
  0
ARC
  5
3B5
330
2
100
AcDbEntity
  8
0
100
AcDbCircle
 10
1649.731322404865
 20
1642.663737374407
 30
0.0
 40
0.5
100
AcDbArc
 50
245.4493528806517
 51
2.771361818915941
  0
CIRCLE
  5
3B6
330
2
100
AcDbEntity
  8
0
100
AcDbCircle
 10
1646.407342813029
 20
1635.386982625685
 30
0.0
 40
7.5
  0
LINE
  5
459
330
2
100
AcDbEntity
  8
T
100
AcDbLine
 10
1738.657823896887
 20
1621.836982625684
 30
0.0
 11
1746.953005907772
 21
1621.836982625684
 31
0.0
  0
LINE
  5
45A
330
2
100
AcDbEntity
  8
T
100
AcDbLine
 10
1742.805414902329
 20
1625.984573631127
 30
0.0
 11
1742.805414902329
 21
1617.689391620242
 31
0.0
  0
LINE
  5
45B
330
2
100
AcDbEntity
  8
T
100
AcDbLine
 10
1742.805414902329
 20
1653.084573631127
 30
0.0
 11
1742.805414902329
 21
1644.789391620242
 31
0.0
  0
LINE
  5
45C
330
2
100
AcDbEntity
  8
T
100
AcDbLine
 10
1738.657823896887
 20
1648.936982625684
 30
0.0
 11
1746.953005907772
 21
1648.936982625684
 31
0.0
  0
ARC
  5
45D
330
2
100
AcDbEntity
  8
0
  6
HIDDEN2
370
    15
100
AcDbCircle
 10
1645.438428339071
 20
1693.154616253884
 30
0.0
 40
0.3000013819991668
100
AcDbArc
 50
188.7217791643186
 51
269.9999973525409
  0
ARC
  5
45E
330
2
100
AcDbEntity
  8
0
  6
HIDDEN2
370
    15
100
AcDbCircle
 10
1646.342699485708
 20
1694.354618650068
 30
0.0
 40
1.500003782708649
100
AcDbArc
 50
270.0000076543642
 51
351.6754029984623
  0
LINE
  5
45F
330
2
100
AcDbEntity
  8
0
  6
HIDDEN2
370
    15
100
AcDbLine
 10
1645.428405283051
 20
1692.854614817449
 30
0.0
 11
1646.362269731735
 21
1692.854614817449
 31
0.0
  0
ARC
  5
460
330
2
100
AcDbEntity
  8
0
  6
HIDDEN2
370
    15
100
AcDbCircle
 10
1793.407342813029
 20
1715.854614817448
 30
0.0
 40
150.0
100
AcDbArc
 50
182.161117653305
 51
188.7216603834594
  0
ARC
  5
461
330
2
100
AcDbEntity
  8
0
  6
HIDDEN2
370
    15
100
AcDbCircle
 10
1499.407342813029
 20
1715.854614817449
 30
0.0
 40
150.0
100
AcDbArc
 50
351.6756577797691
 51
357.8388823466949
  0
LINE
  5
462
330
2
100
AcDbEntity
  8
T
100
AcDbLine
 10
1831.126487878229
 20
1664.836917441737
 30
0.0
 11
1831.126487878229
 21
1605.937047809631
 31
0.0
  0
LINE
  5
463
330
2
100
AcDbEntity
  8
T
100
AcDbLine
 10
1616.957407996975
 20
1635.386982625685
 30
0.0
 11
1860.0
 21
1635.386982625685
 31
0.0
  0
LINE
  5
464
330
2
100
AcDbEntity
  8
T
100
AcDbLine
 10
1646.407342813029
 20
1605.937047809631
 30
0.0
 11
1646.407342813029
 21
1751.023319105916
 31
0.0
  0
ARC
  5
465
330
2
100
AcDbEntity
  8
0
100
AcDbCircle
 10
1836.426488068964
 20
1630.651287740431
 30
0.0
 40
1.5
100
AcDbArc
 50
135.3497060271263
 51
180.0000050089504
  0
ARC
  5
466
330
2
100
AcDbEntity
  8
0
100
AcDbCircle
 10
1825.826487687495
 20
1630.651287740431
 30
0.0
 40
1.5
100
AcDbArc
 50
0.0
 51
44.6502955667251
  0
ARC
  5
467
330
2
100
AcDbEntity
  8
0
100
AcDbCircle
 10
1833.426487830546
 20
1629.236982530317
 30
0.0
 40
1.5
100
AcDbArc
 50
269.9999974955313
 51
0.0
  0
LINE
  5
468
330
2
100
AcDbEntity
  8
0
100
AcDbLine
 10
1830.626487878229
 20
1630.007202452383
 30
0.0
 11
1830.626487878229
 21
1630.007302452383
 31
0.0
  0
LINE
  5
469
330
2
100
AcDbEntity
  8
0
100
AcDbLine
 10
1830.626487878229
 20
1629.250462478361
 30
0.0
 11
1830.626587878229
 21
1629.250462478361
 31
0.0
  0
LINE
  5
46A
330
2
100
AcDbEntity
  8
0
100
AcDbLine
 10
1831.626487878229
 20
1627.736982530317
 30
0.0
 11
1833.426487830546
 21
1627.736982530317
 31
0.0
  0
CIRCLE
  5
46B
330
2
100
AcDbEntity
  8
0
100
AcDbCircle
 10
1833.276487973597
 20
1629.236982530317
 30
0.0
 40
0.6000000238418579
  0
CIRCLE
  5
46C
330
2
100
AcDbEntity
  8
0
100
AcDbCircle
 10
1828.976487782862
 20
1629.236982530317
 30
0.0
 40
0.6000000238418579
  0
ARC
  5
46D
330
2
100
AcDbEntity
  8
0
100
AcDbCircle
 10
1828.826487925913
 20
1629.236982530317
 30
0.0
 40
1.5
100
AcDbArc
 50
179.999991348572
 51
270.000000683243
  0
LINE
  5
46E
330
2
100
AcDbEntity
  8
0
100
AcDbLine
 10
1828.826487925913
 20
1627.736982530317
 30
0.0
 11
1830.626487878229
 21
1627.736982530317
 31
0.0
  0
LINE
  5
46F
330
2
100
AcDbEntity
  8
0
100
AcDbLine
 10
1830.626487878229
 20
1630.412045440152
 30
0.0
 11
1830.626487878229
 21
1627.736982530317
 31
0.0
  0
LINE
  5
470
330
2
100
AcDbEntity
  8
0
100
AcDbLine
 10
1831.626487878229
 20
1630.412045440152
 30
0.0
 11
1831.626487878229
 21
1627.736982530317
 31
0.0
  0
LINE
  5
471
330
2
100
AcDbEntity
  8
0
100
AcDbLine
 10
1827.326487925913
 20
1630.651287740431
 30
0.0
 11
1827.326487925913
 21
1629.236982530317
 31
0.0
  0
LINE
  5
472
330
2
100
AcDbEntity
  8
0
100
AcDbLine
 10
1834.926487830546
 20
1630.651287740431
 30
0.0
 11
1834.926487830546
 21
1629.236982530317
 31
0.0
  0
ARC
  5
473
330
2
100
AcDbEntity
  8
0
100
AcDbCircle
 10
1831.126487878229
 20
1635.886982625684
 30
0.0
 40
5.949999809265135
100
AcDbArc
 50
315.3497044332749
 51
224.6502903303978
  0
ARC
  5
474
330
2
100
AcDbEntity
  8
0
100
AcDbCircle
 10
1646.407342813029
 20
1635.386982625685
 30
0.0
 40
21.39586580731429
100
AcDbArc
 50
90.0
 51
345.1193712779103
  0
ARC
  5
475
330
2
100
AcDbEntity
  8
0
100
AcDbCircle
 10
1646.407342813029
 20
1635.386982625685
 30
0.0
 40
21.39586580731429
100
AcDbArc
 50
14.6463071721138
 51
90.0
  0
LINE
  5
476
330
2
100
AcDbEntity
  8
0
100
AcDbLine
 10
1647.407342813028
 20
1627.586982625684
 30
0.0
 11
1647.407342813028
 21
1627.953948252025
 31
0.0
  0
LINE
  5
477
330
2
100
AcDbEntity
  8
0
100
AcDbLine
 10
1647.407342813028
 20
1642.820016999344
 30
0.0
 11
1647.407342813028
 21
1643.186982625685
 31
0.0
  0
LINE
  5
478
330
2
100
AcDbEntity
  8
0
100
AcDbLine
 10
1645.407342813028
 20
1643.186982625685
 30
0.0
 11
1645.407342813028
 21
1642.820016999344
 31
0.0
  0
LINE
  5
479
330
2
100
AcDbEntity
  8
0
100
AcDbLine
 10
1645.407342813028
 20
1627.953948252025
 30
0.0
 11
1645.407342813028
 21
1627.586982625684
 31
0.0
  0
ARC
  5
47A
330
2
100
AcDbEntity
  8
0
100
AcDbCircle
 10
1648.653091112348
 20
1644.102291832827
 30
0.0
 40
0.50000000000002
100
AcDbArc
 50
255.550440904654
 51
3.342031477664027
  0
LWPOLYLINE
  5
47B
330
2
100
AcDbEntity
  8
0
100
AcDbPolyline
 90
        3
 70
   128
 43
0.0
 10
1646.715113479886
 20
1626.892556381574
 10
1646.704054551967
 20
1626.892160652873
 10
1646.099572146171
 20
1626.892556381574
  0
ARC
  5
47C
330
2
100
AcDbEntity
  8
0
100
AcDbCircle
 10
1646.407342813029
 20
1635.386982625685
 30
0.0
 40
8.500000000000008
100
AcDbArc
 50
272.0750371397145
 51
284.4495590953461
  0
ARC
  5
47D
330
2
100
AcDbEntity
  8
0
100
AcDbCircle
 10
1646.407342813029
 20
1635.386982625685
 30
0.0
 40
8.499999999999998
100
AcDbArc
 50
75.55044090465393
 51
87.92496286028551
  0
LWPOLYLINE
  5
47E
330
2
100
AcDbEntity
  8
0
100
AcDbPolyline
 90
        3
 70
   128
 43
0.0
 10
1646.099572146171
 20
1643.881408869794
 10
1646.11063107409
 20
1643.881804598496
 10
1646.715113479886
 20
1643.881408869794
  0
ARC
  5
47F
330
2
100
AcDbEntity
  8
0
100
AcDbCircle
 10
1646.407342813029
 20
1635.386982625685
 30
0.0
 40
8.500000000000012
100
AcDbArc
 50
92.07503713971449
 51
267.9249628602855
  0
ARC
  5
480
330
2
100
AcDbEntity
  8
0
100
AcDbCircle
 10
1648.653091112348
 20
1626.671673418542
 30
0.0
 40
0.5000000000000645
100
AcDbArc
 50
356.6579685222186
 51
104.449559095346
  0
LWPOLYLINE
  5
481
330
2
100
AcDbEntity
  8
0
100
AcDbPolyline
 90
        3
 70
   128
 43
0.0
 10
1648.442391615158
 20
1652.373866640914
 10
1648.871447650021
 20
1648.055106609782
 10
1649.152240772212
 20
1644.131440024155
  0
LWPOLYLINE
  5
482
330
2
100
AcDbEntity
  8
0
100
AcDbPolyline
 90
        3
 70
   128
 43
0.0
 10
1649.152240772212
 20
1626.642525227214
 10
1648.871447650021
 20
1622.718858641587
 10
1648.442391615158
 20
1618.400098610455
  0
LINE
  5
483
330
2
100
AcDbEntity
  8
0
100
AcDbLine
 10
1648.457342813028
 20
1643.186982625685
 30
0.0
 11
1644.357342813028
 21
1643.186982625685
 31
0.0
  0
ARC
  5
484
330
2
100
AcDbEntity
  8
0
100
AcDbCircle
 10
1644.357342813028
 20
1643.386982625684
 30
0.0
 40
0.2000000000000028
100
AcDbArc
 50
180.0
 51
270.0
  0
ARC
  5
485
330
2
100
AcDbEntity
  8
0
100
AcDbCircle
 10
1648.457342813028
 20
1643.386982625684
 30
0.0
 40
0.2000000000000028
100
AcDbArc
 50
270.0
 51
0.0
  0
LINE
  5
486
330
2
100
AcDbEntity
  8
0
100
AcDbLine
 10
1648.62315963106
 20
1643.603188530466
 30
0.0
 11
1648.642013743864
 21
1643.587973165301
 31
0.0
  0
LINE
  5
487
330
2
100
AcDbEntity
  8
0
100
AcDbLine
 10
1648.657342813029
 20
1643.583780781062
 30
0.0
 11
1648.657342813029
 21
1643.386982625684
 31
0.0
  0
LINE
  5
488
330
2
100
AcDbEntity
  8
0
100
AcDbLine
 10
1644.157342813028
 20
1643.583780781062
 30
0.0
 11
1644.157342813028
 21
1643.386982625684
 31
0.0
  0
LINE
  5
489
330
2
100
AcDbEntity
  8
0
100
AcDbLine
 10
1648.642013743864
 20
1627.185992086068
 30
0.0
 11
1648.62315963106
 21
1627.170776720903
 31
0.0
  0
LINE
  5
48A
330
2
100
AcDbEntity
  8
0
100
AcDbLine
 10
1644.157342813028
 20
1627.386982625684
 30
0.0
 11
1644.157342813028
 21
1627.190184470307
 31
0.0
  0
LINE
  5
48B
330
2
100
AcDbEntity
  8
0
100
AcDbLine
 10
1648.657342813029
 20
1627.386982625684
 30
0.0
 11
1648.657342813029
 21
1627.190184470307
 31
0.0
  0
LINE
  5
48C
330
2
100
AcDbEntity
  8
0
100
AcDbLine
 10
1644.357342813028
 20
1627.586982625684
 30
0.0
 11
1648.457342813028
 21
1627.586982625684
 31
0.0
  0
ARC
  5
48D
330
2
100
AcDbEntity
  8
0
100
AcDbCircle
 10
1648.457342813028
 20
1627.386982625684
 30
0.0
 40
0.200000000000017
100
AcDbArc
 50
0.0
 51
90.0
  0
ARC
  5
48E
330
2
100
AcDbEntity
  8
0
100
AcDbCircle
 10
1644.357342813028
 20
1627.386982625684
 30
0.0
 40
0.200000000000017
100
AcDbArc
 50
90.0
 51
180.0
  0
ARC
  5
48F
330
2
100
AcDbEntity
  8
0
100
AcDbCircle
 10
1647.945608119151
 20
1652.317243694197
 30
0.0
 40
0.5000000000000076
100
AcDbArc
 50
6.50246119168013
 51
84.80842188900776
  0
ARC
  5
490
330
2
100
AcDbEntity
  8
0
100
AcDbCircle
 10
1646.407342813029
 20
1635.386982625685
 30
0.0
 40
17.5
100
AcDbArc
 50
84.80842188900776
 51
275.1915781109922
  0
ARC
  5
491
330
2
100
AcDbEntity
  8
0
100
AcDbCircle
 10
1647.945608119151
 20
1618.456721557172
 30
0.0
 40
0.5000000000000138
100
AcDbArc
 50
275.1915781109922
 51
353.497538808333
  0
LWPOLYLINE
  5
492
330
2
100
AcDbEntity
  8
0
100
AcDbPolyline
 90
        4
 70
   128
 43
0.0
 10
1647.99085121639
 20
1652.815192549153
 10
1648.780326202501
 20
1652.725349037584
 10
1649.564909219544
 20
1652.599762017417
 10
1650.098694353645
 20
1652.493236564042
  0
LWPOLYLINE
  5
493
330
2
100
AcDbEntity
  8
0
100
AcDbPolyline
 90
        4
 70
   128
 43
0.0
 10
1650.098694353645
 20
1618.280728687326
 10
1649.564909219544
 20
1618.174203233952
 10
1648.780326202501
 20
1618.048616213785
 10
1647.99085121639
 20
1617.958772702216
  0
LWPOLYLINE
  5
494
330
2
100
AcDbEntity
  8
0
100
AcDbPolyline
 90
        3
 70
   128
 43
0.0
 10
1648.895269564841
 20
1643.514726499455
 10
1648.768925648026
 20
1643.552331761726
 10
1648.642013743864
 20
1643.587973165301
  0
LWPOLYLINE
  5
495
330
2
100
AcDbEntity
  8
0
100
AcDbPolyline
 90
        3
 70
   128
 43
0.0
 10
1648.642013743864
 20
1627.185992086068
 10
1648.768925648026
 20
1627.221633489643
 10
1648.895269564841
 20
1627.259238751914
  0
LWPOLYLINE
  5
496
330
2
100
AcDbEntity
  8
0
100
AcDbPolyline
 90
        4
 70
   128
 43
0.0
 10
1650.222003434666
 20
1642.866163167722
 10
1649.795540710244
 20
1643.130342805481
 10
1649.350847333096
 20
1643.348027157491
 10
1648.895269564841
 20
1643.514726499455
  0
LWPOLYLINE
  5
497
330
2
100
AcDbEntity
  8
0
100
AcDbPolyline
 90
        4
 70
   128
 43
0.0
 10
1648.895269564841
 20
1627.259238751914
 10
1649.350847333096
 20
1627.425938093878
 10
1649.795540710244
 20
1627.643622445888
 10
1649.901873173953
 20
1627.704209250743
  0
ARC
  5
498
330
2
100
AcDbEntity
  8
0
100
AcDbCircle
 10
1640.855872224794
 20
1651.983101880134
 30
0.0
 40
35.49999999999882
100
AcDbArc
 50
288.4953016226958
 51
301.2913909477527
  0
ARC
  5
499
330
2
100
AcDbEntity
  8
0
100
AcDbCircle
 10
1640.855872224793
 20
1618.790863371234
 30
0.0
 40
35.49999999999949
100
AcDbArc
 50
58.70860905224736
 51
71.50469837730425
  0
LWPOLYLINE
  5
49A
330
2
100
AcDbEntity
  8
0
100
AcDbPolyline
 90
        5
 70
   128
 43
0.0
 10
1652.176606939575
 20
1618.338324717169
 10
1654.215522919948
 20
1619.169098967429
 10
1656.166097590872
 20
1620.261946917103
 10
1657.709232263705
 20
1621.378751258574
 10
1658.473756362304
 20
1622.066209350572
  0
LWPOLYLINE
  5
49B
330
2
100
AcDbEntity
  8
0
100
AcDbPolyline
 90
        6
 70
   128
 43
0.0
 10
1658.469397285218
 20
1648.712384570622
 10
1657.789075132478
 20
1649.330460949221
 10
1656.270407308237
 20
1650.444205436127
 10
1654.952987636961
 20
1651.228753427258
 10
1653.5759209775
 20
1651.897621231924
 10
1652.207047832558
 20
1652.424466427374
  0
LWPOLYLINE
  5
49C
330
2
100
AcDbEntity
  8
0
100
AcDbPolyline
 90
        8
 70
   128
 43
0.0
 10
1665.717282885653
 20
1628.299868235027
 10
1665.613236517527
 20
1628.055578721359
 10
1665.073403075939
 20
1626.994268292266
 10
1664.462669258447
 20
1625.985710232542
 10
1663.766908193245
 20
1625.008958687597
 10
1663.009821639552
 20
1624.100948053477
 10
1662.024214723156
 20
1623.110170664471
 10
1661.497607604735
 20
1622.660018828687
  0
LINE
  5
49D
330
2
100
AcDbEntity
  8
0
100
AcDbLine
 10
1660.963736348901
 20
1622.264052503362
 30
0.0
 11
1660.487518465028
 21
1621.94668509962
 31
0.0
  0
LWPOLYLINE
  5
49E
330
2
100
AcDbEntity
  8
0
100
AcDbPolyline
 90
        9
 70
   128
 43
0.0
 10
1661.483105142491
 20
1648.130080078091
 10
1661.512198681448
 20
1648.108546376982
 10
1661.986901673606
 20
1647.70799351018
 10
1662.919358257082
 20
1646.789475258415
 10
1663.654193658945
 20
1645.931011862927
 10
1664.333767050865
 20
1645.00690430483
 10
1664.968273738558
 20
1643.994691715863
 10
1665.530416327417
 20
1642.925996650205
 10
1665.737633781045
 20
1642.416313761341
  0
LINE
  5
49F
330
2
100
AcDbEntity
  8
0
100
AcDbLine
 10
1660.487518465028
 20
1648.827280151749
 30
0.0
 11
1661.03239254019
 21
1648.463245461109
 31
0.0
  0
ARC
  5
4A0
330
2
100
AcDbEntity
  8
0
100
AcDbCircle
 10
1646.407342813029
 20
1635.386982625685
 30
0.0
 40
19.46517259055984
100
AcDbArc
 50
43.66805664014392
 51
316.3319433598561
  0
LWPOLYLINE
  5
4A1
330
2
100
AcDbEntity
  8
0
100
AcDbPolyline
 90
        9
 70
   128
 43
0.0
 10
1660.242353107238
 20
1622.243997001296
 10
1660.278436215909
 20
1622.253795636497
 10
1660.322927382312
 20
1622.243206241079
 10
1660.370711728296
 20
1622.21344621327
 10
1660.416295778936
 20
1622.167936882027
 10
1660.454439013842
 20
1622.111910177706
 10
1660.480756337849
 20
1622.051807148919
 10
1660.492222208665
 20
1621.994537474452
 10
1660.487518465028
 20
1621.94668509962
  0
LWPOLYLINE
  5
4A2
330
2
100
AcDbEntity
  8
0
100
AcDbPolyline
 90
        4
 70
   128
 43
0.0
 10
1659.29424272043
 20
1621.647042586522
 10
1659.68533241818
 20
1621.888228083662
 10
1660.072163265458
 20
1622.133744120873
 10
1660.242353107238
 20
1622.243997001296
  0
ARC
  5
4A3
330
2
100
AcDbEntity
  8
0
100
AcDbCircle
 10
1646.407342813029
 20
1635.386982625685
 30
0.0
 40
17.99999999999999
100
AcDbArc
 50
71.50469837730425
 51
288.4953016226958
  0
LWPOLYLINE
  5
4A4
330
2
100
AcDbEntity
  8
0
100
AcDbPolyline
 90
        9
 70
   128
 43
0.0
 10
1660.487518465028
 20
1648.827280151749
 10
1660.492222208665
 20
1648.779427776917
 10
1660.480756337849
 20
1648.72215810245
 10
1660.454439013842
 20
1648.662055073663
 10
1660.416295778936
 20
1648.606028369341
 10
1660.370711728296
 20
1648.560519038099
 10
1660.322927382312
 20
1648.53075901029
 10
1660.278436215909
 20
1648.520169614871
 10
1660.242353107238
 20
1648.529968250073
  0
LWPOLYLINE
  5
4A5
330
2
100
AcDbEntity
  8
0
100
AcDbPolyline
 90
        4
 70
   128
 43
0.0
 10
1660.242353107238
 20
1648.529968250073
 10
1660.161356096192
 20
1648.582612102907
 10
1659.800639993239
 20
1648.813284562731
 10
1659.29424272043
 20
1649.126922664847
  0
LINE
  5
4A6
330
2
100
AcDbEntity
  8
0
100
AcDbLine
 10
1660.780390644035
 20
1648.172210613341
 30
0.0
 11
1660.242353107237
 21
1648.529968250073
 31
0.0
  0
LINE
  5
4A7
330
2
100
AcDbEntity
  8
0
100
AcDbLine
 10
1660.242353107238
 20
1622.243997001296
 30
0.0
 11
1660.712281439375
 21
1622.555682470628
 31
0.0
  0
CIRCLE
  5
4A8
330
2
100
AcDbEntity
  8
0
100
AcDbCircle
 10
1646.407342813029
 20
1635.386982625685
 30
0.0
 40
24.00000000000023
  0
LINE
  5
4A9
330
2
100
AcDbEntity
  8
0
100
AcDbLine
 10
1649.901873173953
 20
1627.704209250743
 30
0.0
 11
1650.222003434666
 21
1627.907802083647
 31
0.0
  0
LWPOLYLINE
  5
4AA
330
2
100
AcDbEntity
  8
0
100
AcDbPolyline
 90
        8
 70
   128
 43
0.0
 10
1660.71201111895
 20
1622.555579670071
 10
1660.712053228744
 20
1622.555608083296
 10
1661.406307851837
 20
1623.076953418294
 10
1662.086937844494
 20
1623.684089622262
 10
1662.738625997542
 20
1624.350460168659
 10
1663.717014324435
 20
1625.525963796041
 10
1664.594140314699
 20
1626.815406230663
 10
1664.955535584054
 20
1627.476047532506
  0
LWPOLYLINE
  5
4AB
330
2
100
AcDbEntity
  8
0
100
AcDbPolyline
 90
        8
 70
   128
 43
0.0
 10
1665.04105359076
 20
1643.181195652238
 10
1664.504637649638
 20
1644.132318315236
 10
1663.625111111979
 20
1645.391744627779
 10
1662.64887585724
 20
1646.536699418677
 10
1661.733699126619
 20
1647.42604351843
 10
1660.779832165024
 20
1648.173029440351
 10
1660.779790187488
 20
1648.173057939506
 10
1660.779790187488
 20
1648.173057939506
  0
LINE
  5
4AC
330
2
100
AcDbEntity
  8
0
100
AcDbLine
 10
1661.497607604735
 20
1622.660018828687
 30
0.0
 11
1660.963766176805
 21
1622.264152499054
 31
0.0
  0
ARC
  5
4AD
330
2
100
AcDbEntity
  8
0
100
AcDbCircle
 10
1646.407342813029
 20
1635.386982625685
 30
0.0
 40
21.38380433147148
100
AcDbArc
 50
90.0
 51
345.0432956517772
  0
ARC
  5
4AE
330
2
100
AcDbEntity
  8
0
100
AcDbCircle
 10
1646.407342813029
 20
1635.386982625685
 30
0.0
 40
21.38380433147147
100
AcDbArc
 50
14.72355487422571
 51
90.0
  0
LINE
  5
4AF
330
2
100
AcDbEntity
  8
0
100
AcDbLine
 10
1661.032228222234
 20
1648.463798463195
 30
0.0
 11
1661.483105142491
 21
1648.130080078091
 31
0.0
  0
ARC
  5
4B0
330
2
100
AcDbEntity
  8
0
100
AcDbCircle
 10
1646.407342813029
 20
1568.854614817448
 30
0.0
 40
150.0
100
AcDbArc
 50
81.6757117336922
 51
82.46510899536948
  0
ARC
  5
4B1
330
2
100
AcDbEntity
  8
0
100
AcDbCircle
 10
1646.407342813029
 20
1862.854614817448
 30
0.0
 40
150.0
100
AcDbArc
 50
273.4513310695402
 51
278.7215830648332
  0
LWPOLYLINE
  5
4B2
330
2
100
AcDbEntity
  8
0
100
AcDbPolyline
 90
        5
 70
   128
 43
0.0
 10
1649.637554985933
 20
1713.972445939805
 10
1649.708081472399
 20
1713.902716077315
 10
1649.971256823495
 20
1713.642910693377
 10
1650.185436563039
 20
1713.43149649727
 10
1650.34889605616
 20
1713.269994621685
  0
ARC
  5
4B3
330
2
100
AcDbEntity
  8
0
100
AcDbCircle
 10
1655.407342813029
 20
1713.625763719546
 30
0.0
 40
0.5000000000000103
100
AcDbArc
 50
270.0
 51
273.451331069514
  0
ARC
  5
4B4
330
2
100
AcDbEntity
  8
0
100
AcDbCircle
 10
1650.700710159967
 20
1713.625763719546
 30
0.0
 40
0.5000000000000022
100
AcDbArc
 50
225.4310901886721
 51
270.0
  0
ARC
  5
4B5
330
2
100
AcDbEntity
  8
0
100
AcDbCircle
 10
1639.407342813029
 20
1713.518584335853
 30
0.0
 40
0.500000000000029
100
AcDbArc
 50
231.7800233897985
 51
267.3162732412059
  0
ARC
  5
4B6
330
2
100
AcDbEntity
  8
0
100
AcDbCircle
 10
1646.407342813029
 20
1862.854614817448
 30
0.0
 40
150.0
100
AcDbArc
 50
267.3162732411537
 51
272.6837267588463
  0
LINE
  5
4B7
330
2
100
AcDbEntity
  8
0
100
AcDbLine
 10
1669.407342813029
 20
1714.875677287471
 30
0.0
 11
1669.407342813029
 21
1715.809541736155
 31
0.0
  0
ARC
  5
4B8
330
2
100
AcDbEntity
  8
0
100
AcDbCircle
 10
1667.907338980409
 20
1715.789971490128
 30
0.0
 40
1.500003782708667
100
AcDbArc
 50
0.0
 51
81.67540299845231
  0
ARC
  5
4B9
330
2
100
AcDbEntity
  8
0
100
AcDbCircle
 10
1669.107341376593
 20
1714.885700343491
 30
0.0
 40
0.3000013819991597
100
AcDbArc
 50
278.7217791643055
 51
0.0
  0
ARC
  5
4BA
330
2
100
AcDbEntity
  8
0
100
AcDbCircle
 10
1646.407342813029
 20
1862.854614817448
 30
0.0
 40
150.0
100
AcDbArc
 50
263.4706376357604
 51
266.5486689304598
  0
LINE
  5
4BB
330
2
100
AcDbEntity
  8
0
100
AcDbLine
 10
1637.407342813029
 20
1713.125763719546
 30
0.0
 11
1648.653091112348
 21
1713.125763719546
 31
0.0
  0
ARC
  5
4BC
330
2
100
AcDbEntity
  8
0
100
AcDbCircle
 10
1648.653091112348
 20
1713.625763719546
 30
0.0
 40
0.5
100
AcDbArc
 50
270.0
 51
0.0
  0
LINE
  5
4BD
330
2
100
AcDbEntity
  8
0
100
AcDbLine
 10
1642.707342813028
 20
1746.154614817448
 30
0.0
 11
1641.707342813028
 21
1745.154614817448
 31
0.0
  0
LINE
  5
4BE
330
2
100
AcDbEntity
  8
0
100
AcDbLine
 10
1651.107342813028
 20
1745.154614817448
 30
0.0
 11
1650.107342813029
 21
1746.154614817448
 31
0.0
  0
ARC
  5
4BF
330
2
100
AcDbEntity
  8
0
100
AcDbCircle
 10
1625.211477005714
 20
1719.735080321956
 30
0.0
 40
0.2000000000000133
100
AcDbArc
 50
118.4317058207425
 51
200.0000000000001
  0
ARC
  5
4C0
330
2
100
AcDbEntity
  8
0
100
AcDbCircle
 10
1667.603208620343
 20
1719.735080321956
 30
0.0
 40
0.2000000000000099
100
AcDbArc
 50
339.9999999999999
 51
61.56829417925747
  0
LINE
  5
4C1
330
2
100
AcDbEntity
  8
0
100
AcDbLine
 10
1625.023538481556
 20
1719.666676293291
 30
0.0
 11
1626.942170222468
 21
1714.395278908888
 31
0.0
  0
LINE
  5
4C2
330
2
100
AcDbEntity
  8
0
100
AcDbLine
 10
1667.105879165242
 20
1717.783917994004
 30
0.0
 11
1667.7911471445
 21
1719.666676293291
 31
0.0
  0
ARC
  5
4C3
330
2
100
AcDbEntity
  8
0
100
AcDbCircle
 10
1627.412016532862
 20
1714.566288980551
 30
0.0
 40
0.5000000000000247
100
AcDbArc
 50
200.0000000000001
 51
262.7003217417416
  0
ARC
  5
4C4
330
2
100
AcDbEntity
  8
0
100
AcDbCircle
 10
1646.407342813029
 20
1862.854614817448
 30
0.0
 40
150.0
100
AcDbArc
 50
262.7003217417153
 51
263.021589988871
  0
LWPOLYLINE
  5
4C5
330
2
100
AcDbEntity
  8
0
100
AcDbPolyline
 90
        6
 70
   128
 43
0.0
 10
1659.473929303665
 20
1714.073697871622
 10
1659.607550587486
 20
1714.079026387106
 10
1659.959874776145
 20
1714.121267300103
 10
1660.26723664978
 20
1714.198649959683
 10
1660.433945931822
 20
1714.277806555731
 10
1660.469980287915
 20
1714.307322321917
  0
LWPOLYLINE
  5
4C6
330
2
100
AcDbEntity
  8
0
100
AcDbPolyline
 90
        3
 70
   128
 43
0.0
 10
1660.470126015275
 20
1714.305447366034
 10
1660.724572806013
 20
1714.49685359149
 10
1661.013100439206
 20
1714.733828055644
  0
LWPOLYLINE
  5
4C7
330
2
100
AcDbEntity
  8
0
100
AcDbPolyline
 90
       15
 70
   128
 43
0.0
 10
1661.015142298881
 20
1714.730679828676
 10
1661.147602440306
 20
1714.83262678902
 10
1661.643300193752
 20
1715.188350402759
 10
1662.152089873328
 20
1715.522644337509
 10
1662.692791556792
 20
1715.850935284102
 10
1663.24256248652
 20
1716.162050414044
 10
1663.7981035561
 20
1716.460353716299
 10
1664.351262165777
 20
1716.749153596664
 10
1664.858376883632
 20
1717.004161954682
 10
1665.311860227296
 20
1717.22037232676
 10
1665.705402914257
 20
1717.394618315145
 10
1665.976203774607
 20
1717.503432093774
 10
1666.209456951831
 20
1717.579622910753
 10
1666.414002862985
 20
1717.625739689963
 10
1666.548078976869
 20
1717.64240558737
  0
ARC
  5
4C8
330
2
100
AcDbEntity
  8
0
100
AcDbCircle
 10
1666.917940641084
 20
1717.852322022669
 30
0.0
 40
0.1999999999999958
100
AcDbArc
 50
270.0
 51
340.0000000000105
  0
LINE
  5
4C9
330
2
100
AcDbEntity
  8
0
100
AcDbLine
 10
1659.724125955248
 20
1730.854614817448
 30
0.0
 11
1659.724125955248
 21
1744.654614817449
 31
0.0
  0
LINE
  5
4CA
330
2
100
AcDbEntity
  8
0
100
AcDbLine
 10
1633.090559670808
 20
1744.654614817449
 30
0.0
 11
1633.090559670808
 21
1730.854614817448
 31
0.0
  0
LINE
  5
4CB
330
2
100
AcDbEntity
  8
0
100
AcDbLine
 10
1622.407342813028
 20
1727.854614817448
 30
0.0
 11
1622.407342813028
 21
1726.854614817448
 31
0.0
  0
LINE
  5
4CC
330
2
100
AcDbEntity
  8
0
100
AcDbLine
 10
1670.407342813028
 20
1726.854614817448
 30
0.0
 11
1670.407342813028
 21
1727.854614817448
 31
0.0
  0
LINE
  5
4CD
330
2
100
AcDbEntity
  8
0
100
AcDbLine
 10
1622.407342813028
 20
1726.854614817448
 30
0.0
 11
1624.886730424226
 21
1720.042553341605
 31
0.0
  0
LINE
  5
4CE
330
2
100
AcDbEntity
  8
0
100
AcDbLine
 10
1667.927955201831
 20
1720.042553341605
 30
0.0
 11
1670.407342813028
 21
1726.854614817448
 31
0.0
  0
ARC
  5
4CF
330
2
100
AcDbEntity
  8
0
100
AcDbCircle
 10
1667.740016677673
 20
1720.11095737027
 30
0.0
 40
0.1999999999999988
100
AcDbArc
 50
270.0
 51
339.9999999999999
  0
ARC
  5
4D0
330
2
100
AcDbEntity
  8
0
100
AcDbCircle
 10
1625.074668948383
 20
1720.11095737027
 30
0.0
 40
0.1999999999999955
100
AcDbArc
 50
200.0000000000001
 51
270.0
  0
LINE
  5
4D1
330
2
100
AcDbEntity
  8
0
100
AcDbLine
 10
1625.074668948383
 20
1719.91095737027
 30
0.0
 11
1667.740016677673
 21
1719.91095737027
 31
0.0
  0
LINE
  5
4D2
330
2
100
AcDbEntity
  8
0
100
AcDbLine
 10
1629.407342813028
 20
1730.354614817448
 30
0.0
 11
1629.407342813028
 21
1727.854614817448
 31
0.0
  0
LINE
  5
4D3
330
2
100
AcDbEntity
  8
0
100
AcDbLine
 10
1663.407342813028
 20
1727.854614817448
 30
0.0
 11
1663.407342813028
 21
1730.354614817448
 31
0.0
  0
ARC
  5
4D4
330
2
100
AcDbEntity
  8
0
100
AcDbCircle
 10
1629.907342813028
 20
1730.354614817448
 30
0.0
 40
0.5
100
AcDbArc
 50
90.0
 51
180.0
  0
ARC
  5
4D5
330
2
100
AcDbEntity
  8
0
100
AcDbCircle
 10
1662.907342813029
 20
1730.354614817448
 30
0.0
 40
0.5
100
AcDbArc
 50
0.0
 51
90.0
  0
LINE
  5
4D6
330
2
100
AcDbEntity
  8
0
100
AcDbLine
 10
1650.700710159967
 20
1713.125763719546
 30
0.0
 11
1650.715069248084
 21
1713.126670572061
 31
0.0
  0
LWPOLYLINE
  5
4D7
330
2
100
AcDbEntity
  8
0
100
AcDbPolyline
 90
        3
 70
   128
 43
0.0
 10
1648.806352812304
 20
1713.965814286401
 10
1648.871447650021
 20
1713.901696083589
 10
1649.152240772212
 20
1713.625763719546
  0
LWPOLYLINE
  5
4D8
330
2
100
AcDbEntity
  8
0
100
AcDbPolyline
 90
        9
 70
   128
 43
0.0
 10
1648.660601976225
 20
1713.126670572061
 10
1648.756703939467
 20
1713.137808551419
 10
1648.848916544416
 20
1713.16726310926
 10
1648.933778367716
 20
1713.213928597451
 10
1649.008103915394
 20
1713.276053313925
 10
1649.069103198092
 20
1713.351305257057
 10
1649.114486460064
 20
1713.43685966299
 10
1649.142550130709
 20
1713.529505039987
 10
1649.152240772212
 20
1713.625763719546
  0
LINE
  5
4D9
330
2
100
AcDbEntity
  8
0
100
AcDbLine
 10
1648.660601976225
 20
1713.126670572061
 30
0.0
 11
1648.653091112348
 21
1713.125763719546
 31
0.0
  0
LINE
  5
4DA
330
2
100
AcDbEntity
  8
0
100
AcDbLine
 10
1645.257342813028
 20
1746.154614817448
 30
0.0
 11
1647.557342813028
 21
1746.154614817448
 31
0.0
  0
LINE
  5
4DB
330
2
100
AcDbEntity
  8
0
100
AcDbLine
 10
1647.557342813028
 20
1746.154614817448
 30
0.0
 11
1647.557342813028
 21
1745.154614817448
 31
0.0
  0
LINE
  5
4DC
330
2
100
AcDbEntity
  8
0
100
AcDbLine
 10
1645.257342813028
 20
1745.154614817448
 30
0.0
 11
1645.257342813028
 21
1746.154614817448
 31
0.0
  0
LINE
  5
4DD
330
2
100
AcDbEntity
  8
0
100
AcDbLine
 10
1643.421124468701
 20
1746.154614817448
 30
0.0
 11
1643.421124468701
 21
1745.154614817449
 31
0.0
  0
LINE
  5
4DE
330
2
100
AcDbEntity
  8
0
100
AcDbLine
 10
1643.421124468701
 20
1746.154614817448
 30
0.0
 11
1645.257342813028
 21
1746.154614817448
 31
0.0
  0
LINE
  5
4DF
330
2
100
AcDbEntity
  8
0
100
AcDbLine
 10
1649.393561157356
 20
1746.154614817448
 30
0.0
 11
1649.393561157356
 21
1745.154614817449
 31
0.0
  0
LINE
  5
4E0
330
2
100
AcDbEntity
  8
0
100
AcDbLine
 10
1647.557342813028
 20
1746.154614817448
 30
0.0
 11
1649.393561157356
 21
1746.154614817448
 31
0.0
  0
LINE
  5
4E1
330
2
100
AcDbEntity
  8
0
100
AcDbLine
 10
1642.890597158307
 20
1746.154614817448
 30
0.0
 11
1641.850205553739
 21
1745.154614817448
 31
0.0
  0
LINE
  5
4E2
330
2
100
AcDbEntity
  8
0
100
AcDbLine
 10
1642.890597158307
 20
1746.154614817448
 30
0.0
 11
1643.421124468701
 21
1746.154614817448
 31
0.0
  0
LINE
  5
4E3
330
2
100
AcDbEntity
  8
0
100
AcDbLine
 10
1650.964480072317
 20
1745.154614817448
 30
0.0
 11
1649.92408846775
 21
1746.154614817448
 31
0.0
  0
LINE
  5
4E4
330
2
100
AcDbEntity
  8
0
100
AcDbLine
 10
1649.393561157356
 20
1746.154614817448
 30
0.0
 11
1649.92408846775
 21
1746.154614817448
 31
0.0
  0
LINE
  5
4E5
330
2
100
AcDbEntity
  8
0
100
AcDbLine
 10
1642.707342813028
 20
1746.154614817448
 30
0.0
 11
1642.890597158307
 21
1746.154614817448
 31
0.0
  0
LINE
  5
4E6
330
2
100
AcDbEntity
  8
0
100
AcDbLine
 10
1649.92408846775
 20
1746.154614817448
 30
0.0
 11
1650.107342813029
 21
1746.154614817448
 31
0.0
  0
LWPOLYLINE
  5
4E7
330
2
100
AcDbEntity
  8
0
100
AcDbPolyline
 90
        5
 70
   128
 43
0.0
 10
1652.188580541765
 20
1713.965814286401
 10
1654.048313997899
 20
1713.972268932763
 10
1655.873092071286
 20
1713.991694340723
 10
1657.6680984764
 20
1714.024403639579
 10
1659.415465027019
 20
1714.070341402501
  0
LINE
  5
4E8
330
2
100
AcDbEntity
  8
0
100
AcDbLine
 10
1640.907342813029
 20
1745.154614817449
 30
0.0
 11
1651.907342813029
 21
1745.154614817449
 31
0.0
  0
LINE
  5
4E9
330
2
100
AcDbEntity
  8
0
100
AcDbLine
 10
1651.907342813029
 20
1737.154614817449
 30
0.0
 11
1640.907342813029
 21
1737.154614817449
 31
0.0
  0
ARC
  5
4EA
330
2
100
AcDbEntity
  8
0
100
AcDbCircle
 10
1640.907342813029
 20
1744.654614817449
 30
0.0
 40
0.5
100
AcDbArc
 50
90.0
 51
180.0
  0
LINE
  5
4EB
330
2
100
AcDbEntity
  8
0
100
AcDbLine
 10
1640.407342813028
 20
1737.654614817449
 30
0.0
 11
1640.407342813028
 21
1744.654614817449
 31
0.0
  0
LINE
  5
4EC
330
2
100
AcDbEntity
  8
0
100
AcDbLine
 10
1652.407342813028
 20
1744.654614817449
 30
0.0
 11
1652.407342813028
 21
1737.654614817449
 31
0.0
  0
ARC
  5
4ED
330
2
100
AcDbEntity
  8
0
100
AcDbCircle
 10
1651.907342813029
 20
1744.654614817449
 30
0.0
 40
0.5
100
AcDbArc
 50
0.0
 51
90.0
  0
ARC
  5
4EE
330
2
100
AcDbEntity
  8
0
100
AcDbCircle
 10
1640.907342813029
 20
1737.654614817449
 30
0.0
 40
0.5
100
AcDbArc
 50
180.0
 51
270.0
  0
ARC
  5
4EF
330
2
100
AcDbEntity
  8
0
100
AcDbCircle
 10
1651.907342813029
 20
1737.654614817449
 30
0.0
 40
0.5
100
AcDbArc
 50
270.0
 51
0.0
  0
LWPOLYLINE
  5
4F0
330
2
100
AcDbEntity
  8
0
100
AcDbPolyline
 90
        8
 70
   128
 43
0.0
 10
1652.407342813028
 20
1741.097128425888
 10
1652.760470724636
 20
1741.409055433807
 10
1652.956529481038
 20
1741.713033492269
 10
1653.051790853815
 20
1742.077528809557
 10
1653.02398825067
 20
1742.403772933385
 10
1652.914703117865
 20
1742.679120152676
 10
1652.63200670736
 20
1743.033757838466
 10
1652.407342813028
 20
1743.212101209009
  0
LWPOLYLINE
  5
4F1
330
2
100
AcDbEntity
  8
0
100
AcDbPolyline
 90
        8
 70
   128
 43
0.0
 10
1640.407342813028
 20
1743.212101209009
 10
1640.247891174087
 20
1743.091365225503
 10
1639.968514510988
 20
1742.789168579531
 10
1639.789261754319
 20
1742.397926621767
 10
1639.761627965476
 20
1742.096604069731
 10
1639.822106484735
 20
1741.801711169642
 10
1640.005192726767
 20
1741.469727540841
 10
1640.407342813028
 20
1741.097128425888
  0
LINE
  5
4F2
330
2
100
AcDbEntity
  8
0
100
AcDbLine
 10
1652.407342813028
 20
1741.097128425888
 30
0.0
 11
1652.407342813028
 21
1740.354614817449
 31
0.0
  0
LINE
  5
4F3
330
2
100
AcDbEntity
  8
0
100
AcDbLine
 10
1652.407342813028
 20
1743.954614817448
 30
0.0
 11
1652.407342813028
 21
1743.212101209009
 31
0.0
  0
LINE
  5
4F4
330
2
100
AcDbEntity
  8
0
100
AcDbLine
 10
1640.407342813028
 20
1743.212101209009
 30
0.0
 11
1640.407342813028
 21
1743.954614817448
 31
0.0
  0
LINE
  5
4F5
330
2
100
AcDbEntity
  8
0
100
AcDbLine
 10
1640.407342813028
 20
1740.354614817449
 30
0.0
 11
1640.407342813028
 21
1741.097128425888
 31
0.0
  0
LWPOLYLINE
  5
4F6
330
2
100
AcDbEntity
  8
0
100
AcDbPolyline
 90
       12
 70
   128
 43
0.0
 10
1633.649991990855
 20
1745.154614817449
 10
1633.645898624542
 20
1745.15460149465
 10
1633.639921893437
 20
1745.154534168442
 10
1633.62752349879
 20
1745.154213063252
 10
1633.599774505903
 20
1745.152603229855
 10
1633.536450974809
 20
1745.144227169304
 10
1633.365795471825
 20
1745.085087150997
 10
1633.21722743352
 20
1744.969893956781
 10
1633.172467637386
 20
1744.912339354619
 10
1633.118950115078
 20
1744.80510852347
 10
1633.093922174794
 20
1744.678050049114
 10
1633.093314811526
 20
1744.654614817449
  0
LINE
  5
4F7
330
2
100
AcDbEntity
  8
0
100
AcDbLine
 10
1633.649991990855
 20
1745.154614817449
 30
0.0
 11
1640.907342813029
 21
1745.154614817449
 31
0.0
  0
LWPOLYLINE
  5
4F8
330
2
100
AcDbEntity
  8
0
100
AcDbPolyline
 90
       12
 70
   128
 43
0.0
 10
1659.72137081453
 20
1744.654614817449
 10
1659.720763451263
 20
1744.678050049114
 10
1659.695735510979
 20
1744.80510852347
 10
1659.642217988671
 20
1744.912339354619
 10
1659.597458192537
 20
1744.969893956781
 10
1659.448890154231
 20
1745.085087150997
 10
1659.278234651247
 20
1745.144227169304
 10
1659.214911120153
 20
1745.152603229855
 10
1659.187162127267
 20
1745.154213063252
 10
1659.174763732619
 20
1745.154534168442
 10
1659.168787001515
 20
1745.15460149465
 10
1659.164693635203
 20
1745.154614817449
  0
LINE
  5
4F9
330
2
100
AcDbEntity
  8
0
100
AcDbLine
 10
1651.907342813029
 20
1745.154614817449
 30
0.0
 11
1659.164693635203
 21
1745.154614817449
 31
0.0
  0
LINE
  5
4FA
330
2
100
AcDbEntity
  8
0
100
AcDbLine
 10
1659.72137081453
 20
1744.654614817449
 30
0.0
 11
1659.724125955248
 21
1744.654614817449
 31
0.0
  0
LINE
  5
4FB
330
2
100
AcDbEntity
  8
0
100
AcDbLine
 10
1633.090559670808
 20
1744.654614817449
 30
0.0
 11
1633.093314811526
 21
1744.654614817449
 31
0.0
  0
LINE
  5
4FC
330
2
100
AcDbEntity
  8
0
100
AcDbLine
 10
1658.407342813029
 20
1745.154614817449
 30
0.0
 11
1659.164693635203
 21
1745.154614817449
 31
0.0
  0
LINE
  5
4FD
330
2
100
AcDbEntity
  8
0
100
AcDbLine
 10
1633.649991990855
 20
1745.154614817449
 30
0.0
 11
1634.407342813029
 21
1745.154614817449
 31
0.0
  0
LINE
  5
4FE
330
2
100
AcDbEntity
  8
0
100
AcDbLine
 10
1646.407342813029
 20
1726.854614817448
 30
0.0
 11
1670.407342813028
 21
1726.854614817448
 31
0.0
  0
LINE
  5
4FF
330
2
100
AcDbEntity
  8
0
100
AcDbLine
 10
1622.407342813028
 20
1726.854614817448
 30
0.0
 11
1646.407342813029
 21
1726.854614817448
 31
0.0
  0
LINE
  5
500
330
2
100
AcDbEntity
  8
0
100
AcDbLine
 10
1646.407342813029
 20
1727.854614817448
 30
0.0
 11
1670.407342813028
 21
1727.854614817448
 31
0.0
  0
LINE
  5
501
330
2
100
AcDbEntity
  8
0
100
AcDbLine
 10
1622.407342813028
 20
1727.854614817448
 30
0.0
 11
1646.407342813029
 21
1727.854614817448
 31
0.0
  0
LINE
  5
502
330
2
100
AcDbEntity
  8
0
100
AcDbLine
 10
1646.407342813029
 20
1730.854614817448
 30
0.0
 11
1662.907342813029
 21
1730.854614817448
 31
0.0
  0
LINE
  5
503
330
2
100
AcDbEntity
  8
0
100
AcDbLine
 10
1629.907342813028
 20
1730.854614817448
 30
0.0
 11
1646.407342813029
 21
1730.854614817448
 31
0.0
  0
LINE
  5
504
330
2
100
AcDbEntity
  8
0
100
AcDbLine
 10
1650.715069248084
 20
1713.126670572061
 30
0.0
 11
1655.437443147476
 21
1713.126670572061
 31
0.0
  0
LWPOLYLINE
  5
505
330
2
100
AcDbEntity
  8
0
100
AcDbPolyline
 90
        6
 70
   128
 43
0.0
 10
1650.349225125484
 20
1713.270154008366
 10
1650.352270931047
 20
1713.26716918419
 10
1650.430387431882
 20
1713.205205781894
 10
1650.519310981945
 20
1713.160055580498
 10
1650.615486566866
 20
1713.133523609319
 10
1650.715069248084
 20
1713.126670572061
  0
LINE
  5
506
330
2
100
AcDbEntity
  8
0
100
AcDbLine
 10
1637.37724247858
 20
1713.126670572061
 30
0.0
 11
1648.660601976225
 21
1713.126670572061
 31
0.0
  0
LINE
  5
507
330
2
100
AcDbEntity
  8
0
100
AcDbLine
 10
1649.153091112348
 20
1713.625763719546
 30
0.0
 11
1649.152240772212
 21
1713.625763719546
 31
0.0
  0
LINE
  5
508
330
2
100
AcDbEntity
  8
0
100
AcDbLine
 10
1628.183043747608
 20
1713.965814286401
 30
0.0
 11
1652.188580541765
 21
1713.965814286401
 31
0.0
  0
LINE
  5
509
330
2
100
AcDbEntity
  8
0
100
AcDbLine
 10
1666.560613375704
 20
1717.654183061547
 30
0.0
 11
1666.89072020601
 21
1717.654183061547
 31
0.0
  0
LINE
  5
50A
330
2
100
AcDbEntity
  8
0
100
AcDbLine
 10
1659.72137081453
 20
1730.854614817448
 30
0.0
 11
1659.72137081453
 21
1744.654614817449
 31
0.0
  0
LINE
  5
50B
330
2
100
AcDbEntity
  8
0
100
AcDbLine
 10
1633.093314811526
 20
1744.654614817449
 30
0.0
 11
1633.093314811526
 21
1730.854614817448
 31
0.0
  0
ARC
  5
50C
330
2
100
AcDbEntity
  8
0
100
AcDbCircle
 10
1714.169384420734
 20
1642.386982625685
 30
0.0
 40
0.5000000000000286
100
AcDbArc
 50
141.7800233898076
 51
177.3162732412189
  0
ARC
  5
50D
330
2
100
AcDbEntity
  8
0
100
AcDbCircle
 10
1714.169384420734
 20
1628.386982625684
 30
0.0
 40
0.5000000000000286
100
AcDbArc
 50
182.6837267587811
 51
218.2199766101923
  0
ARC
  5
50E
330
2
100
AcDbEntity
  8
0
100
AcDbCircle
 10
1863.505414902329
 20
1635.386982625685
 30
0.0
 40
150.0
100
AcDbArc
 50
177.3162732411536
 51
182.6837267588463
  0
ARC
  5
50F
330
2
100
AcDbEntity
  8
0
100
AcDbCircle
 10
1714.276563804427
 20
1626.671673418542
 30
0.0
 40
0.5
100
AcDbArc
 50
159.2045303997254
 51
180.0
  0
ARC
  5
510
330
2
100
AcDbEntity
  8
0
100
AcDbCircle
 10
1863.505414902329
 20
1635.386982625685
 30
0.0
 40
150.0
100
AcDbArc
 50
183.4513310695402
 51
186.5293623642395
  0
ARC
  5
511
330
2
100
AcDbEntity
  8
0
100
AcDbCircle
 10
1863.505414902329
 20
1635.386982625685
 30
0.0
 40
150.0
100
AcDbArc
 50
173.4706376357735
 51
176.5486689304597
  0
ARC
  5
512
330
2
100
AcDbEntity
  8
0
100
AcDbCircle
 10
1714.276563804427
 20
1626.386982625685
 30
0.0
 40
0.5
100
AcDbArc
 50
180.0
 51
183.4513310695532
  0
LINE
  5
513
330
2
100
AcDbEntity
  8
0
100
AcDbLine
 10
1713.776563804427
 20
1644.102291832827
 30
0.0
 11
1713.776563804427
 21
1643.296912892396
 31
0.0
  0
LINE
  5
514
330
2
100
AcDbEntity
  8
0
100
AcDbLine
 10
1713.776563804427
 20
1628.077641449305
 30
0.0
 11
1713.776563804427
 21
1626.671673418542
 31
0.0
  0
LINE
  5
515
330
2
100
AcDbEntity
  8
0
100
AcDbLine
 10
1713.776563804427
 20
1626.671673418542
 30
0.0
 11
1713.776563804427
 21
1626.386982625685
 31
0.0
  0
LINE
  5
516
330
2
100
AcDbEntity
  8
0
100
AcDbLine
 10
1713.776563804427
 20
1644.386982625684
 30
0.0
 11
1713.776563804427
 21
1644.102291832827
 31
0.0
  0
ARC
  5
517
330
2
100
AcDbEntity
  8
0
100
AcDbCircle
 10
1714.975114963226
 20
1652.386982625684
 30
0.0
 40
0.5000000000000079
100
AcDbArc
 50
135.8074444100707
 51
173.4706376357735
  0
ARC
  5
518
330
2
100
AcDbEntity
  8
0
100
AcDbCircle
 10
1714.975114963226
 20
1618.386982625684
 30
0.0
 40
0.5000000000000079
100
AcDbArc
 50
186.5293623642264
 51
224.1925555899292
  0
LINE
  5
519
330
2
100
AcDbEntity
  8
0
100
AcDbLine
 10
1746.805414902329
 20
1639.086982625684
 30
0.0
 11
1745.80541490233
 21
1640.086982625684
 31
0.0
  0
LINE
  5
51A
330
2
100
AcDbEntity
  8
0
100
AcDbLine
 10
1745.80541490233
 20
1630.686982625684
 30
0.0
 11
1746.805414902329
 21
1631.686982625684
 31
0.0
  0
ARC
  5
51B
330
2
100
AcDbEntity
  8
0
100
AcDbCircle
 10
1720.385880406838
 20
1656.582848432998
 30
0.0
 40
0.2000000000000104
100
AcDbArc
 50
28.43170582076579
 51
109.9999999999892
  0
ARC
  5
51C
330
2
100
AcDbEntity
  8
0
100
AcDbCircle
 10
1720.385880406838
 20
1614.19111681837
 30
0.0
 40
0.2000000000000104
100
AcDbArc
 50
250.0000000000108
 51
331.5682941792451
  0
LINE
  5
51D
330
2
100
AcDbEntity
  8
0
100
AcDbLine
 10
1720.317476378173
 20
1656.770786957156
 30
0.0
 11
1715.046078993769
 21
1654.852155216244
 31
0.0
  0
LINE
  5
51E
330
2
100
AcDbEntity
  8
0
100
AcDbLine
 10
1715.046078993769
 20
1615.921810035124
 30
0.0
 11
1720.317476378173
 21
1614.003178294213
 31
0.0
  0
LWPOLYLINE
  5
51F
330
2
100
AcDbEntity
  8
0
100
AcDbPolyline
 90
       13
 70
   128
 43
0.0
 10
1718.144817261585
 20
1629.512567898268
 10
1718.099191958592
 20
1629.150544386137
 10
1717.962905183991
 20
1628.371122906308
 10
1717.778933322108
 20
1627.537262192566
 10
1717.55778588546
 20
1626.719447476167
 10
1717.300749457745
 20
1625.924791180032
 10
1717.010436604557
 20
1625.158382651824
 10
1716.718807126235
 20
1624.493102820028
 10
1716.414924688159
 20
1623.907344186857
 10
1716.095325440839
 20
1623.396518247348
 10
1715.756998129302
 20
1622.954965545743
 10
1715.355488728149
 20
1622.538341939001
 10
1715.352561850011
 20
1622.535789458982
  0
LWPOLYLINE
  5
520
330
2
100
AcDbEntity
  8
0
100
AcDbPolyline
 90
       15
 70
   128
 43
0.0
 10
1715.405122626952
 20
1648.188243441871
 10
1715.525134163868
 20
1648.081115093452
 10
1715.877625996188
 20
1647.695757874116
 10
1716.21112664065
 20
1647.243414340176
 10
1716.532872337977
 20
1646.711334358071
 10
1716.836861696576
 20
1646.106636574686
 10
1717.126987591548
 20
1645.425613066859
 10
1717.405795181502
 20
1644.666778198778
 10
1717.660664116499
 20
1643.84250350405
 10
1717.874871750464
 20
1642.997431629108
 10
1718.047993218864
 20
1642.135443346606
 10
1718.16333277168
 20
1641.379370792298
 10
1718.243214209958
 20
1640.54730325183
 10
1718.283903285643
 20
1639.725513045633
 10
1718.29164645059
 20
1639.318376536904
  0
LINE
  5
521
330
2
100
AcDbEntity
  8
0
100
AcDbLine
 10
1718.30312210755
 20
1639.320224783578
 30
0.0
 11
1718.30312210755
 21
1631.719233551615
 31
0.0
  0
LWPOLYLINE
  5
522
330
2
100
AcDbEntity
  8
0
100
AcDbPolyline
 90
        3
 70
   128
 43
0.0
 10
1714.985035259797
 20
1648.546177485975
 10
1715.175648205393
 20
1648.380810517884
 10
1715.411611661462
 20
1648.183974782496
  0
LWPOLYLINE
  5
523
330
2
100
AcDbEntity
  8
0
100
AcDbPolyline
 90
        3
 70
   128
 43
0.0
 10
1715.351618661801
 20
1622.54252139783
 10
1715.344529143627
 20
1622.536671437259
 10
1714.988878390173
 20
1622.228523834883
  0
LWPOLYLINE
  5
524
330
2
100
AcDbEntity
  8
0
100
AcDbPolyline
 90
        7
 70
   128
 43
0.0
 10
1714.984894637687
 20
1622.22715852145
 10
1714.93460101943
 20
1622.178778803402
 10
1714.867441556924
 20
1622.082509355931
 10
1714.813791695137
 20
1621.971700337265
 10
1714.75826703263
 20
1621.79584025013
 10
1714.724836126484
 20
1621.566445376666
 10
1714.722820276256
 20
1621.485756588242
  0
LWPOLYLINE
  5
525
330
2
100
AcDbEntity
  8
0
100
AcDbPolyline
 90
        7
 70
   128
 43
0.0
 10
1714.724953847921
 20
1649.242365922323
 10
1714.730659847786
 20
1649.155210754326
 10
1714.771365903261
 20
1648.936157139842
 10
1714.824733804241
 20
1648.775771110203
 10
1714.887493791984
 20
1648.658592332547
 10
1714.97804670186
 20
1648.551179164723
 10
1714.984716644756
 20
1648.546556034663
  0
ARC
  5
526
330
2
100
AcDbEntity
  8
0
100
AcDbCircle
 10
1715.217089065431
 20
1654.382308905851
 30
0.0
 40
0.5000000000000266
100
AcDbArc
 50
109.9999999999892
 51
172.7003217417415
  0
ARC
  5
527
330
2
100
AcDbEntity
  8
0
100
AcDbCircle
 10
1715.217089065431
 20
1616.391656345518
 30
0.0
 40
0.5000000000000266
100
AcDbArc
 50
187.2996782582584
 51
250.0000000000108
  0
ARC
  5
528
330
2
100
AcDbEntity
  8
0
100
AcDbCircle
 10
1863.505414902329
 20
1635.386982625685
 30
0.0
 40
150.0
100
AcDbArc
 50
186.978410011129
 51
187.2996782582815
  0
ARC
  5
529
330
2
100
AcDbEntity
  8
0
100
AcDbCircle
 10
1863.505414902329
 20
1635.386982625685
 30
0.0
 40
150.0
100
AcDbArc
 50
172.7003217417284
 51
173.021589988871
  0
ARC
  5
52A
330
2
100
AcDbEntity
  8
0
100
AcDbCircle
 10
1714.81513277199
 20
1617.186982625684
 30
0.0
 40
0.199999999999992
100
AcDbArc
 50
180.0
 51
186.978410011129
  0
LINE
  5
52B
330
2
100
AcDbEntity
  8
0
100
AcDbLine
 10
1737.80541490233
 20
1648.886982625685
 30
0.0
 11
1731.505414902329
 21
1648.886982625685
 31
0.0
  0
LINE
  5
52C
330
2
100
AcDbEntity
  8
0
100
AcDbLine
 10
1731.505414902329
 20
1621.886982625684
 30
0.0
 11
1737.80541490233
 21
1621.886982625684
 31
0.0
  0
ARC
  5
52D
330
2
100
AcDbEntity
  8
0
100
AcDbCircle
 10
1745.30541490233
 20
1618.886982625683
 30
0.0
 40
0.5
100
AcDbArc
 50
270.0
 51
0.0
  0
LINE
  5
52E
330
2
100
AcDbEntity
  8
0
100
AcDbLine
 10
1738.30541490233
 20
1618.386982625683
 30
0.0
 11
1745.30541490233
 21
1618.386982625683
 31
0.0
  0
ARC
  5
52F
330
2
100
AcDbEntity
  8
0
100
AcDbCircle
 10
1745.30541490233
 20
1651.886982625686
 30
0.0
 40
0.5
100
AcDbArc
 50
0.0
 51
90.0
  0
LINE
  5
530
330
2
100
AcDbEntity
  8
0
100
AcDbLine
 10
1745.30541490233
 20
1652.386982625686
 30
0.0
 11
1738.30541490233
 21
1652.386982625686
 31
0.0
  0
ARC
  5
531
330
2
100
AcDbEntity
  8
0
100
AcDbCircle
 10
1738.30541490233
 20
1618.886982625683
 30
0.0
 40
0.5
100
AcDbArc
 50
180.0
 51
270.0
  0
ARC
  5
532
330
2
100
AcDbEntity
  8
0
100
AcDbCircle
 10
1738.30541490233
 20
1651.886982625686
 30
0.0
 40
0.5
100
AcDbArc
 50
90.0
 51
180.0
  0
LINE
  5
533
330
2
100
AcDbEntity
  8
0
100
AcDbLine
 10
1728.505414902329
 20
1659.386982625685
 30
0.0
 11
1727.505414902329
 21
1659.386982625685
 31
0.0
  0
LINE
  5
534
330
2
100
AcDbEntity
  8
0
100
AcDbLine
 10
1727.505414902329
 20
1611.386982625684
 30
0.0
 11
1728.505414902329
 21
1611.386982625684
 31
0.0
  0
LINE
  5
535
330
2
100
AcDbEntity
  8
0
100
AcDbLine
 10
1727.505414902329
 20
1659.386982625685
 30
0.0
 11
1720.693353426486
 21
1656.907595014487
 31
0.0
  0
LINE
  5
536
330
2
100
AcDbEntity
  8
0
100
AcDbLine
 10
1720.693353426486
 20
1613.866370236882
 30
0.0
 11
1727.505414902329
 21
1611.386982625684
 31
0.0
  0
ARC
  5
537
330
2
100
AcDbEntity
  8
0
100
AcDbCircle
 10
1720.761757455151
 20
1614.054308761039
 30
0.0
 40
0.1999999999999922
100
AcDbArc
 50
180.0
 51
250.0000000000108
  0
ARC
  5
538
330
2
100
AcDbEntity
  8
0
100
AcDbCircle
 10
1720.761757455151
 20
1656.719656490329
 30
0.0
 40
0.2000000000000028
100
AcDbArc
 50
109.9999999999892
 51
180.0
  0
LINE
  5
539
330
2
100
AcDbEntity
  8
0
100
AcDbLine
 10
1720.561757455152
 20
1656.719656490329
 30
0.0
 11
1720.561757455152
 21
1614.054308761039
 31
0.0
  0
ARC
  5
53A
330
2
100
AcDbEntity
  8
0
100
AcDbCircle
 10
1731.005414902329
 20
1651.886982625685
 30
0.0
 40
0.5
100
AcDbArc
 50
0.0
 51
90.0
  0
ARC
  5
53B
330
2
100
AcDbEntity
  8
0
100
AcDbCircle
 10
1731.005414902329
 20
1618.886982625684
 30
0.0
 40
0.5
100
AcDbArc
 50
270.0
 51
0.0
  0
LINE
  5
53C
330
2
100
AcDbEntity
  8
0
100
AcDbLine
 10
1731.005414902329
 20
1652.386982625685
 30
0.0
 11
1728.505414902329
 21
1652.386982625685
 31
0.0
  0
LINE
  5
53D
330
2
100
AcDbEntity
  8
0
100
AcDbLine
 10
1728.505414902329
 20
1618.386982625684
 30
0.0
 11
1731.005414902329
 21
1618.386982625684
 31
0.0
  0
LINE
  5
53E
330
2
100
AcDbEntity
  8
0
100
AcDbLine
 10
1713.777470656942
 20
1643.323367508673
 30
0.0
 11
1713.777470656942
 21
1627.450597742696
 31
0.0
  0
LINE
  5
53F
330
2
100
AcDbEntity
  8
0
100
AcDbLine
 10
1713.776563804427
 20
1643.296912892396
 30
0.0
 11
1713.777470656942
 21
1643.323367508673
 31
0.0
  0
LINE
  5
540
330
2
100
AcDbEntity
  8
0
100
AcDbLine
 10
1746.805414902329
 20
1636.536982625684
 30
0.0
 11
1746.805414902329
 21
1634.236982625684
 31
0.0
  0
LINE
  5
541
330
2
100
AcDbEntity
  8
0
100
AcDbLine
 10
1746.805414902329
 20
1634.236982625684
 30
0.0
 11
1745.80541490233
 21
1634.236982625684
 31
0.0
  0
LINE
  5
542
330
2
100
AcDbEntity
  8
0
100
AcDbLine
 10
1745.80541490233
 20
1636.536982625684
 30
0.0
 11
1746.805414902329
 21
1636.536982625684
 31
0.0
  0
LINE
  5
543
330
2
100
AcDbEntity
  8
0
100
AcDbLine
 10
1746.805414902329
 20
1638.373200970012
 30
0.0
 11
1745.80541490233
 21
1638.373200970012
 31
0.0
  0
LINE
  5
544
330
2
100
AcDbEntity
  8
0
100
AcDbLine
 10
1746.805414902329
 20
1638.373200970012
 30
0.0
 11
1746.805414902329
 21
1636.536982625684
 31
0.0
  0
LINE
  5
545
330
2
100
AcDbEntity
  8
0
100
AcDbLine
 10
1746.805414902329
 20
1632.400764281356
 30
0.0
 11
1745.80541490233
 21
1632.400764281356
 31
0.0
  0
LINE
  5
546
330
2
100
AcDbEntity
  8
0
100
AcDbLine
 10
1746.805414902329
 20
1634.236982625684
 30
0.0
 11
1746.805414902329
 21
1632.400764281356
 31
0.0
  0
LINE
  5
547
330
2
100
AcDbEntity
  8
0
100
AcDbLine
 10
1746.805414902329
 20
1638.903728280405
 30
0.0
 11
1745.80541490233
 21
1639.944119884973
 31
0.0
  0
LINE
  5
548
330
2
100
AcDbEntity
  8
0
100
AcDbLine
 10
1746.805414902329
 20
1638.903728280405
 30
0.0
 11
1746.805414902329
 21
1638.373200970012
 31
0.0
  0
LINE
  5
549
330
2
100
AcDbEntity
  8
0
100
AcDbLine
 10
1745.80541490233
 20
1630.829845366395
 30
0.0
 11
1746.805414902329
 21
1631.870236970964
 31
0.0
  0
LINE
  5
54A
330
2
100
AcDbEntity
  8
0
100
AcDbLine
 10
1746.805414902329
 20
1632.400764281356
 30
0.0
 11
1746.805414902329
 21
1631.870236970964
 31
0.0
  0
LINE
  5
54B
330
2
100
AcDbEntity
  8
0
100
AcDbLine
 10
1746.805414902329
 20
1639.086982625684
 30
0.0
 11
1746.805414902329
 21
1638.903728280405
 31
0.0
  0
LINE
  5
54C
330
2
100
AcDbEntity
  8
0
100
AcDbLine
 10
1746.805414902329
 20
1631.870236970964
 30
0.0
 11
1746.805414902329
 21
1631.686982625684
 31
0.0
  0
LWPOLYLINE
  5
54D
330
2
100
AcDbEntity
  8
0
100
AcDbPolyline
 90
        5
 70
   128
 43
0.0
 10
1718.16291140273
 20
1629.534626349991
 10
1718.264150046939
 20
1630.512777635349
 10
1718.305077793186
 20
1631.724890730808
 10
1718.305077582366
 20
1631.724949480254
 10
1718.305077582366
 20
1631.724949480254
  0
LINE
  5
54E
330
2
100
AcDbEntity
  8
0
100
AcDbLine
 10
1714.986978941243
 20
1622.230468328718
 30
0.0
 11
1714.984072546171
 21
1622.228084587418
 31
0.0
  0
LWPOLYLINE
  5
54F
330
2
100
AcDbEntity
  8
0
100
AcDbPolyline
 90
        5
 70
   128
 43
0.0
 10
1714.616614371282
 20
1652.669990661027
 10
1714.623069017644
 20
1651.990074001238
 10
1714.642494425604
 20
1651.205658237755
 10
1714.67520372446
 20
1650.312250550937
 10
1714.721141487382
 20
1649.316402601116
  0
LWPOLYLINE
  5
550
330
2
100
AcDbEntity
  8
0
100
AcDbPolyline
 90
        5
 70
   128
 43
0.0
 10
1714.721141487382
 20
1621.457562650253
 10
1714.675824191609
 20
1620.476598720499
 10
1714.643158300395
 20
1619.589608759673
 10
1714.623276726042
 20
1618.795579674602
 10
1714.616614371282
 20
1618.103974590342
  0
LWPOLYLINE
  5
551
330
2
100
AcDbEntity
  8
0
100
AcDbPolyline
 90
        7
 70
   128
 43
0.0
 10
1745.80541490233
 20
1647.166201615075
 10
1745.805399195488
 20
1647.168724743112
 10
1745.771067479071
 20
1647.281594822615
 10
1745.690704612354
 20
1647.367386621393
 10
1745.582725022735
 20
1647.428194231791
 10
1745.452575400718
 20
1647.466626646882
 10
1745.30541490233
 20
1647.480369248132
  0
LINE
  5
552
330
2
100
AcDbEntity
  8
0
100
AcDbLine
 10
1745.80541490233
 20
1647.166201615075
 30
0.0
 11
1745.80541490233
 21
1637.886982625684
 31
0.0
  0
LWPOLYLINE
  5
553
330
2
100
AcDbEntity
  8
0
100
AcDbPolyline
 90
       12
 70
   128
 43
0.0
 10
1745.80541490233
 20
1637.886982625684
 10
1745.805401578643
 20
1637.883332487369
 10
1745.805337909798
 20
1637.878208424641
 10
1745.805030551618
 20
1637.867381529107
 10
1745.803481632046
 20
1637.843056178631
 10
1745.795332080295
 20
1637.787076876424
 10
1745.735887235877
 20
1637.632633318528
 10
1745.620694041663
 20
1637.49891167302
 10
1745.5631394395
 20
1637.458522519092
 10
1745.455908608352
 20
1637.410168569214
 10
1745.328850133995
 20
1637.387532137731
 10
1745.30541490233
 20
1637.386982625685
  0
LWPOLYLINE
  5
554
330
2
100
AcDbEntity
  8
0
100
AcDbPolyline
 90
       12
 70
   128
 43
0.0
 10
1745.30541490233
 20
1633.386982625685
 10
1745.328850133995
 20
1633.386433113638
 10
1745.455908608352
 20
1633.363796682155
 10
1745.5631394395
 20
1633.315442732276
 10
1745.620694041663
 20
1633.275053578349
 10
1745.735887235877
 20
1633.14133193284
 10
1745.795332080295
 20
1632.986888374944
 10
1745.803481632046
 20
1632.930909072737
 10
1745.805030551618
 20
1632.906583722262
 10
1745.805337909798
 20
1632.895756826728
 10
1745.805401578643
 20
1632.890632764
 10
1745.80541490233
 20
1632.886982625684
  0
LWPOLYLINE
  5
555
330
2
100
AcDbEntity
  8
0
100
AcDbPolyline
 90
        7
 70
   128
 43
0.0
 10
1745.80541490233
 20
1623.607763636294
 10
1745.805399195488
 20
1623.605240508257
 10
1745.771067479071
 20
1623.492370428754
 10
1745.690704612354
 20
1623.406578629976
 10
1745.582725022735
 20
1623.345771019578
 10
1745.452575400718
 20
1623.307338604487
 10
1745.30541490233
 20
1623.293596003237
  0
LINE
  5
556
330
2
100
AcDbEntity
  8
0
100
AcDbLine
 10
1745.80541490233
 20
1632.886982625684
 30
0.0
 11
1745.80541490233
 21
1623.607763636294
 31
0.0
  0
LINE
  5
557
330
2
100
AcDbEntity
  8
0
100
AcDbLine
 10
1745.30541490233
 20
1637.386982625685
 30
0.0
 11
1731.505414902329
 21
1637.386982625685
 31
0.0
  0
LINE
  5
558
330
2
100
AcDbEntity
  8
0
100
AcDbLine
 10
1731.505414902329
 20
1633.386982625685
 30
0.0
 11
1745.30541490233
 21
1633.386982625685
 31
0.0
  0
LWPOLYLINE
  5
559
330
2
100
AcDbEntity
  8
0
100
AcDbPolyline
 90
        6
 70
   128
 43
0.0
 10
1738.30541490233
 20
1647.480369248132
 10
1738.152368594157
 20
1647.492246505931
 10
1738.016815427133
 20
1647.525432695017
 10
1737.906446782844
 20
1647.576900397783
 10
1737.830253553641
 20
1647.645196733599
 10
1737.80541490233
 20
1647.715810631624
  0
LINE
  5
55A
330
2
100
AcDbEntity
  8
0
100
AcDbLine
 10
1741.747928510769
 20
1647.480369248132
 30
0.0
 11
1738.30541490233
 21
1647.480369248132
 31
0.0
  0
ARC
  5
55B
330
2
100
AcDbEntity
  8
0
100
AcDbCircle
 10
1742.805414902329
 20
1648.936982625684
 30
0.0
 40
1.799999999999986
100
AcDbArc
 50
234.0207346913
 51
305.9792653086999
  0
LINE
  5
55C
330
2
100
AcDbEntity
  8
0
100
AcDbLine
 10
1745.30541490233
 20
1647.480369248132
 30
0.0
 11
1743.86290129389
 21
1647.480369248132
 31
0.0
  0
LINE
  5
55D
330
2
100
AcDbEntity
  8
0
100
AcDbLine
 10
1745.30541490233
 20
1623.293596003237
 30
0.0
 11
1743.86290129389
 21
1623.293596003237
 31
0.0
  0
LWPOLYLINE
  5
55E
330
2
100
AcDbEntity
  8
0
100
AcDbPolyline
 90
        8
 70
   128
 43
0.0
 10
1743.86290129389
 20
1623.293596003237
 10
1743.742165310384
 20
1623.374024808911
 10
1743.439968664412
 20
1623.52142363772
 10
1743.048726706648
 20
1623.620462192677
 10
1742.747404154612
 20
1623.636047592035
 10
1742.452511254523
 20
1623.602048917744
 10
1742.120527625722
 20
1623.501593516656
 10
1741.747928510769
 20
1623.293596003237
  0
LINE
  5
55F
330
2
100
AcDbEntity
  8
0
100
AcDbLine
 10
1741.747928510769
 20
1623.293596003237
 30
0.0
 11
1738.30541490233
 21
1623.293596003237
 31
0.0
  0
LWPOLYLINE
  5
560
330
2
100
AcDbEntity
  8
0
100
AcDbPolyline
 90
        6
 70
   128
 43
0.0
 10
1737.80541490233
 20
1623.058154619745
 10
1737.83868688056
 20
1623.139736809189
 10
1737.936311319916
 20
1623.214222870986
 10
1738.083078921794
 20
1623.267860585086
 10
1738.246640199686
 20
1623.291876765479
 10
1738.30541490233
 20
1623.293596003235
  0
LINE
  5
561
330
2
100
AcDbEntity
  8
0
100
AcDbLine
 10
1745.80541490233
 20
1637.886982625684
 30
0.0
 11
1745.80541490233
 21
1632.886982625684
 31
0.0
  0
LINE
  5
562
330
2
100
AcDbEntity
  8
0
100
AcDbLine
 10
1745.80541490233
 20
1623.607763636294
 30
0.0
 11
1745.80541490233
 21
1619.830633439579
 31
0.0
  0
LWPOLYLINE
  5
563
330
2
100
AcDbEntity
  8
0
100
AcDbPolyline
 90
        9
 70
   128
 43
0.0
 10
1745.80541490233
 20
1619.830633439579
 10
1745.795807542532
 20
1619.738666979818
 10
1745.767354668586
 20
1619.65023473953
 10
1745.721149708481
 20
1619.568735120116
 10
1745.658968292923
 20
1619.497300106246
 10
1745.58320001884
 20
1619.438674905439
 10
1745.496756618513
 20
1619.395112451287
 10
1745.402960063338
 20
1619.368286824472
 10
1745.30541490233
 20
1619.359228918788
  0
ARC
  5
564
330
2
100
AcDbEntity
  8
0
100
AcDbCircle
 10
1742.805414902329
 20
1621.836982625684
 30
0.0
 40
1.800000000000009
100
AcDbArc
 50
125.9792653086999
 51
54.02073469130003
  0
LWPOLYLINE
  5
565
330
2
100
AcDbEntity
  8
0
100
AcDbPolyline
 90
        9
 70
   128
 43
0.0
 10
1745.30541490233
 20
1651.414736332581
 10
1745.402960063338
 20
1651.405678426898
 10
1745.496756618513
 20
1651.378852800082
 10
1745.58320001884
 20
1651.33529034593
 10
1745.658968292923
 20
1651.276665145123
 10
1745.721149708481
 20
1651.205230131252
 10
1745.767354668586
 20
1651.123730511839
 10
1745.795807542532
 20
1651.035298271551
 10
1745.80541490233
 20
1650.94333181179
  0
LINE
  5
566
330
2
100
AcDbEntity
  8
0
100
AcDbLine
 10
1745.30541490233
 20
1619.359228918788
 30
0.0
 11
1738.30541490233
 21
1619.359228918788
 31
0.0
  0
LINE
  5
567
330
2
100
AcDbEntity
  8
0
100
AcDbLine
 10
1745.80541490233
 20
1650.94333181179
 30
0.0
 11
1745.80541490233
 21
1647.166201615075
 31
0.0
  0
LINE
  5
568
330
2
100
AcDbEntity
  8
0
100
AcDbLine
 10
1738.30541490233
 20
1651.414736332581
 30
0.0
 11
1745.30541490233
 21
1651.414736332581
 31
0.0
  0
ARC
  5
569
330
2
100
AcDbEntity
  8
0
100
AcDbCircle
 10
1742.805414902329
 20
1648.936982625684
 30
0.0
 40
1.800000000000018
100
AcDbArc
 50
305.9792653086999
 51
234.0207346913
  0
LINE
  5
56A
330
2
100
AcDbEntity
  8
0
100
AcDbLine
 10
1737.80541490233
 20
1619.830633439579
 30
0.0
 11
1737.80541490233
 21
1623.058154619745
 31
0.0
  0
LWPOLYLINE
  5
56B
330
2
100
AcDbEntity
  8
0
100
AcDbPolyline
 90
        9
 70
   128
 43
0.0
 10
1738.30541490233
 20
1619.359228918788
 10
1738.207869741323
 20
1619.368286824472
 10
1738.114073186148
 20
1619.395112451287
 10
1738.027629785821
 20
1619.438674905439
 10
1737.951861511737
 20
1619.497300106246
 10
1737.889680096179
 20
1619.568735120116
 10
1737.843475136075
 20
1619.65023473953
 10
1737.815022262129
 20
1619.738666979818
 10
1737.80541490233
 20
1619.830633439579
  0
LINE
  5
56C
330
2
100
AcDbEntity
  8
0
100
AcDbLine
 10
1737.80541490233
 20
1647.715810631624
 30
0.0
 11
1737.80541490233
 21
1650.94333181179
 31
0.0
  0
LWPOLYLINE
  5
56D
330
2
100
AcDbEntity
  8
0
100
AcDbPolyline
 90
        9
 70
   128
 43
0.0
 10
1737.80541490233
 20
1650.94333181179
 10
1737.815022262129
 20
1651.035298271551
 10
1737.843475136075
 20
1651.123730511839
 10
1737.889680096179
 20
1651.205230131252
 10
1737.951861511737
 20
1651.276665145123
 10
1738.027629785821
 20
1651.33529034593
 10
1738.114073186148
 20
1651.378852800082
 10
1738.207869741323
 20
1651.405678426898
 10
1738.30541490233
 20
1651.414736332581
  0
LINE
  5
56E
330
2
100
AcDbEntity
  8
0
100
AcDbLine
 10
1745.80541490233
 20
1619.830633439579
 30
0.0
 11
1745.80541490233
 21
1618.886982625683
 31
0.0
  0
LINE
  5
56F
330
2
100
AcDbEntity
  8
0
100
AcDbLine
 10
1745.80541490233
 20
1651.886982625686
 30
0.0
 11
1745.80541490233
 21
1650.94333181179
 31
0.0
  0
LINE
  5
570
330
2
100
AcDbEntity
  8
0
100
AcDbLine
 10
1737.80541490233
 20
1618.886982625683
 30
0.0
 11
1737.80541490233
 21
1619.830633439579
 31
0.0
  0
LINE
  5
571
330
2
100
AcDbEntity
  8
0
100
AcDbLine
 10
1737.80541490233
 20
1650.94333181179
 30
0.0
 11
1737.80541490233
 21
1651.886982625686
 31
0.0
  0
LINE
  5
572
330
2
100
AcDbEntity
  8
0
100
AcDbLine
 10
1727.505414902329
 20
1659.386982625685
 30
0.0
 11
1727.505414902329
 21
1611.386982625684
 31
0.0
  0
LINE
  5
573
330
2
100
AcDbEntity
  8
0
100
AcDbLine
 10
1728.505414902329
 20
1659.386982625685
 30
0.0
 11
1728.505414902329
 21
1611.386982625684
 31
0.0
  0
LINE
  5
574
330
2
100
AcDbEntity
  8
0
100
AcDbLine
 10
1731.505414902329
 20
1651.886982625685
 30
0.0
 11
1731.505414902329
 21
1618.886982625684
 31
0.0
  0
LINE
  5
575
330
2
100
AcDbEntity
  8
0
100
AcDbLine
 10
1713.776563804427
 20
1626.671673418542
 30
0.0
 11
1713.777470656942
 21
1626.642525227214
 31
0.0
  0
LINE
  5
576
330
2
100
AcDbEntity
  8
0
100
AcDbLine
 10
1713.777470656942
 20
1644.131440024155
 30
0.0
 11
1713.776563804427
 21
1644.102291832827
 31
0.0
  0
LINE
  5
577
330
2
100
AcDbEntity
  8
0
100
AcDbLine
 10
1713.777470656942
 20
1626.642525227214
 30
0.0
 11
1713.777470656943
 21
1626.356882291236
 31
0.0
  0
LINE
  5
578
330
2
100
AcDbEntity
  8
0
100
AcDbLine
 10
1713.777470656943
 20
1644.417082960133
 30
0.0
 11
1713.777470656942
 21
1644.131440024155
 31
0.0
  0
LINE
  5
579
330
2
100
AcDbEntity
  8
0
100
AcDbLine
 10
1714.616614371282
 20
1618.103974590342
 30
0.0
 11
1714.616614371282
 21
1617.162683560264
 31
0.0
  0
LINE
  5
57A
330
2
100
AcDbEntity
  8
0
100
AcDbLine
 10
1714.616614371282
 20
1653.611281691105
 30
0.0
 11
1714.616614371282
 21
1652.669990661027
 31
0.0
  0
ARC
  5
57B
330
2
100
AcDbEntity
  8
0
100
AcDbCircle
 10
1831.126487878229
 20
1635.386982625685
 30
0.0
 40
3.699999999999983
100
AcDbArc
 50
161.891899500306
 51
198.1081004996939
  0
ARC
  5
57C
330
2
100
AcDbEntity
  8
0
100
AcDbCircle
 10
1831.126487878229
 20
1635.386982625685
 30
0.0
 40
3.700000000000005
100
AcDbArc
 50
71.89189950030656
 51
108.1081004996934
  0
LINE
  5
57D
330
2
100
AcDbEntity
  8
0
100
AcDbLine
 10
1832.276487878229
 20
1638.373200970012
 30
0.0
 11
1832.276487878229
 21
1638.903728280405
 31
0.0
  0
ARC
  5
57E
330
2
100
AcDbEntity
  8
0
100
AcDbCircle
 10
1831.126487878229
 20
1635.386982625685
 30
0.0
 40
3.200000000000003
100
AcDbArc
 50
21.06181760164559
 51
68.93818239835049
  0
LINE
  5
57F
330
2
100
AcDbEntity
  8
0
100
AcDbLine
 10
1834.643233532951
 20
1636.536982625684
 30
0.0
 11
1834.112706222557
 21
1636.536982625684
 31
0.0
  0
ARC
  5
580
330
2
100
AcDbEntity
  8
0
100
AcDbCircle
 10
1831.126487878229
 20
1635.386982625685
 30
0.0
 40
3.699999999999985
100
AcDbArc
 50
341.8918995003063
 51
18.10810049969368
  0
LINE
  5
581
330
2
100
AcDbEntity
  8
0
100
AcDbLine
 10
1834.112706222557
 20
1634.236982625684
 30
0.0
 11
1834.643233532951
 21
1634.236982625684
 31
0.0
  0
ARC
  5
582
330
2
100
AcDbEntity
  8
0
100
AcDbCircle
 10
1831.126487878229
 20
1635.386982625685
 30
0.0
 40
3.200000000000003
100
AcDbArc
 50
291.0618176016495
 51
338.9381823983544
  0
LINE
  5
583
330
2
100
AcDbEntity
  8
0
100
AcDbLine
 10
1832.276487878229
 20
1631.870236970964
 30
0.0
 11
1832.276487878229
 21
1632.400764281356
 31
0.0
  0
ARC
  5
584
330
2
100
AcDbEntity
  8
0
100
AcDbCircle
 10
1831.126487878229
 20
1635.386982625685
 30
0.0
 40
3.699999999999999
100
AcDbArc
 50
251.8918995003065
 51
288.1081004996934
  0
LINE
  5
585
330
2
100
AcDbEntity
  8
0
100
AcDbLine
 10
1829.976487878229
 20
1632.400764281356
 30
0.0
 11
1829.976487878229
 21
1631.870236970964
 31
0.0
  0
ARC
  5
586
330
2
100
AcDbEntity
  8
0
100
AcDbCircle
 10
1831.126487878229
 20
1635.386982625685
 30
0.0
 40
3.200000000000003
100
AcDbArc
 50
201.0618176016459
 51
248.9381823983505
  0
LINE
  5
587
330
2
100
AcDbEntity
  8
0
100
AcDbLine
 10
1827.609742223508
 20
1634.236982625684
 30
0.0
 11
1828.140269533901
 21
1634.236982625684
 31
0.0
  0
LINE
  5
588
330
2
100
AcDbEntity
  8
0
100
AcDbLine
 10
1828.140269533901
 20
1636.536982625684
 30
0.0
 11
1827.609742223508
 21
1636.536982625684
 31
0.0
  0
ARC
  5
589
330
2
100
AcDbEntity
  8
0
100
AcDbCircle
 10
1831.126487878229
 20
1635.386982625685
 30
0.0
 40
3.200000000000003
100
AcDbArc
 50
111.0618176016495
 51
158.9381823983541
  0
LINE
  5
58A
330
2
100
AcDbEntity
  8
0
100
AcDbLine
 10
1829.976487878229
 20
1638.903728280405
 30
0.0
 11
1829.976487878229
 21
1638.373200970012
 31
0.0
  0
LINE
  5
58B
330
2
100
AcDbEntity
  8
0
100
AcDbLine
 10
1832.276487878229
 20
1631.870236970964
 30
0.0
 11
1832.276487878229
 21
1630.829845366395
 31
0.0
  0
ARC
  5
58C
330
2
100
AcDbEntity
  8
0
100
AcDbCircle
 10
1831.126487878229
 20
1635.386982625685
 30
0.0
 40
4.700000000000007
100
AcDbArc
 50
255.8370261906203
 51
284.1629738093796
  0
LINE
  5
58D
330
2
100
AcDbEntity
  8
0
100
AcDbLine
 10
1829.976487878229
 20
1630.829845366395
 30
0.0
 11
1829.976487878229
 21
1631.870236970964
 31
0.0
  0
ARC
  5
58E
330
2
100
AcDbEntity
  8
0
100
AcDbCircle
 10
1831.126487878229
 20
1635.386982625685
 30
0.0
 40
4.700000000000001
100
AcDbArc
 50
345.8370261906368
 51
14.16297380936325
  0
LINE
  5
58F
330
2
100
AcDbEntity
  8
0
100
AcDbLine
 10
1834.643233532951
 20
1636.536982625684
 30
0.0
 11
1835.683625137518
 21
1636.536982625684
 31
0.0
  0
LINE
  5
590
330
2
100
AcDbEntity
  8
0
100
AcDbLine
 10
1835.683625137518
 20
1634.236982625684
 30
0.0
 11
1834.643233532951
 21
1634.236982625684
 31
0.0
  0
ARC
  5
591
330
2
100
AcDbEntity
  8
0
100
AcDbCircle
 10
1831.126487878229
 20
1635.386982625685
 30
0.0
 40
4.699999999999999
100
AcDbArc
 50
165.8370261906369
 51
194.162973809363
  0
LINE
  5
592
330
2
100
AcDbEntity
  8
0
100
AcDbLine
 10
1827.609742223508
 20
1634.236982625684
 30
0.0
 11
1826.56935061894
 21
1634.236982625684
 31
0.0
  0
LINE
  5
593
330
2
100
AcDbEntity
  8
0
100
AcDbLine
 10
1826.56935061894
 20
1636.536982625684
 30
0.0
 11
1827.609742223508
 21
1636.536982625684
 31
0.0
  0
ARC
  5
594
330
2
100
AcDbEntity
  8
0
100
AcDbCircle
 10
1831.126487878229
 20
1635.386982625685
 30
0.0
 40
4.700000000000001
100
AcDbArc
 50
75.83702619062036
 51
104.1629738093796
  0
LINE
  5
595
330
2
100
AcDbEntity
  8
0
100
AcDbLine
 10
1832.276487878229
 20
1639.944119884973
 30
0.0
 11
1832.276487878229
 21
1638.903728280405
 31
0.0
  0
LINE
  5
596
330
2
100
AcDbEntity
  8
0
100
AcDbLine
 10
1829.976487878229
 20
1638.903728280405
 30
0.0
 11
1829.976487878229
 21
1639.944119884973
 31
0.0
  0
ARC
  5
597
330
2
100
AcDbEntity
  8
0
100
AcDbCircle
 10
1831.126487878229
 20
1635.386982625685
 30
0.0
 40
4.700000000000001
100
AcDbArc
 50
14.16297380936325
 51
75.83702619062036
  0
ARC
  5
598
330
2
100
AcDbEntity
  8
0
100
AcDbCircle
 10
1831.126487878229
 20
1635.386982625685
 30
0.0
 40
4.700000000000001
100
AcDbArc
 50
104.1629738093796
 51
165.8370261906369
  0
ARC
  5
599
330
2
100
AcDbEntity
  8
0
100
AcDbCircle
 10
1831.126487878229
 20
1635.386982625685
 30
0.0
 40
4.700000000000007
100
AcDbArc
 50
194.162973809363
 51
255.8370261906203
  0
ARC
  5
59A
330
2
100
AcDbEntity
  8
0
100
AcDbCircle
 10
1831.126487878229
 20
1635.386982625685
 30
0.0
 40
4.700000000000007
100
AcDbArc
 50
284.1629738093796
 51
345.8370261906368
  0
CIRCLE
  5
59B
330
2
100
AcDbEntity
  8
0
100
AcDbCircle
 10
1831.126487878229
 20
1635.386982625685
 30
0.0
 40
5.0
  0
ARC
  5
59C
330
2
100
AcDbEntity
  8
0
100
AcDbCircle
 10
1831.126487878229
 20
1635.386982625685
 30
0.0
 40
13.50000000000102
100
AcDbArc
 50
116.3877999612376
 51
170.4787416749618
  0
ARC
  5
59D
330
2
100
AcDbEntity
  8
0
100
AcDbCircle
 10
1818.009704736009
 20
1637.586982625684
 30
0.0
 40
0.2000000000000028
100
AcDbArc
 50
170.4787416749487
 51
270.0
  0
ARC
  5
59E
330
2
100
AcDbEntity
  8
0
100
AcDbCircle
 10
1844.243271020449
 20
1637.586982625684
 30
0.0
 40
0.2000000000000028
100
AcDbArc
 50
270.0
 51
9.52125832505126
  0
ARC
  5
59F
330
2
100
AcDbEntity
  8
0
100
AcDbCircle
 10
1831.126487878229
 20
1635.386982625685
 30
0.0
 40
13.50000000000102
100
AcDbArc
 50
9.521258325038008
 51
63.61220003876242
  0
ARC
  5
5A0
330
2
100
AcDbEntity
  8
0
100
AcDbCircle
 10
1844.243271020449
 20
1633.186982625684
 30
0.0
 40
0.2000000000000028
100
AcDbArc
 50
350.4787416749487
 51
90.0
  0
ARC
  5
5A1
330
2
100
AcDbEntity
  8
0
100
AcDbCircle
 10
1831.126487878229
 20
1635.386982625685
 30
0.0
 40
13.50000000000102
100
AcDbArc
 50
189.5212583250279
 51
243.6122000387624
  0
ARC
  5
5A2
330
2
100
AcDbEntity
  8
0
100
AcDbCircle
 10
1831.126487878229
 20
1635.386982625685
 30
0.0
 40
13.50000000000102
100
AcDbArc
 50
296.3877999612376
 51
350.478741674962
  0
ARC
  5
5A3
330
2
100
AcDbEntity
  8
0
100
AcDbCircle
 10
1818.009704736009
 20
1633.186982625684
 30
0.0
 40
0.2000000000000028
100
AcDbArc
 50
90.0
 51
189.5212583250512
  0
LINE
  5
5A4
330
2
100
AcDbEntity
  8
0
100
AcDbLine
 10
1825.126487878229
 20
1647.480369248132
 30
0.0
 11
1825.126487878229
 21
1650.94333181179
 31
0.0
  0
ARC
  5
5A5
330
2
100
AcDbEntity
  8
0
100
AcDbCircle
 10
1836.626487878229
 20
1619.830633439579
 30
0.0
 40
0.5000000000000049
100
AcDbArc
 50
289.4712206345002
 51
0.0
  0
LINE
  5
5A6
330
2
100
AcDbEntity
  8
0
100
AcDbLine
 10
1837.126487878229
 20
1623.293596003237
 30
0.0
 11
1837.126487878229
 21
1619.830633439579
 31
0.0
  0
ARC
  5
5A7
330
2
100
AcDbEntity
  8
0
100
AcDbCircle
 10
1825.62648787823
 20
1650.94333181179
 30
0.0
 40
0.5
100
AcDbArc
 50
109.4712206345001
 51
180.0
  0
LINE
  5
5A8
330
2
100
AcDbEntity
  8
0
100
AcDbLine
 10
1818.009704736009
 20
1633.386982625685
 30
0.0
 11
1818.626487878229
 21
1633.386982625685
 31
0.0
  0
LINE
  5
5A9
330
2
100
AcDbEntity
  8
0
100
AcDbLine
 10
1825.126487878229
 20
1619.830633439579
 30
0.0
 11
1825.126487878229
 21
1623.293596003237
 31
0.0
  0
LINE
  5
5AA
330
2
100
AcDbEntity
  8
0
100
AcDbLine
 10
1843.626487878229
 20
1633.386982625685
 30
0.0
 11
1844.243271020449
 21
1633.386982625685
 31
0.0
  0
LINE
  5
5AB
330
2
100
AcDbEntity
  8
0
100
AcDbLine
 10
1843.626487878229
 20
1637.386982625685
 30
0.0
 11
1843.626487878229
 21
1633.386982625685
 31
0.0
  0
LINE
  5
5AC
330
2
100
AcDbEntity
  8
0
100
AcDbLine
 10
1818.626487878229
 20
1637.386982625685
 30
0.0
 11
1818.009704736009
 21
1637.386982625685
 31
0.0
  0
ARC
  5
5AD
330
2
100
AcDbEntity
  8
0
100
AcDbCircle
 10
1825.62648787823
 20
1619.830633439579
 30
0.0
 40
0.5000000000000049
100
AcDbArc
 50
180.0
 51
250.5287793654998
  0
ARC
  5
5AE
330
2
100
AcDbEntity
  8
0
100
AcDbCircle
 10
1831.126487878229
 20
1635.386982625685
 30
0.0
 40
17.00000000000148
100
AcDbArc
 50
70.52877936549982
 51
109.4712206345001
  0
LINE
  5
5AF
330
2
100
AcDbEntity
  8
0
100
AcDbLine
 10
1818.626487878229
 20
1633.386982625685
 30
0.0
 11
1818.626487878229
 21
1637.386982625685
 31
0.0
  0
LINE
  5
5B0
330
2
100
AcDbEntity
  8
0
100
AcDbLine
 10
1837.126487878229
 20
1650.94333181179
 30
0.0
 11
1837.126487878229
 21
1647.480369248132
 31
0.0
  0
ARC
  5
5B1
330
2
100
AcDbEntity
  8
0
100
AcDbCircle
 10
1831.126487878229
 20
1635.386982625685
 30
0.0
 40
17.00000000000149
100
AcDbArc
 50
250.5287793654998
 51
289.4712206345002
  0
CIRCLE
  5
5B2
330
2
100
AcDbEntity
  8
0
100
AcDbCircle
 10
1831.126487878229
 20
1635.386982625685
 30
0.0
 40
11.00000000000088
  0
ARC
  5
5B3
330
2
100
AcDbEntity
  8
0
100
AcDbCircle
 10
1836.626487878229
 20
1650.94333181179
 30
0.0
 40
0.5
100
AcDbArc
 50
0.0
 51
70.52877936549982
  0
LINE
  5
5B4
330
2
100
AcDbEntity
  8
0
100
AcDbLine
 10
1844.243271020449
 20
1637.386982625685
 30
0.0
 11
1843.626487878229
 21
1637.386982625685
 31
0.0
  0
LINE
  5
5B5
330
2
100
AcDbEntity
  8
0
100
AcDbLine
 10
1825.126487878229
 20
1620.036982625684
 30
0.0
 11
1825.126487878229
 21
1623.293596003237
 31
0.0
  0
LINE
  5
5B6
330
2
100
AcDbEntity
  8
0
100
AcDbLine
 10
1837.126487878229
 20
1623.293596003237
 30
0.0
 11
1837.126487878229
 21
1620.036982625684
 31
0.0
  0
LINE
  5
5B7
330
2
100
AcDbEntity
  8
0
100
AcDbLine
 10
1825.126487878229
 20
1647.480369248132
 30
0.0
 11
1825.126487878229
 21
1650.736982625684
 31
0.0
  0
LINE
  5
5B8
330
2
100
AcDbEntity
  8
0
100
AcDbLine
 10
1837.126487878229
 20
1650.736982625684
 30
0.0
 11
1837.126487878229
 21
1647.480369248132
 31
0.0
  0
CIRCLE
  5
5B9
330
2
100
AcDbEntity
  8
0
100
AcDbCircle
 10
1831.126487878229
 20
1644.636982625684
 30
0.0
 40
1.150000000000005
  0
CIRCLE
  5
5BA
330
2
100
AcDbEntity
  8
0
100
AcDbCircle
 10
1831.126487878229
 20
1626.136982625684
 30
0.0
 40
1.150000000000005
  0
ARC
  5
5BB
330
2
100
AcDbEntity
  8
0
100
AcDbCircle
 10
1818.226487878229
 20
1633.786982625684
 30
0.0
 40
0.200000000000017
100
AcDbArc
 50
270.0
 51
0.0
  0
LINE
  5
5BC
330
2
100
AcDbEntity
  8
0
100
AcDbLine
 10
1844.707724935288
 20
1637.186982625684
 30
0.0
 11
1844.026487878229
 21
1637.186982625684
 31
0.0
  0
LINE
  5
5BD
330
2
100
AcDbEntity
  8
0
100
AcDbLine
 10
1818.226487878229
 20
1637.186982625684
 30
0.0
 11
1817.545250821171
 21
1637.186982625684
 31
0.0
  0
LINE
  5
5BE
330
2
100
AcDbEntity
  8
0
100
AcDbLine
 10
1817.545250821171
 20
1633.586982625685
 30
0.0
 11
1818.226487878229
 21
1633.586982625685
 31
0.0
  0
ARC
  5
5BF
330
2
100
AcDbEntity
  8
0
100
AcDbCircle
 10
1844.026487878229
 20
1633.786982625684
 30
0.0
 40
0.1999999999999957
100
AcDbArc
 50
180.0
 51
270.0
  0
ARC
  5
5C0
330
2
100
AcDbEntity
  8
0
100
AcDbCircle
 10
1844.026487878229
 20
1636.986982625684
 30
0.0
 40
0.2000000000000028
100
AcDbArc
 50
90.0
 51
180.0
  0
ARC
  5
5C1
330
2
100
AcDbEntity
  8
0
100
AcDbCircle
 10
1831.126487878229
 20
1635.386982625685
 30
0.0
 40
13.7000000000005
100
AcDbArc
 50
187.549741072819
 51
244.0264485214492
  0
ARC
  5
5C2
330
2
100
AcDbEntity
  8
0
100
AcDbCircle
 10
1831.126487878229
 20
1635.386982625685
 30
0.0
 40
13.7000000000005
100
AcDbArc
 50
295.9735514785508
 51
352.4502589271809
  0
ARC
  5
5C3
330
2
100
AcDbEntity
  8
0
100
AcDbCircle
 10
1818.226487878229
 20
1636.986982625684
 30
0.0
 40
0.200000000000017
100
AcDbArc
 50
0.0
 51
90.0
  0
LINE
  5
5C4
330
2
100
AcDbEntity
  8
0
100
AcDbLine
 10
1843.826487878229
 20
1636.986982625684
 30
0.0
 11
1843.826487878229
 21
1633.786982625684
 31
0.0
  0
LINE
  5
5C5
330
2
100
AcDbEntity
  8
0
100
AcDbLine
 10
1818.42648787823
 20
1633.786982625684
 30
0.0
 11
1818.42648787823
 21
1636.986982625684
 31
0.0
  0
ARC
  5
5C6
330
2
100
AcDbEntity
  8
0
100
AcDbCircle
 10
1831.126487878229
 20
1635.386982625685
 30
0.0
 40
13.7000000000005
100
AcDbArc
 50
7.549741072819091
 51
64.0264485214492
  0
ARC
  5
5C7
330
2
100
AcDbEntity
  8
0
100
AcDbCircle
 10
1831.126487878229
 20
1635.386982625685
 30
0.0
 40
13.7000000000005
100
AcDbArc
 50
115.9735514785508
 51
172.450258927181
  0
LINE
  5
5C8
330
2
100
AcDbEntity
  8
0
100
AcDbLine
 10
1844.026487878229
 20
1633.586982625685
 30
0.0
 11
1844.707724935288
 21
1633.586982625685
 31
0.0
  0
ARC
  5
5C9
330
2
100
AcDbEntity
  8
0
100
AcDbCircle
 10
1831.126487878229
 20
1635.386982625685
 30
0.0
 40
17.00000000000148
100
AcDbArc
 50
109.4712206345001
 51
70.52877936549982
  0
CIRCLE
  5
5CA
330
2
100
AcDbEntity
  8
0
100
AcDbCircle
 10
1831.126487878229
 20
1635.386982625685
 30
0.0
 40
24.00000000000023
  0
LINE
  5
FB0
330
2
100
AcDbEntity
  8
0
370
    15
100
AcDbLine
 10
1646.407342813029
 20
1610.386982625684
 30
0.0
 11
1646.407342813029
 21
1595.0
 31
0.0
  0
ENDSEC
  0
SECTION
  2
OBJECTS
  0
DICTIONARY
  5
7
330
0
100
AcDbDictionary
281
     1
  3
ACAD_COLOR
350
2A
  3
ACAD_GROUP
350
26
  3
ACAD_LAYOUT
350
B
  3
ACAD_MATERIAL
350
29
  3
ACAD_MLINESTYLE
350
27
  3
ACAD_PLOTSETTINGS
350
28
  3
ACAD_PLOTSTYLENAME
350
6
  3
ACDBHEADERROUNDTRIPXREC
350
107C
  3
AcDbVariableDictionary
350
106F
  0
DICTIONARY
  5
11
330
10
100
AcDbDictionary
280
     1
281
     1
  3
ACAD_LAYERFILTERS
360
12
  3
ACAD_LAYERSTATES
360
13
  0
DICTIONARY
  5
2A
102
{ACAD_REACTORS
330
7
102
}
330
7
100
AcDbDictionary
281
     1
  0
DICTIONARY
  5
26
102
{ACAD_REACTORS
330
7
102
}
330
7
100
AcDbDictionary
281
     1
  0
DICTIONARY
  5
B
102
{ACAD_REACTORS
330
7
102
}
330
7
100
AcDbDictionary
281
     1
  3
1
350
F
  3
Model
350
A
  0
DICTIONARY
  5
29
102
{ACAD_REACTORS
330
7
102
}
330
7
100
AcDbDictionary
281
     1
  0
DICTIONARY
  5
27
102
{ACAD_REACTORS
330
7
102
}
330
7
100
AcDbDictionary
281
     1
  3
Standard
350
2C
  0
DICTIONARY
  5
28
102
{ACAD_REACTORS
330
7
102
}
330
7
100
AcDbDictionary
281
     1
  0
ACDBDICTIONARYWDFLT
  5
6
102
{ACAD_REACTORS
330
7
102
}
330
7
100
AcDbDictionary
281
     1
  3
Normal
350
5
100
AcDbDictionaryWithDefault
340
5
  0
DICTIONARY
  5
107C
102
{ACAD_REACTORS
330
7
102
}
330
7
100
AcDbDictionary
281
     1
  3
COLORDICT
350
107E
  3
MATERIALDICT
350
107D
  0
DICTIONARY
  5
106F
102
{ACAD_REACTORS
330
7
102
}
330
7
100
AcDbDictionary
281
     1
  3
DIMASSOC
350
1071
  3
HIDETEXT
350
1070
  3
PROJECTNAME
350
1072
  0
DICTIONARY
  5
12
102
{ACAD_REACTORS
330
11
102
}
330
11
100
AcDbDictionary
281
     1
  0
DICTIONARY
  5
13
102
{ACAD_REACTORS
330
11
102
}
330
11
100
AcDbDictionary
281
     1
  0
LAYOUT
  5
F
102
{ACAD_XDICTIONARY
360
1081
102
}
102
{ACAD_REACTORS
330
B
102
}
330
B
100
AcDbPlotSettings
  1

  2
Canon LBP-730 LIPS4
  4
A4
  6

 40
5.873749732971191
 41
5.916075706481933
 42
5.873748779296875
 43
5.873748779296875
 44
209.9733276367187
 45
296.9683227539062
 46
0.0
 47
0.0
 48
0.0
 49
0.0
140
0.0
141
0.0
142
1.0
143
1.0
 70
   688
 72
     1
 73
     1
 74
     5
  7

 75
    16
147
1.0
148
0.0
149
0.0
100
AcDbLayout
  1
1
 70
     1
 71
     1
 10
0.0
 20
0.0
 11
12.0
 21
9.0
 12
0.0
 22
0.0
 32
0.0
 14
1.000000000000000E+20
 24
1.000000000000000E+20
 34
1.000000000000000E+20
 15
-1.000000000000000E+20
 25
-1.000000000000000E+20
 35
-1.000000000000000E+20
146
0.0
 13
0.0
 23
0.0
 33
0.0
 16
1.0
 26
0.0
 36
0.0
 17
0.0
 27
1.0
 37
0.0
 76
     0
330
C
  0
LAYOUT
  5
A
102
{ACAD_XDICTIONARY
360
107F
102
}
102
{ACAD_REACTORS
330
B
102
}
330
B
100
AcDbPlotSettings
  1

  2
Adobe PDF
  4
A4
  6

 40
3.174999952316284
 41
3.174999952316284
 42
3.175003051757812
 43
3.17498779296875
 44
209.9098358154297
 45
297.0318298339844
 46
0.0
 47
1.6
 48
1583.671953508987
 49
1497.432761972617
140
1977.650496271042
141
1776.398683354366
142
1.0
143
1.370436974372412
 70
 11956
 72
     1
 73
     1
 74
     4
  7
monochrome.ctb
 75
     0
147
0.7296942644574713
148
-1583.671953508987
149
-1497.432761972617
100
AcDbLayout
  1
Model
 70
     1
 71
     0
 10
0.0
 20
0.0
 11
12.0
 21
9.0
 12
0.0
 22
0.0
 32
0.0
 14
0.0
 24
0.0
 34
0.0
 15
0.0
 25
0.0
 35
0.0
146
0.0
 13
0.0
 23
0.0
 33
0.0
 16
1.0
 26
0.0
 36
0.0
 17
0.0
 27
1.0
 37
0.0
 76
     0
330
2
  0
MLINESTYLE
  5
2C
102
{ACAD_REACTORS
330
27
102
}
330
27
100
AcDbMlineStyle
  2
STANDARD
 70
     0
  3

 62
   256
 51
90.0
 52
90.0
 71
     2
 49
0.5
 62
   256
  6
BYLAYER
 49
-0.5
 62
   256
  6
BYLAYER
  0
ACDBPLACEHOLDER
  5
5
102
{ACAD_REACTORS
330
6
102
}
330
6
  0
XRECORD
  5
107E
102
{ACAD_REACTORS
330
107C
102
}
330
107C
100
AcDbXrecord
280
     1
340
2A
  0
XRECORD
  5
107D
102
{ACAD_REACTORS
330
107C
102
}
330
107C
100
AcDbXrecord
280
     1
340
29
  0
DICTIONARYVAR
  5
1071
102
{ACAD_REACTORS
330
106F
102
}
330
106F
100
DictionaryVariables
280
     0
  1
2
  0
DICTIONARYVAR
  5
1070
102
{ACAD_REACTORS
330
106F
102
}
330
106F
100
DictionaryVariables
280
     0
  1
1
  0
DICTIONARYVAR
  5
1072
102
{ACAD_REACTORS
330
106F
102
}
330
106F
100
DictionaryVariables
280
     0
  1

  0
DICTIONARY
  5
1081
330
F
100
AcDbDictionary
280
     1
281
     1
  3
ACAD_XREC_ROUNDTRIP
360
1082
  0
DICTIONARY
  5
107F
330
A
100
AcDbDictionary
280
     1
281
     1
  3
ACAD_XREC_ROUNDTRIP
360
1080
  0
XRECORD
  5
1082
102
{ACAD_REACTORS
330
1081
102
}
330
1081
100
AcDbXrecord
280
     1
102
SHADEPLOT
 70
     0
102
SHADEPLOTRESLEVEL
 70
     2
102
SHADEPLOTCUSTOMDPI
 70
   300
  0
XRECORD
  5
1080
102
{ACAD_REACTORS
330
107F
102
}
330
107F
100
AcDbXrecord
280
     1
102
SHADEPLOT
 70
     0
102
SHADEPLOTRESLEVEL
 70
     2
102
SHADEPLOTCUSTOMDPI
 70
   300
  0
ENDSEC
  0
EOF
