  0
SECTION
  2
HEADER
  9
$ACADVER
  1
AC1015
  9
$ACADMAINTVER
 70
    20
  9
$DWGCODEPAGE
  3
ANSI_932
  9
$INSBASE
 10
0.0
 20
0.0
 30
0.0
  9
$EXTMIN
 10
-16.1627586695196
 20
-13.87335872028505
 30
0.0
  9
$EXTMAX
 10
342.5251970198044
 20
257.1929272822599
 30
0.0
  9
$LIMMIN
 10
0.0
 20
0.0
  9
$LIMMAX
 10
12.0
 20
9.0
  9
$ORTHOMODE
 70
     1
  9
$REGENMODE
 70
     1
  9
$FILLMODE
 70
     1
  9
$QTEXTMODE
 70
     0
  9
$MIRRTEXT
 70
     1
  9
$LTSCALE
 40
1.0
  9
$ATTMODE
 70
     1
  9
$TEXTSIZE
 40
2.0
  9
$TRACEWID
 40
0.05
  9
$TEXTSTYLE
  7
SIMPLEX
  9
$CLAYER
  8
4
  9
$CELTYPE
  6
ByLayer
  9
$CECOLOR
 62
   256
  9
$CELTSCALE
 40
1.0
  9
$DISPSILH
 70
     0
  9
$DIMSCALE
 40
1.0
  9
$DIMASZ
 40
0.18
  9
$DIMEXO
 40
0.0625
  9
$DIMDLI
 40
0.3799999999999999
  9
$DIMRND
 40
0.0
  9
$DIMDLE
 40
0.0
  9
$DIMEXE
 40
0.18
  9
$DIMTP
 40
0.0
  9
$DIMTM
 40
0.0
  9
$DIMTXT
 40
0.18
  9
$DIMCEN
 40
0.09
  9
$DIMTSZ
 40
0.0
  9
$DIMTOL
 70
     0
  9
$DIMLIM
 70
     0
  9
$DIMTIH
 70
     1
  9
$DIMTOH
 70
     1
  9
$DIMSE1
 70
     0
  9
$DIMSE2
 70
     0
  9
$DIMTAD
 70
     0
  9
$DIMZIN
 70
     0
  9
$DIMBLK
  1

  9
$DIMASO
 70
     1
  9
$DIMSHO
 70
     0
  9
$DIMPOST
  1

  9
$DIMAPOST
  1

  9
$DIMALT
 70
     0
  9
$DIMALTD
 70
     2
  9
$DIMALTF
 40
25.4
  9
$DIMLFAC
 40
1.0
  9
$DIMTOFL
 70
     0
  9
$DIMTVP
 40
0.0
  9
$DIMTIX
 70
     0
  9
$DIMSOXD
 70
     0
  9
$DIMSAH
 70
     0
  9
$DIMBLK1
  1

  9
$DIMBLK2
  1

  9
$DIMSTYLE
  2
Standard
  9
$DIMCLRD
 70
     0
  9
$DIMCLRE
 70
     0
  9
$DIMCLRT
 70
     0
  9
$DIMTFAC
 40
1.0
  9
$DIMGAP
 40
0.09
  9
$DIMJUST
 70
     0
  9
$DIMSD1
 70
     0
  9
$DIMSD2
 70
     0
  9
$DIMTOLJ
 70
     1
  9
$DIMTZIN
 70
     0
  9
$DIMALTZ
 70
     0
  9
$DIMALTTZ
 70
     0
  9
$DIMUPT
 70
     0
  9
$DIMDEC
 70
     3
  9
$DIMTDEC
 70
     3
  9
$DIMALTU
 70
     2
  9
$DIMALTTD
 70
     2
  9
$DIMTXSTY
  7
STANDARD
  9
$DIMAUNIT
 70
     0
  9
$DIMADEC
 70
     0
  9
$DIMALTRND
 40
0.0
  9
$DIMAZIN
 70
     0
  9
$DIMDSEP
 70
    46
  9
$DIMATFIT
 70
     3
  9
$DIMFRAC
 70
     0
  9
$DIMLDRBLK
  1

  9
$DIMLUNIT
 70
     2
  9
$DIMLWD
 70
    -2
  9
$DIMLWE
 70
    -2
  9
$DIMTMOVE
 70
     2
  9
$LUNITS
 70
     2
  9
$LUPREC
 70
     3
  9
$SKETCHINC
 40
0.1
  9
$FILLETRAD
 40
1.0
  9
$AUNITS
 70
     0
  9
$AUPREC
 70
     3
  9
$MENU
  1
Z:SANPOU-1
  9
$ELEVATION
 40
0.0
  9
$PELEVATION
 40
0.0
  9
$THICKNESS
 40
0.0
  9
$LIMCHECK
 70
     0
  9
$CHAMFERA
 40
1.0
  9
$CHAMFERB
 40
1.0
  9
$CHAMFERC
 40
0.0
  9
$CHAMFERD
 40
0.0
  9
$SKPOLY
 70
     0
  9
$TDCREATE
 40
2450821.670763889
  9
$TDUCREATE
 40
2450821.295763889
  9
$TDUPDATE
 40
2455127.575005058
  9
$TDUUPDATE
 40
2455127.200005058
  9
$TDINDWG
 40
0.0099674537
  9
$TDUSRTIMER
 40
0.0099672685
  9
$USRTIMER
 70
     1
  9
$ANGBASE
 50
0.0
  9
$ANGDIR
 70
     0
  9
$PDMODE
 70
     0
  9
$PDSIZE
 40
0.0
  9
$PLINEWID
 40
0.0
  9
$SPLFRAME
 70
     0
  9
$SPLINETYPE
 70
     6
  9
$SPLINESEGS
 70
     8
  9
$HANDSEED
  5
989
  9
$SURFTAB1
 70
     6
  9
$SURFTAB2
 70
     6
  9
$SURFTYPE
 70
     6
  9
$SURFU
 70
     6
  9
$SURFV
 70
     6
  9
$UCSBASE
  2

  9
$UCSNAME
  2

  9
$UCSORG
 10
0.0
 20
0.0
 30
0.0
  9
$UCSXDIR
 10
1.0
 20
0.0
 30
0.0
  9
$UCSYDIR
 10
0.0
 20
1.0
 30
0.0
  9
$UCSORTHOREF
  2

  9
$UCSORTHOVIEW
 70
     0
  9
$UCSORGTOP
 10
0.0
 20
0.0
 30
0.0
  9
$UCSORGBOTTOM
 10
0.0
 20
0.0
 30
0.0
  9
$UCSORGLEFT
 10
0.0
 20
0.0
 30
0.0
  9
$UCSORGRIGHT
 10
0.0
 20
0.0
 30
0.0
  9
$UCSORGFRONT
 10
0.0
 20
0.0
 30
0.0
  9
$UCSORGBACK
 10
0.0
 20
0.0
 30
0.0
  9
$PUCSBASE
  2

  9
$PUCSNAME
  2

  9
$PUCSORG
 10
0.0
 20
0.0
 30
0.0
  9
$PUCSXDIR
 10
1.0
 20
0.0
 30
0.0
  9
$PUCSYDIR
 10
0.0
 20
1.0
 30
0.0
  9
$PUCSORTHOREF
  2

  9
$PUCSORTHOVIEW
 70
     0
  9
$PUCSORGTOP
 10
0.0
 20
0.0
 30
0.0
  9
$PUCSORGBOTTOM
 10
0.0
 20
0.0
 30
0.0
  9
$PUCSORGLEFT
 10
0.0
 20
0.0
 30
0.0
  9
$PUCSORGRIGHT
 10
0.0
 20
0.0
 30
0.0
  9
$PUCSORGFRONT
 10
0.0
 20
0.0
 30
0.0
  9
$PUCSORGBACK
 10
0.0
 20
0.0
 30
0.0
  9
$USERI1
 70
     0
  9
$USERI2
 70
     0
  9
$USERI3
 70
     0
  9
$USERI4
 70
     0
  9
$USERI5
 70
     0
  9
$USERR1
 40
0.0
  9
$USERR2
 40
0.0
  9
$USERR3
 40
0.0
  9
$USERR4
 40
0.0
  9
$USERR5
 40
0.0
  9
$WORLDVIEW
 70
     1
  9
$SHADEDGE
 70
     3
  9
$SHADEDIF
 70
    70
  9
$TILEMODE
 70
     1
  9
$MAXACTVP
 70
    16
  9
$PINSBASE
 10
0.0
 20
0.0
 30
0.0
  9
$PLIMCHECK
 70
     0
  9
$PEXTMIN
 10
1.000000000000000E+20
 20
1.000000000000000E+20
 30
1.000000000000000E+20
  9
$PEXTMAX
 10
-1.000000000000000E+20
 20
-1.000000000000000E+20
 30
-1.000000000000000E+20
  9
$PLIMMIN
 10
0.0
 20
0.0
  9
$PLIMMAX
 10
12.0
 20
9.0
  9
$UNITMODE
 70
     0
  9
$VISRETAIN
 70
     0
  9
$PLINEGEN
 70
     0
  9
$PSLTSCALE
 70
     0
  9
$TREEDEPTH
 70
  3020
  9
$CMLSTYLE
  2
Standard
  9
$CMLJUST
 70
     0
  9
$CMLSCALE
 40
1.0
  9
$PROXYGRAPHICS
 70
     1
  9
$MEASUREMENT
 70
     0
  9
$CELWEIGHT
370
    -1
  9
$ENDCAPS
280
     0
  9
$JOINSTYLE
280
     0
  9
$LWDISPLAY
290
     0
  9
$INSUNITS
 70
     0
  9
$HYPERLINKBASE
  1

  9
$STYLESHEET
  1

  9
$XEDIT
290
     1
  9
$CEPSNTYPE
380
     0
  9
$PSTYLEMODE
290
     1
  9
$FINGERPRINTGUID
  2
{3643AF40-2BB5-46F1-8419-879DA4E2F108}
  9
$VERSIONGUID
  2
{D4E424BC-F8B3-4E83-AD36-808B00B739DF}
  9
$EXTNAMES
290
     1
  9
$PSVPSCALE
 40
0.0
  9
$OLESTARTUP
290
     0
  0
ENDSEC
  0
SECTION
  2
CLASSES
  0
CLASS
  1
ACDBDICTIONARYWDFLT
  2
AcDbDictionaryWithDefault
  3
ObjectDBX Classes
 90
        0
280
     0
281
     0
  0
CLASS
  1
DICTIONARYVAR
  2
AcDbDictionaryVar
  3
ObjectDBX Classes
 90
        0
280
     0
281
     0
  0
CLASS
  1
ACDBPLACEHOLDER
  2
AcDbPlaceHolder
  3
ObjectDBX Classes
 90
        0
280
     0
281
     0
  0
CLASS
  1
LAYOUT
  2
AcDbLayout
  3
ObjectDBX Classes
 90
        0
280
     0
281
     0
  0
ENDSEC
  0
SECTION
  2
TABLES
  0
TABLE
  2
VPORT
  5
8
330
0
100
AcDbSymbolTable
 70
     2
  0
VPORT
  5
981
330
8
100
AcDbSymbolTableRecord
100
AcDbViewportTableRecord
  2
*Active
 70
     0
 10
0.0
 20
0.0
 11
1.0
 21
1.0
 12
86.08421946846988
 22
152.8061620825438
 13
0.0
 23
0.0
 14
6.0
 24
6.0
 15
0.0
 25
0.0
 16
0.0
 26
0.0
 36
1.0
 17
0.0
 27
0.0
 37
0.0
 40
406.9220920538429
 41
1.884920634920634
 42
50.0
 43
0.0
 44
0.0
 50
0.0
 51
0.0
 71
     0
 72
 20000
 73
     1
 74
     0
 75
     0
 76
     0
 77
     0
 78
     0
281
     0
 65
     1
110
0.0
120
0.0
130
0.0
111
1.0
121
0.0
131
0.0
112
0.0
122
1.0
132
0.0
 79
     0
146
0.0
  0
ENDTAB
  0
TABLE
  2
LTYPE
  5
5
330
0
100
AcDbSymbolTable
 70
     4
  0
LTYPE
  5
13
330
5
100
AcDbSymbolTableRecord
100
AcDbLinetypeTableRecord
  2
ByBlock
 70
     0
  3

 72
    65
 73
     0
 40
0.0
  0
LTYPE
  5
14
330
5
100
AcDbSymbolTableRecord
100
AcDbLinetypeTableRecord
  2
ByLayer
 70
     0
  3

 72
    65
 73
     0
 40
0.0
  0
LTYPE
  5
15
330
5
100
AcDbSymbolTableRecord
100
AcDbLinetypeTableRecord
  2
CONTINUOUS
 70
     0
  3
Àü
 72
    65
 73
     0
 40
0.0
  0
LTYPE
  5
2A
330
5
100
AcDbSymbolTableRecord
100
AcDbLinetypeTableRecord
  2
C5
 70
     0
  3
\\\\\  ¥  \\\\\  ¥  \\\\\  ¥  \
 72
    65
 73
     4
 40
16.64
 49
12.8
 74
     0
 49
-1.28
 74
     0
 49
1.28
 74
     0
 49
-1.28
 74
     0
  0
LTYPE
  5
2B
330
5
100
AcDbSymbolTableRecord
100
AcDbLinetypeTableRecord
  2
H5
 70
     0
  3
\\\\\@@@\\\\\@@@\\\\\@@

 72
    65
 73
     2
 40
3.799999999999999
 49
2.2
 74
     0
 49
-1.6
 74
     0
  0
LTYPE
  5
2C
330
5
100
AcDbSymbolTableRecord
100
AcDbLinetypeTableRecord
  2
P5
 70
     0
  3
\\\\\  - -  \\\\\  - -  \\\\\  -
 72
    65
 73
     6
 40
16.5
 49
11.0
 74
     0
 49
-1.1
 74
     0
 49
1.1
 74
     0
 49
-1.1
 74
     0
 49
1.1
 74
     0
 49
-1.1
 74
     0
  0
ENDTAB
  0
TABLE
  2
LAYER
  5
2
330
0
100
AcDbSymbolTable
 70
     9
  0
LAYER
  5
10
330
2
100
AcDbSymbolTableRecord
100
AcDbLayerTableRecord
  2
0
 70
     0
 62
     7
  6
CONTINUOUS
370
    -3
390
F
  0
LAYER
  5
2D
330
2
100
AcDbSymbolTableRecord
100
AcDbLayerTableRecord
  2
1
 70
     0
 62
     1
  6
CONTINUOUS
370
    -3
390
F
  0
LAYER
  5
2E
330
2
100
AcDbSymbolTableRecord
100
AcDbLayerTableRecord
  2
2
 70
     0
 62
     2
  6
CONTINUOUS
370
    -3
390
F
  0
LAYER
  5
2F
330
2
100
AcDbSymbolTableRecord
100
AcDbLayerTableRecord
  2
3
 70
     0
 62
     3
  6
CONTINUOUS
370
    -3
390
F
  0
LAYER
  5
30
330
2
100
AcDbSymbolTableRecord
100
AcDbLayerTableRecord
  2
4
 70
     0
 62
     4
  6
CONTINUOUS
370
    -3
390
F
  0
LAYER
  5
31
330
2
100
AcDbSymbolTableRecord
100
AcDbLayerTableRecord
  2
6
 70
     0
 62
     6
  6
CONTINUOUS
370
    -3
390
F
  0
LAYER
  5
32
330
2
100
AcDbSymbolTableRecord
100
AcDbLayerTableRecord
  2
T
 70
     0
 62
     5
  6
C5
370
    -3
390
F
  0
LAYER
  5
33
330
2
100
AcDbSymbolTableRecord
100
AcDbLayerTableRecord
  2
S
 70
     0
 62
     6
  6
CONTINUOUS
370
    -3
390
F
  0
LAYER
  5
34
330
2
100
AcDbSymbolTableRecord
100
AcDbLayerTableRecord
  2
W
 70
     0
 62
     7
  6
CONTINUOUS
370
    -3
390
F
  0
ENDTAB
  0
TABLE
  2
STYLE
  5
3
330
0
100
AcDbSymbolTable
 70
     3
  0
STYLE
  5
11
330
3
100
AcDbSymbolTableRecord
100
AcDbTextStyleTableRecord
  2
STANDARD
 70
     0
 40
0.0
 41
1.0
 50
0.0
 71
     0
 42
0.2
  3
T:TXT
  4
T:SUG-BIG1
  0
STYLE
  5
28
330
3
100
AcDbSymbolTableRecord
100
AcDbTextStyleTableRecord
  2
SIMPLEX
 70
     0
 40
0.0
 41
1.0
 50
0.0
 71
     0
 42
2.0
  3
T:SIMPLEX
  4
T:SUG-BIG1
  0
STYLE
  5
29
330
3
100
AcDbSymbolTableRecord
100
AcDbTextStyleTableRecord
  2
SIMPLEX-T
 70
     4
 40
0.0
 41
1.0
 50
0.0
 71
     0
 42
0.2
  3
T:TXT
  4
T:SUG-BIG1
  0
ENDTAB
  0
TABLE
  2
VIEW
  5
6
330
0
100
AcDbSymbolTable
 70
     0
  0
ENDTAB
  0
TABLE
  2
UCS
  5
7
330
0
100
AcDbSymbolTable
 70
     0
  0
ENDTAB
  0
TABLE
  2
APPID
  5
9
330
0
100
AcDbSymbolTable
 70
     1
  0
APPID
  5
12
330
9
100
AcDbSymbolTableRecord
100
AcDbRegAppTableRecord
  2
ACAD
 70
     0
  0
ENDTAB
  0
TABLE
  2
DIMSTYLE
  5
A
330
0
100
AcDbSymbolTable
 70
     1
100
AcDbDimStyleTable
 71
     0
  0
DIMSTYLE
105
96C
330
A
100
AcDbSymbolTableRecord
100
AcDbDimStyleTableRecord
  2
Standard
 70
     0
340
11
  0
ENDTAB
  0
TABLE
  2
BLOCK_RECORD
  5
1
330
0
100
AcDbSymbolTable
 70
     3
  0
BLOCK_RECORD
  5
20
330
1
100
AcDbSymbolTableRecord
100
AcDbBlockTableRecord
  2
*Model_Space
340
23
  0
BLOCK_RECORD
  5
1C
330
1
100
AcDbSymbolTableRecord
100
AcDbBlockTableRecord
  2
*Paper_Space
340
1F
  0
BLOCK_RECORD
  5
24
330
1
100
AcDbSymbolTableRecord
100
AcDbBlockTableRecord
  2
*X0
340
0
102
{BLKREFS
331
962
102
}
  0
BLOCK_RECORD
  5
26
330
1
100
AcDbSymbolTableRecord
100
AcDbBlockTableRecord
  2
SUG-AR01
340
0
102
{BLKREFS
331
1D0
331
1D1
331
1D6
331
1D7
102
}
  0
BLOCK_RECORD
  5
27
330
1
100
AcDbSymbolTableRecord
100
AcDbBlockTableRecord
  2
SUG-AR04
340
0
102
{BLKREFS
331
13A
331
13B
331
13C
331
13D
331
15A
331
15B
331
161
102
}
  0
ENDTAB
  0
ENDSEC
  0
SECTION
  2
BLOCKS
  0
BLOCK
  5
37
330
20
100
AcDbEntity
  8
0
100
AcDbBlockBegin
  2
*Model_Space
 70
     0
 10
0.0
 20
0.0
 30
0.0
  3
*Model_Space
  1

  0
ENDBLK
  5
38
330
20
100
AcDbEntity
  8
0
100
AcDbBlockEnd
  0
BLOCK
  5
35
330
1C
100
AcDbEntity
 67
     1
  8
0
100
AcDbBlockBegin
  2
*Paper_Space
 70
     0
 10
0.0
 20
0.0
 30
0.0
  3
*Paper_Space
  1

  0
ENDBLK
  5
36
330
1C
100
AcDbEntity
 67
     1
  8
0
100
AcDbBlockEnd
  0
BLOCK
  5
3A
330
24
100
AcDbEntity
  8
0
100
AcDbBlockBegin
  2
*X0
 70
     1
 10
0.0
 20
0.0
 30
0.0
  3
*X0
  1

  0
LINE
  5
3B
330
24
100
AcDbEntity
  8
0
 62
     0
100
AcDbLine
 10
184.1312656108993
 20
93.62159761902123
 30
0.0
 11
185.3312656108993
 21
94.82159761902121
 31
0.0
  0
LINE
  5
3C
330
24
100
AcDbEntity
  8
0
 62
     0
100
AcDbLine
 10
182.7170520485262
 20
93.62159761902123
 30
0.0
 11
183.9170520485262
 21
94.82159761902121
 31
0.0
  0
LINE
  5
3D
330
24
100
AcDbEntity
  8
0
 62
     0
100
AcDbLine
 10
181.3028384861532
 20
93.62159761902123
 30
0.0
 11
182.5028384861531
 21
94.82159761902122
 31
0.0
  0
LINE
  5
3E
330
24
100
AcDbEntity
  8
0
 62
     0
100
AcDbLine
 10
179.8886249237801
 20
93.62159761902123
 30
0.0
 11
181.08862492378
 21
94.82159761902122
 31
0.0
  0
LINE
  5
3F
330
24
100
AcDbEntity
  8
0
 62
     0
100
AcDbLine
 10
179.6101656234927
 20
94.75735188110698
 30
0.0
 11
179.6744113614069
 21
94.82159761902122
 31
0.0
  0
LINE
  5
40
330
24
100
AcDbEntity
  8
0
 62
     0
100
AcDbLine
 10
178.3464893000491
 20
106.2215976190212
 30
0.0
 11
178.6101656234924
 21
106.4852739424646
 31
0.0
  0
LINE
  5
41
330
24
100
AcDbEntity
  8
0
 62
     0
100
AcDbLine
 10
176.932275737676
 20
106.2215976190212
 30
0.0
 11
178.432275737676
 21
107.7215976190212
 31
0.0
  0
LINE
  5
42
330
24
100
AcDbEntity
  8
0
 62
     0
100
AcDbLine
 10
175.5180621753029
 20
106.2215976190212
 30
0.0
 11
177.0180621753029
 21
107.7215976190212
 31
0.0
  0
LINE
  5
43
330
24
100
AcDbEntity
  8
0
 62
     0
100
AcDbLine
 10
174.1038486129298
 20
106.2215976190212
 30
0.0
 11
175.6038486129298
 21
107.7215976190212
 31
0.0
  0
LINE
  5
44
330
24
100
AcDbEntity
  8
0
 62
     0
100
AcDbLine
 10
172.6896350505567
 20
106.2215976190212
 30
0.0
 11
174.1896350505567
 21
107.7215976190212
 31
0.0
  0
LINE
  5
45
330
24
100
AcDbEntity
  8
0
 62
     0
100
AcDbLine
 10
171.2754214881836
 20
106.2215976190212
 30
0.0
 11
173.6101656234925
 21
108.5563417543301
 31
0.0
  0
LINE
  5
46
330
24
100
AcDbEntity
  8
0
 62
     0
100
AcDbLine
 10
170.6101656234924
 20
106.9705553167031
 30
0.0
 11
173.6101656234925
 21
109.9705553167032
 31
0.0
  0
LINE
  5
47
330
24
100
AcDbEntity
  8
0
 62
     0
100
AcDbLine
 10
170.6101656234924
 20
108.3847688790762
 30
0.0
 11
172.7469943634375
 21
110.5215976190213
 31
0.0
  0
LINE
  5
48
330
24
100
AcDbEntity
  8
0
 62
     0
100
AcDbLine
 10
170.6101656234924
 20
109.7989824414493
 30
0.0
 11
171.3327808010644
 21
110.5215976190213
 31
0.0
  0
LINE
  5
49
330
24
100
AcDbEntity
  8
0
 62
     0
100
AcDbLine
 10
185.5454791732724
 20
93.62159761902123
 30
0.0
 11
186.7454791732724
 21
94.82159761902121
 31
0.0
  0
LINE
  5
4A
330
24
100
AcDbEntity
  8
0
 62
     0
100
AcDbLine
 10
186.9596927356455
 20
93.62159761902123
 30
0.0
 11
188.1596927356454
 21
94.82159761902121
 31
0.0
  0
LINE
  5
4B
330
24
100
AcDbEntity
  8
0
 62
     0
100
AcDbLine
 10
188.3739062980186
 20
93.62159761902123
 30
0.0
 11
189.5739062980186
 21
94.82159761902121
 31
0.0
  0
LINE
  5
4C
330
24
100
AcDbEntity
  8
0
 62
     0
100
AcDbLine
 10
189.7881198603917
 20
93.62159761902123
 30
0.0
 11
190.9881198603917
 21
94.82159761902121
 31
0.0
  0
LINE
  5
4D
330
24
100
AcDbEntity
  8
0
 62
     0
100
AcDbLine
 10
191.2023334227648
 20
93.62159761902123
 30
0.0
 11
192.4023334227648
 21
94.82159761902121
 31
0.0
  0
LINE
  5
4E
330
24
100
AcDbEntity
  8
0
 62
     0
100
AcDbLine
 10
191.6101656234924
 20
92.61521625737577
 30
0.0
 11
193.8165469851379
 21
94.82159761902121
 31
0.0
  0
LINE
  5
4F
330
24
100
AcDbEntity
  8
0
 62
     0
100
AcDbLine
 10
205.6101656234925
 20
106.6152162573757
 30
0.0
 11
206.7165469851379
 21
107.7215976190212
 31
0.0
  0
LINE
  5
50
330
24
100
AcDbEntity
  8
0
 62
     0
100
AcDbLine
 10
191.6101656234924
 20
91.20100269500266
 30
0.0
 11
193.6101656234924
 21
93.20100269500269
 31
0.0
  0
LINE
  5
51
330
24
100
AcDbEntity
  8
0
 62
     0
100
AcDbLine
 10
210.6101656234925
 20
110.2010026950027
 30
0.0
 11
210.9307605475111
 21
110.5215976190213
 31
0.0
  0
LINE
  5
52
330
24
100
AcDbEntity
  8
0
 62
     0
100
AcDbLine
 10
194.030760547511
 20
93.62159761902123
 30
0.0
 11
195.230760547511
 21
94.82159761902121
 31
0.0
  0
LINE
  5
53
330
24
100
AcDbEntity
  8
0
 62
     0
100
AcDbLine
 10
206.630760547511
 20
106.2215976190212
 30
0.0
 11
208.130760547511
 21
107.7215976190212
 31
0.0
  0
LINE
  5
54
330
24
100
AcDbEntity
  8
0
 62
     0
100
AcDbLine
 10
192.9449741098841
 20
91.12159761902129
 30
0.0
 11
193.6101656234924
 21
91.78678913262958
 31
0.0
  0
LINE
  5
55
330
24
100
AcDbEntity
  8
0
 62
     0
100
AcDbLine
 10
210.6101656234925
 20
108.7867891326296
 30
0.0
 11
212.3449741098842
 21
110.5215976190213
 31
0.0
  0
LINE
  5
56
330
24
100
AcDbEntity
  8
0
 62
     0
100
AcDbLine
 10
195.4449741098841
 20
93.62159761902123
 30
0.0
 11
196.644974109884
 21
94.82159761902121
 31
0.0
  0
LINE
  5
57
330
24
100
AcDbEntity
  8
0
 62
     0
100
AcDbLine
 10
208.0449741098841
 20
106.2215976190212
 30
0.0
 11
209.5449741098841
 21
107.7215976190212
 31
0.0
  0
LINE
  5
58
330
24
100
AcDbEntity
  8
0
 62
     0
100
AcDbLine
 10
196.8591876722572
 20
93.62159761902123
 30
0.0
 11
198.059187672257
 21
94.82159761902121
 31
0.0
  0
LINE
  5
59
330
24
100
AcDbEntity
  8
0
 62
     0
100
AcDbLine
 10
209.4591876722572
 20
106.2215976190212
 30
0.0
 11
213.1846766478748
 21
109.9470865946389
 31
0.0
  0
LINE
  5
5A
330
24
100
AcDbEntity
  8
0
 62
     0
100
AcDbLine
 10
198.2734012346303
 20
93.62159761902123
 30
0.0
 11
199.4734012346302
 21
94.82159761902121
 31
0.0
  0
LINE
  5
5B
330
24
100
AcDbEntity
  8
0
 62
     0
100
AcDbLine
 10
210.8734012346303
 20
106.2215976190212
 30
0.0
 11
213.6101656234924
 21
108.9583620078833
 31
0.0
  0
LINE
  5
5C
330
24
100
AcDbEntity
  8
0
 62
     0
100
AcDbLine
 10
199.6101656234924
 20
94.95836200788341
 30
0.0
 11
200.7734012346303
 21
96.12159761902123
 31
0.0
  0
LINE
  5
5D
330
24
100
AcDbEntity
  8
0
 62
     0
100
AcDbLine
 10
199.6876147970034
 20
93.62159761902123
 30
0.0
 11
202.1876147970034
 21
96.12159761902123
 31
0.0
  0
LINE
  5
5E
330
24
100
AcDbEntity
  8
0
 62
     0
100
AcDbLine
 10
212.2876147970034
 20
106.2215976190212
 30
0.0
 11
213.6101656234924
 21
107.5441484455103
 31
0.0
  0
LINE
  5
5F
330
24
100
AcDbEntity
  8
0
 62
     0
100
AcDbLine
 10
201.1018283593765
 20
93.62159761902123
 30
0.0
 11
203.6018283593765
 21
96.12159761902123
 31
0.0
  0
LINE
  5
60
330
24
100
AcDbEntity
  8
0
 62
     0
100
AcDbLine
 10
202.5160419217496
 20
93.62159761902123
 30
0.0
 11
205.0160419217496
 21
96.12159761902129
 31
0.0
  0
LINE
  5
61
330
24
100
AcDbEntity
  8
0
 62
     0
100
AcDbLine
 10
203.9302554841227
 20
93.62159761902123
 30
0.0
 11
206.4302554841227
 21
96.12159761902129
 31
0.0
  0
LINE
  5
62
330
24
100
AcDbEntity
  8
0
 62
     0
100
AcDbLine
 10
205.3444690464958
 20
93.62159761902123
 30
0.0
 11
207.8444690464958
 21
96.12159761902129
 31
0.0
  0
LINE
  5
63
330
24
100
AcDbEntity
  8
0
 62
     0
100
AcDbLine
 10
206.7586826088689
 20
93.62159761902123
 30
0.0
 11
209.2586826088689
 21
96.12159761902129
 31
0.0
  0
LINE
  5
64
330
24
100
AcDbEntity
  8
0
 62
     0
100
AcDbLine
 10
208.172896171242
 20
93.62159761902123
 30
0.0
 11
210.672896171242
 21
96.12159761902129
 31
0.0
  0
LINE
  5
65
330
24
100
AcDbEntity
  8
0
 62
     0
100
AcDbLine
 10
209.5871097336151
 20
93.62159761902123
 30
0.0
 11
212.0871097336151
 21
96.12159761902129
 31
0.0
  0
LINE
  5
66
330
24
100
AcDbEntity
  8
0
 62
     0
100
AcDbLine
 10
210.6101656234924
 20
93.23043994652548
 30
0.0
 11
213.5013232959882
 21
96.12159761902129
 31
0.0
  0
LINE
  5
67
330
24
100
AcDbEntity
  8
0
 62
     0
100
AcDbLine
 10
210.6101656234924
 20
91.81622638415241
 30
0.0
 11
213.6101656234924
 21
94.81622638415242
 31
0.0
  0
LINE
  5
68
330
24
100
AcDbEntity
  8
0
 62
     0
100
AcDbLine
 10
211.3297504207344
 20
91.12159761902129
 30
0.0
 11
213.6101656234924
 21
93.40201282177931
 31
0.0
  0
LINE
  5
69
330
24
100
AcDbEntity
  8
0
 62
     0
100
AcDbLine
 10
212.7439639831075
 20
91.12159761902129
 30
0.0
 11
213.6101656234924
 21
91.9877992594062
 31
0.0
  0
ENDBLK
  5
6A
330
24
100
AcDbEntity
  8
0
100
AcDbBlockEnd
  0
BLOCK
  5
6B
330
26
100
AcDbEntity
  8
0
100
AcDbBlockBegin
  2
SUG-AR01
 70
     0
 10
0.0
 20
0.0
 30
0.0
  3
SUG-AR01
  1

  0
LINE
  5
6C
330
26
100
AcDbEntity
  8
0
100
AcDbLine
 10
0.0
 20
0.0
 30
0.0
 11
5.0
 21
1.339745962155659
 31
0.0
  0
LINE
  5
6D
330
26
100
AcDbEntity
  8
0
100
AcDbLine
 10
5.0
 20
-1.339745962155659
 30
0.0
 11
5.0
 21
1.339745962155659
 31
0.0
  0
LINE
  5
6E
330
26
100
AcDbEntity
  8
0
100
AcDbLine
 10
0.0
 20
0.0
 30
0.0
 11
5.0
 21
-1.339745962155659
 31
0.0
  0
ENDBLK
  5
6F
330
26
100
AcDbEntity
  8
0
100
AcDbBlockEnd
  0
BLOCK
  5
70
330
27
100
AcDbEntity
  8
0
100
AcDbBlockBegin
  2
SUG-AR04
 70
     0
 10
0.0
 20
0.0
 30
0.0
  3
SUG-AR04
  1

  0
CIRCLE
  5
71
330
27
100
AcDbEntity
  8
0
100
AcDbCircle
 10
0.0
 20
0.0
 30
0.0
 40
0.75
  0
ENDBLK
  5
72
330
27
100
AcDbEntity
  8
0
100
AcDbBlockEnd
  0
ENDSEC
  0
SECTION
  2
ENTITIES
  0
TEXT
  5
B3
330
20
100
AcDbEntity
  8
0
100
AcDbText
 10
58.42212355580506
 20
245.7909442203257
 30
0.0
 40
3.0
  1
AKA0500020
  7
SIMPLEX
100
AcDbText
  0
CIRCLE
  5
B6
330
20
100
AcDbEntity
  8
0
100
AcDbCircle
 10
71.50938608090033
 20
195.985820501073
 30
0.0
 40
4.120095137150213
  0
LINE
  5
B7
330
20
100
AcDbEntity
  8
0
100
AcDbLine
 10
42.06586235117394
 20
224.3455082972508
 30
0.0
 11
41.11363429862154
 21
225.8854185373456
 31
0.0
  0
LINE
  5
B8
330
20
100
AcDbEntity
  8
0
100
AcDbLine
 10
41.29074398662673
 20
223.8374020583307
 30
0.0
 11
42.06586235117394
 21
224.3455082972508
 31
0.0
  0
LINE
  5
B9
330
20
100
AcDbEntity
  8
0
100
AcDbLine
 10
40.39050300119464
 20
225.3734334929168
 30
0.0
 11
41.29074398662673
 21
223.8374020583307
 31
0.0
  0
CIRCLE
  5
BA
330
20
100
AcDbEntity
  8
0
100
AcDbCircle
 10
40.02840836436424
 20
226.651528920042
 30
0.0
 40
1.328397699056837
  0
CIRCLE
  5
BB
330
20
100
AcDbEntity
  8
0
100
AcDbCircle
 10
40.10959758479606
 20
226.6429979002555
 30
0.0
 40
0.7673506816655086
  0
LWPOLYLINE
  5
BC
330
20
100
AcDbEntity
  8
0
100
AcDbPolyline
 90
        3
 70
     0
 43
0.0
 10
63.98399119747253
 20
198.6688787457804
 42
0.2864734727144609
 10
48.54105909735105
 20
217.5816832105679
 42
-0.221061739493202
 10
41.66840982332705
 20
224.1555001246911
 42
-8.08928776277947
  0
LWPOLYLINE
  5
C1
330
20
100
AcDbEntity
  8
0
100
AcDbPolyline
 90
        2
 70
     0
 43
0.0
 10
47.51824955989323
 20
199.8722921922601
 42
-0.1134325209147518
 10
35.77740981460755
 20
200.1790866963271
 42
0.4676013462159837
  0
LWPOLYLINE
  5
C5
330
20
100
AcDbEntity
  8
0
100
AcDbPolyline
 90
        2
 70
     0
 43
0.0
 10
47.53737284384354
 20
198.8883920057994
 42
-0.1136209809318319
 10
35.77740981460755
 20
199.1913071017138
 42
0.4676013462159837
  0
LWPOLYLINE
  5
C9
330
20
100
AcDbEntity
  8
0
100
AcDbPolyline
 90
        2
 70
     0
 43
0.0
 10
47.24109315104455
 20
197.6775382340561
 42
-0.1107051571209809
 10
35.77740981460755
 20
198.038897574665
 42
0.4676013462159837
  0
LWPOLYLINE
  5
CD
330
20
100
AcDbEntity
  8
0
100
AcDbPolyline
 90
        2
 70
     0
 43
0.0
 10
47.05455345146485
 20
196.14391262273
 42
-0.1088886369992005
 10
35.77740981460755
 20
196.5814363034261
 42
0.4676013462159837
  0
LWPOLYLINE
  5
D1
330
20
100
AcDbEntity
  8
0
100
AcDbPolyline
 90
        2
 70
     0
 43
0.0
 10
47.46768937052024
 20
198.4250571547178
 42
0.1950309021224015
 10
35.77740981460755
 20
195.4226565652117
 42
1.122003918521145
  0
LWPOLYLINE
  5
D5
330
20
100
AcDbEntity
  8
0
100
AcDbPolyline
 90
        2
 70
     0
 43
0.0
 10
46.98982398691055
 20
196.8211083205376
 42
0.1249833676653578
 10
35.77740981460755
 20
194.0065961587914
 42
1.445497002285422
  0
LWPOLYLINE
  5
D9
330
20
100
AcDbEntity
  8
0
100
AcDbPolyline
 90
        2
 70
     0
 43
0.0
 10
63.86127760858954
 20
198.5869555170355
 42
0.1403957532171962
 10
49.39369890427274
 20
200.2450578546341
 42
-0.1228627116957747
  0
LWPOLYLINE
  5
DD
330
20
100
AcDbEntity
  8
0
100
AcDbPolyline
 90
        2
 70
     0
 43
0.0
 10
63.86127760858954
 20
197.5991759224221
 42
0.1389441162095829
 10
49.54232493262034
 20
199.2815700884683
 42
-0.1228627116957747
  0
LWPOLYLINE
  5
E1
330
20
100
AcDbEntity
  8
0
100
AcDbPolyline
 90
        2
 70
     0
 43
0.0
 10
63.47960161261815
 20
198.741747959657
 42
-0.092283766821817
 10
49.32224391882313
 20
198.1334692146974
 42
0.2090683194181333
  0
LWPOLYLINE
  5
E5
330
20
100
AcDbEntity
  8
0
100
AcDbPolyline
 90
        2
 70
     0
 43
0.0
 10
63.86127760858954
 20
196.4467663953734
 42
0.1412664154723846
 10
49.30465169959744
 20
198.089897848971
 42
-0.1228627116957747
  0
LWPOLYLINE
  5
E9
330
20
100
AcDbEntity
  8
0
100
AcDbPolyline
 90
        2
 70
     0
 43
0.0
 10
63.67467383587205
 20
197.7520405783151
 42
-0.0660599954960237
 10
48.89429973670194
 20
196.741924750998
 42
0.146639004259295
  0
LWPOLYLINE
  5
ED
330
20
100
AcDbEntity
  8
0
100
AcDbPolyline
 90
        2
 70
     0
 43
0.0
 10
63.95457949494823
 20
194.9650970034534
 42
0.1460530391655333
 10
48.90973599925263
 20
196.5205713027816
 42
-0.1228627116957747
  0
LWPOLYLINE
  5
F1
330
20
100
AcDbEntity
  8
0
100
AcDbPolyline
 90
        3
 70
     0
 43
0.0
 10
49.27984692496856
 20
200.5475255632492
 42
-0.2330599877931666
 10
49.15040021026574
 20
197.7688145028425
 42
0.2794296679543379
 10
49.23669802006755
 20
195.6372005386949
 42
-0.0256699572014555
  0
LWPOLYLINE
  5
F6
330
20
100
AcDbEntity
  8
0
100
AcDbPolyline
 90
        3
 70
     0
 43
0.0
 10
47.42444401422914
 20
200.3572028878789
 42
-0.1710530981073337
 10
47.16555058482363
 20
197.5023627573241
 42
0.2538379536576282
 10
47.29499729952634
 20
195.5991360036209
 42
-4.724063444352534
  0
LWPOLYLINE
  5
FB
330
20
100
AcDbEntity
  8
0
100
AcDbPolyline
 90
        4
 70
     1
 43
0.0
 10
31.67212681482275
 20
202.4439936527282
 10
31.67212681482275
 20
191.2491582471109
 10
35.77740981460755
 20
191.2491582471109
 10
35.77740981460755
 20
202.4439936527282
  0
TEXT
  5
101
330
20
100
AcDbEntity
  8
0
100
AcDbText
 10
222.728719604143
 20
78.1496055839294
 30
0.0
 40
3.0
  1
Ò@
  7
SIMPLEX
100
AcDbText
  0
TEXT
  5
102
330
20
100
AcDbEntity
  8
0
100
AcDbText
 10
222.728719604143
 20
84.06013239634487
 30
0.0
 40
3.0
  1
u[L
 41
0.7
  7
SIMPLEX
100
AcDbText
  0
TEXT
  5
103
330
20
100
AcDbEntity
  8
0
100
AcDbText
 10
222.728719604143
 20
90.07812333262249
 30
0.0
 40
3.0
  1
ðù
  7
SIMPLEX
100
AcDbText
  0
TEXT
  5
104
330
20
100
AcDbEntity
  8
0
100
AcDbText
 10
222.9723694274915
 20
95.98865014503791
 30
0.0
 40
3.0
  1
{ù
  7
SIMPLEX
100
AcDbText
  0
TEXT
  5
105
330
20
100
AcDbEntity
  8
0
100
AcDbText
 10
211.7191009616959
 20
77.98865014503793
 30
0.0
 40
3.0
  1
L
  7
SIMPLEX
100
AcDbText
  0
TEXT
  5
106
330
20
100
AcDbEntity
  8
0
100
AcDbText
 10
211.7191009616959
 20
83.98865014503794
 30
0.0
 40
3.0
  1
H
  7
SIMPLEX
100
AcDbText
  0
TEXT
  5
107
330
20
100
AcDbEntity
  8
0
100
AcDbText
 10
211.7191009616959
 20
89.98865014503794
 30
0.0
 40
3.0
  1
H
  7
SIMPLEX
100
AcDbText
  0
TEXT
  5
108
330
20
100
AcDbEntity
  8
0
100
AcDbText
 10
211.7191009616959
 20
95.98865014503791
 30
0.0
 40
3.0
  1
L
  7
SIMPLEX
100
AcDbText
  0
TEXT
  5
109
330
20
100
AcDbEntity
  8
0
100
AcDbText
 10
196.7191009616959
 20
77.98865014503793
 30
0.0
 40
3.0
  1
L
  7
SIMPLEX
100
AcDbText
  0
TEXT
  5
10A
330
20
100
AcDbEntity
  8
0
100
AcDbText
 10
196.7191009616959
 20
83.98865014503794
 30
0.0
 40
3.0
  1
H
  7
SIMPLEX
100
AcDbText
  0
TEXT
  5
10B
330
20
100
AcDbEntity
  8
0
100
AcDbText
 10
196.7191009616959
 20
89.98865014503794
 30
0.0
 40
3.0
  1
L
  7
SIMPLEX
100
AcDbText
  0
TEXT
  5
10C
330
20
100
AcDbEntity
  8
0
100
AcDbText
 10
196.7191009616959
 20
95.98865014503791
 30
0.0
 40
3.0
  1
H
  7
SIMPLEX
100
AcDbText
  0
TEXT
  5
10D
330
20
100
AcDbEntity
  8
0
100
AcDbText
 10
224.3124434559079
 20
102.3290334529018
 30
0.0
 40
3.0
  1
®ì
  7
SIMPLEX
100
AcDbText
  0
TEXT
  5
10E
330
20
100
AcDbEntity
  8
0
100
AcDbText
 10
206.9523935423307
 20
102.3290334529018
 30
0.0
 40
3.0
  1
CN#5
  7
SIMPLEX
100
AcDbText
  0
TEXT
  5
10F
330
20
100
AcDbEntity
  8
0
100
AcDbText
 10
191.7242795830526
 20
102.3290334529018
 30
0.0
 40
3.0
  1
CN#4
  7
SIMPLEX
100
AcDbText
  0
LINE
  5
110
330
20
100
AcDbEntity
  8
0
100
AcDbLine
 10
234.8663534822066
 20
106.9453891577514
 30
0.0
 11
189.8663534822066
 21
106.9453891577514
 31
0.0
  0
LINE
  5
111
330
20
100
AcDbEntity
  8
0
100
AcDbLine
 10
234.8663534822066
 20
76.94538915775139
 30
0.0
 11
234.8663534822066
 21
106.9453891577514
 31
0.0
  0
LINE
  5
112
330
20
100
AcDbEntity
  8
0
100
AcDbLine
 10
189.8663534822066
 20
76.94538915775139
 30
0.0
 11
234.8663534822066
 21
76.94538915775139
 31
0.0
  0
LINE
  5
113
330
20
100
AcDbEntity
  8
0
100
AcDbLine
 10
189.8663534822066
 20
106.9453891577514
 30
0.0
 11
189.8663534822066
 21
76.94538915775139
 31
0.0
  0
LINE
  5
114
330
20
100
AcDbEntity
  8
0
100
AcDbLine
 10
219.8663534822066
 20
106.9453891577514
 30
0.0
 11
219.8663534822067
 21
76.94538915775139
 31
0.0
  0
LINE
  5
115
330
20
100
AcDbEntity
  8
0
100
AcDbLine
 10
204.8663534822066
 20
106.9453891577514
 30
0.0
 11
204.8663534822066
 21
76.94538915775139
 31
0.0
  0
LINE
  5
116
330
20
100
AcDbEntity
  8
0
100
AcDbLine
 10
189.8663534822066
 20
82.9453891577514
 30
0.0
 11
234.8663534822067
 21
82.9453891577514
 31
0.0
  0
LINE
  5
117
330
20
100
AcDbEntity
  8
0
100
AcDbLine
 10
189.8663534822066
 20
88.94538915775139
 30
0.0
 11
234.8663534822067
 21
88.94538915775139
 31
0.0
  0
LINE
  5
118
330
20
100
AcDbEntity
  8
0
100
AcDbLine
 10
189.8663534822066
 20
94.94538915775141
 30
0.0
 11
234.8663534822067
 21
94.94538915775141
 31
0.0
  0
LINE
  5
119
330
20
100
AcDbEntity
  8
0
100
AcDbLine
 10
189.8663534822066
 20
100.9453891577514
 30
0.0
 11
234.8663534822067
 21
100.9453891577514
 31
0.0
  0
TEXT
  5
11A
330
20
100
AcDbEntity
  8
0
100
AcDbText
 10
255.2232135910391
 20
122.6367105540204
 30
0.0
 40
2.5
  1
ñH}
  7
SIMPLEX
100
AcDbText
  0
TEXT
  5
11B
330
20
100
AcDbEntity
  8
0
100
AcDbText
 10
313.2190440569837
 20
106.8320845675206
 30
0.0
 40
1.6
  1
LB1638
  7
SIMPLEX
100
AcDbText
  0
TEXT
  5
11C
330
20
100
AcDbEntity
  8
0
100
AcDbText
 10
321.7948406062385
 20
89.46703488076154
 30
0.0
 40
1.6
  1
NC
 41
0.7
  7
SIMPLEX
100
AcDbText
  0
TEXT
  5
11D
330
20
100
AcDbEntity
  8
0
100
AcDbText
 10
320.0882144272825
 20
92.55582896821106
 30
0.0
 40
1.6
  1
OUT2
 41
0.7
  7
SIMPLEX
100
AcDbText
  0
TEXT
  5
11E
330
20
100
AcDbEntity
  8
0
100
AcDbText
 10
321.8375062607125
 20
95.83296415855386
 30
0.0
 40
1.6
  1
VS
 41
0.7
  7
SIMPLEX
100
AcDbText
  0
TEXT
  5
11F
330
20
100
AcDbEntity
  8
0
100
AcDbText
 10
320.1308800817562
 20
99.41144511352593
 30
0.0
 40
1.6
  1
OUT1
 41
0.7
  7
SIMPLEX
100
AcDbText
  0
TEXT
  5
120
330
20
100
AcDbEntity
  8
0
100
AcDbText
 10
322.0935001875558
 20
102.2365616569249
 30
0.0
 40
1.6
  1
NC
 41
0.7
  7
SIMPLEX
100
AcDbText
  0
TEXT
  5
121
330
20
100
AcDbEntity
  8
0
100
AcDbText
 10
312.9630501301404
 20
89.9190535277054
 30
0.0
 40
1.6
  1
GND
 41
0.7
  7
SIMPLEX
100
AcDbText
  0
TEXT
  5
122
330
20
100
AcDbEntity
  8
0
100
AcDbText
 10
312.9630501301404
 20
92.93251117399766
 30
0.0
 40
1.6
  1
IN2
 41
0.7
  7
SIMPLEX
100
AcDbText
  0
TEXT
  5
123
330
20
100
AcDbEntity
  8
0
100
AcDbText
 10
312.9630501301404
 20
96.02130526144719
 30
0.0
 40
1.6
  1
VCC
 41
0.7
  7
SIMPLEX
100
AcDbText
  0
TEXT
  5
124
330
20
100
AcDbEntity
  8
0
100
AcDbText
 10
313.0910470935621
 20
99.37377689294731
 30
0.0
 40
1.6
  1
IN1
 41
0.7
  7
SIMPLEX
100
AcDbText
  0
TEXT
  5
125
330
20
100
AcDbEntity
  8
0
100
AcDbText
 10
313.0910470935621
 20
102.3872345392395
 30
0.0
 40
1.6
  1
GND
 41
0.7
  7
SIMPLEX
100
AcDbText
  0
TEXT
  5
126
330
20
100
AcDbEntity
  8
0
100
AcDbText
 10
324.9094333828335
 20
103.4419447154417
 30
0.0
 40
1.6
  1
10
  7
SIMPLEX
100
AcDbText
  0
TEXT
  5
127
330
20
100
AcDbEntity
  8
0
100
AcDbText
 10
324.9947646917814
 20
100.2401459662563
 30
0.0
 40
1.6
  1
9
  7
SIMPLEX
100
AcDbText
  0
TEXT
  5
128
330
20
100
AcDbEntity
  8
0
100
AcDbText
 10
324.8667677283596
 20
97.0383472170708
 30
0.0
 40
1.6
  1
8
  7
SIMPLEX
100
AcDbText
  0
TEXT
  5
129
330
20
100
AcDbEntity
  8
0
100
AcDbText
 10
324.9094333828335
 20
93.8365484678853
 30
0.0
 40
1.6
  1
7
  7
SIMPLEX
100
AcDbText
  0
TEXT
  5
12A
330
20
100
AcDbEntity
  8
0
100
AcDbText
 10
324.8667677283596
 20
90.67241793927848
 30
0.0
 40
1.6
  1
6
  7
SIMPLEX
100
AcDbText
  0
TEXT
  5
12B
330
20
100
AcDbEntity
  8
0
100
AcDbText
 10
311.2990896056581
 20
90.67241793927848
 30
0.0
 40
1.6
  1
5
  7
SIMPLEX
100
AcDbText
  0
TEXT
  5
12C
330
20
100
AcDbEntity
  8
0
100
AcDbText
 10
311.2990896056581
 20
93.91188490904259
 30
0.0
 40
1.6
  1
4
  7
SIMPLEX
100
AcDbText
  0
TEXT
  5
12D
330
20
100
AcDbEntity
  8
0
100
AcDbText
 10
311.2990896056581
 20
97.11368365822815
 30
0.0
 40
1.6
  1
3
  7
SIMPLEX
100
AcDbText
  0
TEXT
  5
12E
330
20
100
AcDbEntity
  8
0
100
AcDbText
 10
311.2990896056581
 20
100.3908188485709
 30
0.0
 40
1.6
  1
2
  7
SIMPLEX
100
AcDbText
  0
TEXT
  5
12F
330
20
100
AcDbEntity
  8
0
100
AcDbText
 10
311.3844209146058
 20
103.4796129360205
 30
0.0
 40
1.6
  1
1
  7
SIMPLEX
100
AcDbText
  0
TEXT
  5
130
330
20
100
AcDbEntity
  8
0
100
AcDbText
 10
259.2696784399531
 20
88.97268550201092
 30
0.0
 40
1.6
  1
8
  7
SIMPLEX
100
AcDbText
  0
TEXT
  5
131
330
20
100
AcDbEntity
  8
0
100
AcDbText
 10
259.2696784399531
 20
92.17268550201092
 30
0.0
 40
1.6
  1
7
  7
SIMPLEX
100
AcDbText
  0
TEXT
  5
132
330
20
100
AcDbEntity
  8
0
100
AcDbText
 10
259.2696784399531
 20
95.37268550201094
 30
0.0
 40
1.6
  1
6
  7
SIMPLEX
100
AcDbText
  0
TEXT
  5
133
330
20
100
AcDbEntity
  8
0
100
AcDbText
 10
259.2696784399531
 20
98.57268550201091
 30
0.0
 40
1.6
  1
5
  7
SIMPLEX
100
AcDbText
  0
TEXT
  5
134
330
20
100
AcDbEntity
  8
0
100
AcDbText
 10
259.2696784399531
 20
101.7726855020109
 30
0.0
 40
1.6
  1
4
  7
SIMPLEX
100
AcDbText
  0
TEXT
  5
135
330
20
100
AcDbEntity
  8
0
100
AcDbText
 10
259.2696784399531
 20
104.9726855020109
 30
0.0
 40
1.6
  1
3
  7
SIMPLEX
100
AcDbText
  0
TEXT
  5
136
330
20
100
AcDbEntity
  8
0
100
AcDbText
 10
259.2696784399531
 20
108.1726855020109
 30
0.0
 40
1.6
  1
2
  7
SIMPLEX
100
AcDbText
  0
TEXT
  5
137
330
20
100
AcDbEntity
  8
0
100
AcDbText
 10
259.2696784399531
 20
111.372685502011
 30
0.0
 40
1.6
  1
1
  7
SIMPLEX
100
AcDbText
  0
TEXT
  5
138
330
20
100
AcDbEntity
  8
0
100
AcDbText
 10
284.2664264506769
 20
92.51496285328913
 30
0.0
 40
1.6
  1
0.1Ê
  7
SIMPLEX
100
AcDbText
  0
TEXT
  5
139
330
20
100
AcDbEntity
  8
0
100
AcDbText
 10
299.0501065091852
 20
85.58185354737615
 30
0.0
 40
1.6
  1
0.1Ê
  7
SIMPLEX
100
AcDbText
  0
INSERT
  5
13A
330
20
100
AcDbEntity
  8
0
100
AcDbBlockReference
  2
SUG-AR04
 10
296.6576591786966
 20
83.20667330111614
 30
0.0
 41
0.4
 42
0.4
 43
0.8
  0
INSERT
  5
13B
330
20
100
AcDbEntity
  8
0
100
AcDbBlockReference
  2
SUG-AR04
 10
296.6576591786965
 20
90.51202541049514
 30
0.0
 41
0.4
 42
0.4
 43
0.8
  0
INSERT
  5
13C
330
20
100
AcDbEntity
  8
0
100
AcDbBlockReference
  2
SUG-AR04
 10
282.732402237547
 20
90.51202541049514
 30
0.0
 41
0.4
 42
0.4
 43
0.8
  0
INSERT
  5
13D
330
20
100
AcDbEntity
  8
0
100
AcDbBlockReference
  2
SUG-AR04
 10
282.732402237547
 20
96.91202541049513
 30
0.0
 41
0.4
 42
0.4
 43
0.8
  0
LINE
  5
13E
330
20
100
AcDbEntity
  8
0
100
AcDbLine
 10
296.6576591786966
 20
85.94998324503526
 30
0.0
 11
296.6576591786966
 21
83.20667330111614
 31
0.0
  0
LINE
  5
13F
330
20
100
AcDbEntity
  8
0
100
AcDbLine
 10
282.732402237547
 20
92.82173760133842
 30
0.0
 11
282.732402237547
 21
90.51202541049514
 31
0.0
  0
LINE
  5
140
330
20
100
AcDbEntity
  8
0
100
AcDbLine
 10
295.641163813341
 20
85.94998324503526
 30
0.0
 11
297.902197234054
 21
85.94998324503526
 31
0.0
  0
LINE
  5
141
330
20
100
AcDbEntity
  8
0
100
AcDbLine
 10
295.641163813341
 20
86.93166243879286
 30
0.0
 11
297.8674121045046
 21
86.93166243879286
 31
0.0
  0
LINE
  5
142
330
20
100
AcDbEntity
  8
0
100
AcDbLine
 10
281.8314673822166
 20
92.82173760133842
 30
0.0
 11
283.8142197665344
 21
92.82173760133842
 31
0.0
  0
LINE
  5
143
330
20
100
AcDbEntity
  8
0
100
AcDbLine
 10
281.9010376413155
 20
93.7420618454861
 30
0.0
 11
283.8142197665344
 21
93.7420618454861
 31
0.0
  0
LINE
  5
144
330
20
100
AcDbEntity
  8
0
100
AcDbLine
 10
296.6576591786966
 20
90.51202541049514
 30
0.0
 11
296.6576591786966
 21
86.93166243879286
 31
0.0
  0
LINE
  5
145
330
20
100
AcDbEntity
  8
0
100
AcDbLine
 10
282.732402237547
 20
96.91202541049513
 30
0.0
 11
282.732402237547
 21
93.7420618454861
 31
0.0
  0
TEXT
  5
146
330
20
100
AcDbEntity
  8
0
100
AcDbText
 10
339.5492624404034
 20
95.6924427315384
 30
0.0
 40
2.399999999999999
  1
M
  7
SIMPLEX
100
AcDbText
  0
LINE
  5
147
330
20
100
AcDbEntity
  8
0
100
AcDbLine
 10
340.483843443165
 20
98.95337898713485
 30
0.0
 11
340.483843443165
 21
100.1120254104951
 31
0.0
  0
LINE
  5
148
330
20
100
AcDbEntity
  8
0
100
AcDbLine
 10
340.483843443165
 20
93.71202541049514
 30
0.0
 11
340.483843443165
 21
94.87067183385546
 31
0.0
  0
CIRCLE
  5
149
330
20
100
AcDbEntity
  8
0
100
AcDbCircle
 10
340.483843443165
 20
96.91202541049513
 30
0.0
 40
2.041353576639388
  0
LINE
  5
14A
330
20
100
AcDbEntity
  8
0
100
AcDbLine
 10
331.6631355930082
 20
83.20667330111614
 30
0.0
 11
331.6631355930082
 21
96.91202541049513
 31
0.0
  0
LINE
  5
14B
330
20
100
AcDbEntity
  8
0
100
AcDbLine
 10
283.2205068492772
 20
83.20667330111614
 30
0.0
 11
331.6631355930082
 21
83.20667330111614
 31
0.0
  0
LINE
  5
14C
330
20
100
AcDbEntity
  8
0
100
AcDbLine
 10
273.161836981085
 20
93.71202541049514
 30
0.0
 11
283.2205068492772
 21
83.20667330111614
 31
0.0
  0
LINE
  5
14D
330
20
100
AcDbEntity
  8
0
100
AcDbLine
 10
324.7042857062532
 20
106.5120254104951
 30
0.0
 11
312.7042857062531
 21
106.5120254104951
 31
0.0
  0
LINE
  5
14E
330
20
100
AcDbEntity
  8
0
100
AcDbLine
 10
324.7042857062532
 20
87.31202541049515
 30
0.0
 11
324.7042857062532
 21
106.5120254104951
 31
0.0
  0
LINE
  5
14F
330
20
100
AcDbEntity
  8
0
100
AcDbLine
 10
312.7042857062531
 20
87.31202541049515
 30
0.0
 11
324.7042857062532
 21
87.31202541049515
 31
0.0
  0
LINE
  5
150
330
20
100
AcDbEntity
  8
0
100
AcDbLine
 10
312.7042857062531
 20
106.5120254104951
 30
0.0
 11
312.7042857062531
 21
87.31202541049515
 31
0.0
  0
LINE
  5
151
330
20
100
AcDbEntity
  8
0
100
AcDbLine
 10
324.7042857062532
 20
90.51202541049514
 30
0.0
 11
328.7764315899128
 21
90.51202541049514
 31
0.0
  0
LINE
  5
152
330
20
100
AcDbEntity
  8
0
100
AcDbLine
 10
324.7042857062532
 20
93.71202541049514
 30
0.0
 11
340.483843443165
 21
93.71202541049514
 31
0.0
  0
LINE
  5
153
330
20
100
AcDbEntity
  8
0
100
AcDbLine
 10
324.7042857062532
 20
96.91202541049513
 30
0.0
 11
331.6631355930082
 21
96.91202541049513
 31
0.0
  0
LINE
  5
154
330
20
100
AcDbEntity
  8
0
100
AcDbLine
 10
324.7042857062532
 20
100.1120254104951
 30
0.0
 11
340.483843443165
 21
100.1120254104951
 31
0.0
  0
LINE
  5
155
330
20
100
AcDbEntity
  8
0
100
AcDbLine
 10
324.7042857062532
 20
103.3120254104951
 30
0.0
 11
328.660963429789
 21
103.3120254104951
 31
0.0
  0
LINE
  5
156
330
20
100
AcDbEntity
  8
0
100
AcDbLine
 10
297.3968790970475
 20
109.7120254104951
 30
0.0
 11
303.5247543444612
 21
103.3120254104951
 31
0.0
  0
LINE
  5
157
330
20
100
AcDbEntity
  8
0
100
AcDbLine
 10
303.5247543444612
 20
103.3120254104951
 30
0.0
 11
312.7042857062531
 21
103.3120254104951
 31
0.0
  0
LINE
  5
158
330
20
100
AcDbEntity
  8
0
100
AcDbLine
 10
303.701531165177
 20
93.71202541049514
 30
0.0
 11
312.7042857062531
 21
93.71202541049514
 31
0.0
  0
LINE
  5
159
330
20
100
AcDbEntity
  8
0
100
AcDbLine
 10
294.5097182940564
 20
103.3120254104951
 30
0.0
 11
303.701531165177
 21
93.71202541049514
 31
0.0
  0
INSERT
  5
15A
330
20
100
AcDbEntity
  8
0
100
AcDbBlockReference
  2
SUG-AR04
 10
289.4867975275646
 20
109.7120254104951
 30
0.0
 41
0.4
 42
0.4
 43
0.8
  0
INSERT
  5
15B
330
20
100
AcDbEntity
  8
0
100
AcDbBlockReference
  2
SUG-AR04
 10
289.4867975275646
 20
90.51202541049514
 30
0.0
 41
0.4
 42
0.4
 43
0.8
  0
TEXT
  5
15C
330
20
100
AcDbEntity
  8
0
100
AcDbText
 10
301.5925300796429
 20
119.1390322084435
 30
0.0
 40
1.6
  1
NC
  7
SIMPLEX
100
AcDbText
  0
TEXT
  5
15D
330
20
100
AcDbEntity
  8
0
100
AcDbText
 10
275.1451806001067
 20
119.112221954705
 30
0.0
 40
1.6
  1
NC
  7
SIMPLEX
100
AcDbText
  0
TEXT
  5
15E
330
20
100
AcDbEntity
  8
0
100
AcDbText
 10
279.8274437372632
 20
122.3583821916992
 30
0.0
 40
1.6
  1
SW2
  7
SIMPLEX
100
AcDbText
  0
TEXT
  5
15F
330
20
100
AcDbEntity
  8
0
100
AcDbText
 10
293.8278119315991
 20
122.5492146773949
 30
0.0
 40
1.6
  1
SW1
  7
SIMPLEX
100
AcDbText
  0
LINE
  5
160
330
20
100
AcDbEntity
  8
0
100
AcDbLine
 10
273.2326757074988
 20
121.0695935865309
 30
0.0
 11
273.2326757074988
 21
106.5120254104951
 31
0.0
  0
INSERT
  5
161
330
20
100
AcDbEntity
  8
0
100
AcDbBlockReference
  2
SUG-AR04
 10
289.4867975275646
 20
121.0695935865309
 30
0.0
 41
0.4
 42
0.4
 43
0.8
  0
LINE
  5
162
330
20
100
AcDbEntity
  8
0
100
AcDbLine
 10
306.4767932345899
 20
121.0695935865309
 30
0.0
 11
306.4767932345899
 21
112.9120254104952
 31
0.0
  0
LINE
  5
163
330
20
100
AcDbEntity
  8
0
100
AcDbLine
 10
300.6867975275647
 20
121.0695935865309
 30
0.0
 11
306.4767932345899
 21
121.0695935865309
 31
0.0
  0
LINE
  5
164
330
20
100
AcDbEntity
  8
0
100
AcDbLine
 10
289.4867975275646
 20
121.0695935865309
 30
0.0
 11
289.4867975275646
 21
90.51202541049514
 31
0.0
  0
LINE
  5
165
330
20
100
AcDbEntity
  8
0
100
AcDbLine
 10
278.2867975275646
 20
121.0695935865309
 30
0.0
 11
273.2326757074988
 21
121.0695935865309
 31
0.0
  0
LINE
  5
166
330
20
100
AcDbEntity
  8
0
100
AcDbLine
 10
293.4867975275647
 20
121.0695935865309
 30
0.0
 11
300.596018011988
 21
120.1265676731247
 31
0.0
  0
LINE
  5
167
330
20
100
AcDbEntity
  8
0
100
AcDbLine
 10
285.4867975275647
 20
121.0695935865309
 30
0.0
 11
278.4713734692959
 21
118.4228470896131
 31
0.0
  0
LINE
  5
168
330
20
100
AcDbEntity
  8
0
100
AcDbLine
 10
286.2867975275646
 20
121.0695935865309
 30
0.0
 11
292.6867975275646
 21
121.0695935865309
 31
0.0
  0
CIRCLE
  5
169
330
20
100
AcDbEntity
  8
0
100
AcDbCircle
 10
299.8867975275646
 20
121.0695935865309
 30
0.0
 40
0.8
  0
CIRCLE
  5
16A
330
20
100
AcDbEntity
  8
0
100
AcDbCircle
 10
293.4867975275647
 20
121.0695935865309
 30
0.0
 40
0.8
  0
CIRCLE
  5
16B
330
20
100
AcDbEntity
  8
0
100
AcDbCircle
 10
285.4867975275647
 20
121.0695935865309
 30
0.0
 40
0.8
  0
CIRCLE
  5
16C
330
20
100
AcDbEntity
  8
0
100
AcDbCircle
 10
279.0867975275646
 20
121.0695935865309
 30
0.0
 40
0.8
  0
LINE
  5
16D
330
20
100
AcDbEntity
  8
0
100
AcDbLine
 10
261.8637581821086
 20
90.51202541049514
 30
0.0
 11
312.7042857062531
 21
90.51202541049514
 31
0.0
  0
LINE
  5
16E
330
20
100
AcDbEntity
  8
0
100
AcDbLine
 10
261.8637581821086
 20
93.71202541049514
 30
0.0
 11
273.161836981085
 21
93.71202541049514
 31
0.0
  0
LINE
  5
16F
330
20
100
AcDbEntity
  8
0
100
AcDbLine
 10
261.8637581821086
 20
96.91202541049513
 30
0.0
 11
312.7042857062531
 21
96.91202541049513
 31
0.0
  0
LINE
  5
170
330
20
100
AcDbEntity
  8
0
100
AcDbLine
 10
261.8637581821086
 20
100.1120254104951
 30
0.0
 11
312.7042857062531
 21
100.1120254104951
 31
0.0
  0
LINE
  5
171
330
20
100
AcDbEntity
  8
0
100
AcDbLine
 10
261.8637581821086
 20
103.3120254104951
 30
0.0
 11
294.5097182940564
 21
103.3120254104951
 31
0.0
  0
LINE
  5
172
330
20
100
AcDbEntity
  8
0
100
AcDbLine
 10
261.8637581821086
 20
106.5120254104951
 30
0.0
 11
273.2326757074988
 21
106.5120254104951
 31
0.0
  0
LINE
  5
173
330
20
100
AcDbEntity
  8
0
100
AcDbLine
 10
261.8637581821086
 20
109.7120254104951
 30
0.0
 11
297.3968790970475
 21
109.7120254104951
 31
0.0
  0
LINE
  5
174
330
20
100
AcDbEntity
  8
0
100
AcDbLine
 10
261.8637581821086
 20
112.9120254104952
 30
0.0
 11
306.4767932345899
 21
112.9120254104952
 31
0.0
  0
LWPOLYLINE
  5
175
330
20
100
AcDbEntity
  8
0
100
AcDbPolyline
 90
        4
 70
     1
 43
0.0
 10
257.7635131137631
 20
114.7914576639076
 10
257.7635131137631
 20
88.30099335963087
 10
263.5369211199542
 20
88.30099335963087
 10
263.5369211199542
 20
114.7914576639076
  0
CIRCLE
  5
17B
330
20
100
AcDbEntity
  8
0
100
AcDbCircle
 10
261.4637581821086
 20
90.51202541049514
 30
0.0
 40
0.4
  0
CIRCLE
  5
17C
330
20
100
AcDbEntity
  8
0
100
AcDbCircle
 10
261.4637581821086
 20
93.71202541049514
 30
0.0
 40
0.4
  0
CIRCLE
  5
17D
330
20
100
AcDbEntity
  8
0
100
AcDbCircle
 10
261.4637581821086
 20
96.91202541049513
 30
0.0
 40
0.4
  0
CIRCLE
  5
17E
330
20
100
AcDbEntity
  8
0
100
AcDbCircle
 10
261.4637581821086
 20
100.1120254104951
 30
0.0
 40
0.4
  0
CIRCLE
  5
17F
330
20
100
AcDbEntity
  8
0
100
AcDbCircle
 10
261.4637581821086
 20
103.3120254104951
 30
0.0
 40
0.4
  0
CIRCLE
  5
180
330
20
100
AcDbEntity
  8
0
100
AcDbCircle
 10
261.4637581821086
 20
106.5120254104951
 30
0.0
 40
0.4
  0
CIRCLE
  5
181
330
20
100
AcDbEntity
  8
0
100
AcDbCircle
 10
261.4637581821086
 20
109.7120254104951
 30
0.0
 40
0.4
  0
CIRCLE
  5
182
330
20
100
AcDbEntity
  8
0
100
AcDbCircle
 10
261.4637581821086
 20
112.9120254104952
 30
0.0
 40
0.4
  0
TEXT
  5
1CF
330
20
100
AcDbEntity
  8
0
100
AcDbText
 10
167.3704612117512
 20
240.9
 30
0.0
 40
3.0
  1
1.5
  7
SIMPLEX
 72
     1
 11
170.2276040688941
 21
240.9
 31
0.0
100
AcDbText
  0
INSERT
  5
1D0
330
20
100
AcDbEntity
  8
0
100
AcDbBlockReference
  2
SUG-AR01
 10
182.0093860809003
 20
240.0
 30
0.0
 41
0.5
 42
0.5
 43
0.5
  0
INSERT
  5
1D1
330
20
100
AcDbEntity
  8
0
100
AcDbBlockReference
  2
SUG-AR01
 10
180.5093860809003
 20
240.0
 30
0.0
 41
0.5
 42
0.5
 43
0.5
 50
180.0
  0
LINE
  5
1D2
330
20
100
AcDbEntity
  8
0
100
AcDbLine
 10
166.627604068894
 20
240.0
 30
0.0
 11
189.0093860809003
 21
240.0
 31
0.0
  0
LINE
  5
1D3
330
20
100
AcDbEntity
  8
0
100
AcDbLine
 10
182.0093860809003
 20
213.485820501073
 30
0.0
 11
182.0093860809003
 21
241.0
 31
0.0
  0
LINE
  5
1D4
330
20
100
AcDbEntity
  8
0
100
AcDbLine
 10
180.5093860809003
 20
216.485820501073
 30
0.0
 11
180.5093860809003
 21
241.0
 31
0.0
  0
TEXT
  5
1D5
330
20
100
AcDbEntity
  8
0
100
AcDbText
 10
183.1393860809003
 20
240.9
 30
0.0
 40
3.0
  1
Xg[N18
 41
0.7
  7
SIMPLEX
 72
     1
 11
191.0093860809003
 21
240.9
 31
0.0
100
AcDbText
  0
INSERT
  5
1D6
330
20
100
AcDbEntity
  8
0
100
AcDbBlockReference
  2
SUG-AR01
 10
200.0093860809002
 20
240.0
 30
0.0
 41
0.5
 42
0.5
 43
0.5
 50
180.0
  0
INSERT
  5
1D7
330
20
100
AcDbEntity
  8
0
100
AcDbBlockReference
  2
SUG-AR01
 10
182.0093860809003
 20
240.0
 30
0.0
 41
0.5
 42
0.5
 43
0.5
  0
LINE
  5
1D8
330
20
100
AcDbEntity
  8
0
100
AcDbLine
 10
182.0093860809003
 20
240.0
 30
0.0
 11
200.0093860809002
 21
240.0
 31
0.0
  0
LINE
  5
1D9
330
20
100
AcDbEntity
  8
0
100
AcDbLine
 10
200.0093860809002
 20
213.485820501073
 30
0.0
 11
200.0093860809002
 21
241.0
 31
0.0
  0
LINE
  5
1DA
330
20
100
AcDbEntity
  8
0
100
AcDbLine
 10
182.0093860809003
 20
213.485820501073
 30
0.0
 11
182.0093860809003
 21
241.0
 31
0.0
  0
LINE
  5
1DB
330
20
100
AcDbEntity
  8
0
  6
H5
100
AcDbLine
 10
200.0093860809002
 20
211.985820501073
 30
0.0
 11
198.5093860809002
 21
211.985820501073
 31
0.0
  0
LINE
  5
1DC
330
20
100
AcDbEntity
  8
0
  6
H5
100
AcDbLine
 10
200.0093860809002
 20
179.985820501073
 30
0.0
 11
200.0093860809002
 21
211.985820501073
 31
0.0
  0
LINE
  5
1DD
330
20
100
AcDbEntity
  8
0
  6
H5
100
AcDbLine
 10
198.5093860809002
 20
179.985820501073
 30
0.0
 11
200.0093860809002
 21
179.985820501073
 31
0.0
  0
LINE
  5
217
330
20
100
AcDbEntity
  8
0
100
AcDbLine
 10
52.40804849849616
 20
250.0945575899937
 30
0.0
 11
84.29242839384025
 21
250.0945575899937
 31
0.0
  0
LINE
  5
218
330
20
100
AcDbEntity
  8
0
100
AcDbLine
 10
52.40804849849616
 20
250.5245661931402
 30
0.0
 11
84.37366248274555
 21
250.5245661931402
 31
0.0
  0
TEXT
  5
21B
330
20
100
AcDbEntity
  8
0
100
AcDbText
 10
52.84393975119354
 20
251.2035280313401
 30
0.0
 40
4.0
  1
MF50B-02
  7
SIMPLEX
100
AcDbText
  0
CIRCLE
  5
23E
330
20
100
AcDbEntity
  8
0
100
AcDbCircle
 10
100.454598330645
 20
204.3470130957335
 30
0.0
 40
2.09886747597332
  0
CIRCLE
  5
23F
330
20
100
AcDbEntity
  8
0
100
AcDbCircle
 10
100.454598330645
 20
209.5434772089969
 30
0.0
 40
2.09886747597332
  0
LINE
  5
240
330
20
100
AcDbEntity
  8
0
100
AcDbLine
 10
96.30938608090026
 20
221.6862776360792
 30
0.0
 11
75.70938608090023
 21
221.6862776360792
 31
0.0
  0
LINE
  5
241
330
20
100
AcDbEntity
  8
0
100
AcDbLine
 10
96.30938608090026
 20
206.6862776360792
 30
0.0
 11
96.30938608090026
 21
221.6862776360792
 31
0.0
  0
LINE
  5
242
330
20
100
AcDbEntity
  8
0
100
AcDbLine
 10
75.70938608090023
 20
206.6862776360792
 30
0.0
 11
96.30938608090026
 21
206.6862776360792
 31
0.0
  0
LINE
  5
243
330
20
100
AcDbEntity
  8
0
100
AcDbLine
 10
75.70938608090023
 20
221.6862776360792
 30
0.0
 11
75.70938608090023
 21
206.6862776360792
 31
0.0
  0
CIRCLE
  5
267
330
20
100
AcDbEntity
  8
0
100
AcDbCircle
 10
71.50938608090033
 20
195.985820501073
 30
0.0
 40
2.25
  0
LINE
  5
2D4
330
20
100
AcDbEntity
  8
0
100
AcDbLine
 10
69.82698202837807
 20
211.3908017944333
 30
0.0
 11
69.50938608090024
 21
212.4843407323416
 31
0.0
  0
LINE
  5
2D5
330
20
100
AcDbEntity
  8
0
100
AcDbLine
 10
71.42769930495245
 20
210.985820501073
 30
0.0
 11
69.82698202837807
 21
211.3908017944333
 31
0.0
  0
LINE
  5
2D6
330
20
100
AcDbEntity
  8
0
100
AcDbLine
 10
69.85280004896797
 20
210.5706475910021
 30
0.0
 11
71.42769930495245
 21
210.985820501073
 31
0.0
  0
LINE
  5
2D7
330
20
100
AcDbEntity
  8
0
100
AcDbLine
 10
69.50938608090024
 20
209.2265059798232
 30
0.0
 11
69.85280004896797
 21
210.5706475910021
 31
0.0
  0
LINE
  5
2D8
330
20
100
AcDbEntity
  8
0
100
AcDbLine
 10
69.00080536950085
 20
210.5706475910021
 30
0.0
 11
69.50938608090024
 21
209.2265059798232
 31
0.0
  0
LINE
  5
2D9
330
20
100
AcDbEntity
  8
0
100
AcDbLine
 10
67.65826829882548
 20
210.985820501073
 30
0.0
 11
69.00080536950085
 21
210.5706475910021
 31
0.0
  0
LINE
  5
2DA
330
20
100
AcDbEntity
  8
0
100
AcDbLine
 10
69.00080536950085
 20
211.2996735496077
 30
0.0
 11
67.65826829882548
 21
210.985820501073
 31
0.0
  0
LINE
  5
2DB
330
20
100
AcDbEntity
  8
0
100
AcDbLine
 10
69.50938608090024
 20
212.6210330995802
 30
0.0
 11
69.00080536950085
 21
211.2996735496077
 31
0.0
  0
LINE
  5
2DC
330
20
100
AcDbEntity
  8
0
100
AcDbLine
 10
69.50938608090024
 20
213.685820501073
 30
0.0
 11
69.50938608090024
 21
208.285820501073
 31
0.0
  0
LINE
  5
2DD
330
20
100
AcDbEntity
  8
0
100
AcDbLine
 10
72.20938608090034
 20
210.985820501073
 30
0.0
 11
66.80938608090025
 21
210.985820501073
 31
0.0
  0
LINE
  5
2DE
330
20
100
AcDbEntity
  8
0
100
AcDbLine
 10
149.8771881939092
 20
169.3195671465544
 30
0.0
 11
149.5093860809003
 21
170.6236346847021
 31
0.0
  0
LINE
  5
2DF
330
20
100
AcDbEntity
  8
0
100
AcDbLine
 10
151.2916909558495
 20
168.9858205010731
 30
0.0
 11
149.8771881939092
 21
169.3195671465544
 31
0.0
  0
LINE
  5
2E0
330
20
100
AcDbEntity
  8
0
100
AcDbLine
 10
149.8771881939092
 20
168.6675333774805
 30
0.0
 11
151.2916909558495
 21
168.9858205010731
 31
0.0
  0
LINE
  5
2E1
330
20
100
AcDbEntity
  8
0
100
AcDbLine
 10
149.5093860809003
 20
167.0443854842542
 30
0.0
 11
149.8771881939092
 21
168.6675333774805
 31
0.0
  0
LINE
  5
2E2
330
20
100
AcDbEntity
  8
0
100
AcDbLine
 10
149.1542201155842
 20
168.6536603185641
 30
0.0
 11
149.5093860809003
 21
167.0443854842542
 31
0.0
  0
LINE
  5
2E3
330
20
100
AcDbEntity
  8
0
100
AcDbLine
 10
147.6611338668695
 20
168.9858205010731
 30
0.0
 11
149.1542201155842
 21
168.6536603185641
 31
0.0
  0
LINE
  5
2E4
330
20
100
AcDbEntity
  8
0
100
AcDbLine
 10
149.1542201155842
 20
169.3056940876379
 30
0.0
 11
147.6611338668695
 21
168.9858205010731
 31
0.0
  0
LINE
  5
2E5
330
20
100
AcDbEntity
  8
0
100
AcDbLine
 10
149.5093860809003
 20
170.6375077436186
 30
0.0
 11
149.1542201155842
 21
169.3056940876379
 31
0.0
  0
LINE
  5
2E6
330
20
100
AcDbEntity
  8
0
100
AcDbLine
 10
149.5093860809003
 20
171.685820501073
 30
0.0
 11
149.5093860809003
 21
166.2858205010731
 31
0.0
  0
LINE
  5
2E7
330
20
100
AcDbEntity
  8
0
100
AcDbLine
 10
152.2093860809002
 20
168.9858205010731
 30
0.0
 11
146.8093860809003
 21
168.9858205010731
 31
0.0
  0
LINE
  5
2E8
330
20
100
AcDbEntity
  8
0
100
AcDbLine
 10
149.9140284304302
 20
223.3168636905499
 30
0.0
 11
149.5093860809003
 21
224.4278825964113
 31
0.0
  0
LINE
  5
2E9
330
20
100
AcDbEntity
  8
0
100
AcDbLine
 10
151.2819990338611
 20
222.9858205010731
 30
0.0
 11
149.9140284304302
 21
223.3168636905499
 31
0.0
  0
LINE
  5
2EA
330
20
100
AcDbEntity
  8
0
100
AcDbLine
 10
149.8829381894431
 20
222.5761844199757
 30
0.0
 11
151.2819990338611
 21
222.9858205010731
 31
0.0
  0
LINE
  5
2EB
330
20
100
AcDbEntity
  8
0
100
AcDbLine
 10
149.5093860809003
 20
221.190839858346
 30
0.0
 11
149.8829381894431
 21
222.5761844199757
 31
0.0
  0
LINE
  5
2EC
330
20
100
AcDbEntity
  8
0
100
AcDbLine
 10
149.152317526247
 20
222.5761844199757
 30
0.0
 11
149.5093860809003
 21
221.190839858346
 31
0.0
  0
LINE
  5
2ED
330
20
100
AcDbEntity
  8
0
100
AcDbLine
 10
147.7221664408419
 20
222.9858205010731
 30
0.0
 11
149.152317526247
 21
222.5761844199757
 31
0.0
  0
LINE
  5
2EE
330
20
100
AcDbEntity
  8
0
100
AcDbLine
 10
149.152317526247
 20
223.3168636905499
 30
0.0
 11
147.7221664408419
 21
222.9858205010731
 31
0.0
  0
LINE
  5
2EF
330
20
100
AcDbEntity
  8
0
100
AcDbLine
 10
149.5093860809003
 20
224.4690314447766
 30
0.0
 11
149.152317526247
 21
223.3168636905499
 31
0.0
  0
LINE
  5
2F0
330
20
100
AcDbEntity
  8
0
100
AcDbLine
 10
149.5093860809003
 20
225.6858205010731
 30
0.0
 11
149.5093860809003
 21
220.2858205010731
 31
0.0
  0
LINE
  5
2F1
330
20
100
AcDbEntity
  8
0
100
AcDbLine
 10
152.2093860809003
 20
222.9858205010731
 30
0.0
 11
146.8093860809002
 21
222.9858205010731
 31
0.0
  0
LINE
  5
2F2
330
20
100
AcDbEntity
  8
0
100
AcDbLine
 10
114.3888920313155
 20
87.22172881949402
 30
0.0
 11
114.3888920313155
 21
81.42172881949411
 31
0.0
  0
LINE
  5
2F3
330
20
100
AcDbEntity
  8
0
100
AcDbLine
 10
126.4888920313157
 20
86.32172881949415
 30
0.0
 11
139.8888920313156
 21
86.32172881949415
 31
0.0
  0
LINE
  5
2F4
330
20
100
AcDbEntity
  8
0
100
AcDbLine
 10
125.9888920313156
 20
85.32172881949415
 30
0.0
 11
139.8888920313156
 21
85.32172881949415
 31
0.0
  0
LINE
  5
2F5
330
20
100
AcDbEntity
  8
0
100
AcDbLine
 10
174.8888920313156
 20
86.92172881949401
 30
0.0
 11
174.8888920313156
 21
81.42172881949402
 31
0.0
  0
LINE
  5
2F6
330
20
100
AcDbEntity
  8
0
100
AcDbLine
 10
140.0388920313156
 20
86.42172881949402
 30
0.0
 11
174.8888920313156
 21
86.42172881949402
 31
0.0
  0
LINE
  5
2F7
330
20
100
AcDbEntity
  8
0
100
AcDbLine
 10
133.7388920313156
 20
86.42172881949402
 30
0.0
 11
133.7388920313156
 21
96.42172881949404
 31
0.0
  0
LINE
  5
2F8
330
20
100
AcDbEntity
  8
0
100
AcDbLine
 10
140.0388920313156
 20
86.42172881949409
 30
0.0
 11
140.0388920313156
 21
96.42172881949402
 31
0.0
  0
LINE
  5
2F9
330
20
100
AcDbEntity
  8
0
100
AcDbLine
 10
74.80938608090025
 20
181.2858205010729
 30
0.0
 11
74.80938608090025
 21
174.2858205010729
 31
0.0
  0
LINE
  5
2FA
330
20
100
AcDbEntity
  8
0
100
AcDbLine
 10
69.80938608090025
 20
181.285820501073
 30
0.0
 11
74.80938608090025
 21
181.2858205010729
 31
0.0
  0
LINE
  5
2FB
330
20
100
AcDbEntity
  8
0
100
AcDbLine
 10
64.50938608090024
 20
165.1858205010731
 30
0.0
 11
65.70938608090035
 21
165.1858205010731
 31
0.0
  0
LINE
  5
2FC
330
20
100
AcDbEntity
  8
0
100
AcDbLine
 10
65.70938608090035
 20
163.9858205010732
 30
0.0
 11
65.70938608090035
 21
165.1858205010731
 31
0.0
  0
CIRCLE
  5
2FD
330
20
100
AcDbEntity
  8
0
100
AcDbCircle
 10
69.50938608090024
 20
210.985820501073
 30
0.0
 40
2.25
  0
LINE
  5
2FE
330
20
100
AcDbEntity
  8
0
100
AcDbLine
 10
69.80938608090034
 20
168.5858205010732
 30
0.0
 11
116.0093860809002
 21
168.5858205010732
 31
0.0
  0
LINE
  5
2FF
330
20
100
AcDbEntity
  8
0
100
AcDbLine
 10
74.70938608090023
 20
222.6862776360793
 30
0.0
 11
97.30938608090026
 21
222.6862776360793
 31
0.0
  0
LINE
  5
300
330
20
100
AcDbEntity
  8
0
100
AcDbLine
 10
74.70938608090023
 20
205.6862776360792
 30
0.0
 11
74.70938608090023
 21
222.6862776360793
 31
0.0
  0
LINE
  5
301
330
20
100
AcDbEntity
  8
0
100
AcDbLine
 10
97.30938608090026
 20
205.6862776360792
 30
0.0
 11
74.70938608090023
 21
205.6862776360792
 31
0.0
  0
LINE
  5
302
330
20
100
AcDbEntity
  8
0
100
AcDbLine
 10
97.30938608090026
 20
222.6862776360793
 30
0.0
 11
97.30938608090026
 21
205.6862776360792
 31
0.0
  0
LINE
  5
303
330
20
100
AcDbEntity
  8
0
100
AcDbLine
 10
174.0093860809001
 20
163.9858205010732
 30
0.0
 11
174.0093860809001
 21
176.785820501073
 31
0.0
  0
LINE
  5
304
330
20
100
AcDbEntity
  8
0
100
AcDbLine
 10
137.0093860809003
 20
215.185820501073
 30
0.0
 11
137.0093860809003
 21
176.785820501073
 31
0.0
  0
LINE
  5
305
330
20
100
AcDbEntity
  8
0
100
AcDbLine
 10
116.0093860809002
 20
172.285820501073
 30
0.0
 11
116.0093860809002
 21
174.2858205010729
 31
0.0
  0
LINE
  5
306
330
20
100
AcDbEntity
  8
0
100
AcDbLine
 10
69.80938608090034
 20
170.585820501073
 30
0.0
 11
69.80938608090034
 21
168.5858205010732
 31
0.0
  0
LINE
  5
307
330
20
100
AcDbEntity
  8
0
100
AcDbLine
 10
116.0093860809002
 20
174.2858205010729
 30
0.0
 11
74.80938608090025
 21
174.2858205010729
 31
0.0
  0
LINE
  5
308
330
20
100
AcDbEntity
  8
0
100
AcDbLine
 10
116.0093860809003
 20
168.5858205010732
 30
0.0
 11
116.0093860809002
 21
170.585820501073
 31
0.0
  0
LINE
  5
309
330
20
100
AcDbEntity
  8
0
100
AcDbLine
 10
69.80938608090025
 20
181.2858205010729
 30
0.0
 11
69.80938608090034
 21
172.2858205010729
 31
0.0
  0
LINE
  5
30A
330
20
100
AcDbEntity
  8
0
100
AcDbLine
 10
64.50938608090024
 20
227.9858205010732
 30
0.0
 11
64.50938608090024
 21
163.9858205010732
 31
0.0
  0
CIRCLE
  5
30B
330
20
100
AcDbEntity
  8
0
100
AcDbCircle
 10
164.5093860809002
 20
220.9858205010732
 30
0.0
 40
2.25
  0
CIRCLE
  5
30C
330
20
100
AcDbEntity
  8
0
100
AcDbCircle
 10
164.5093860809002
 20
170.9858205010731
 30
0.0
 40
2.25
  0
LINE
  5
30D
330
20
100
AcDbEntity
  8
0
100
AcDbLine
 10
118.1093860809002
 20
170.585820501073
 30
0.0
 11
116.0093860809002
 21
170.585820501073
 31
0.0
  0
LINE
  5
30E
330
20
100
AcDbEntity
  8
0
100
AcDbLine
 10
118.1093860809002
 20
172.2858205010729
 30
0.0
 11
116.0093860809002
 21
172.285820501073
 31
0.0
  0
LINE
  5
30F
330
20
100
AcDbEntity
  8
0
100
AcDbLine
 10
118.1093860809002
 20
170.585820501073
 30
0.0
 11
118.1093860809002
 21
172.2858205010729
 31
0.0
  0
LINE
  5
310
330
20
100
AcDbEntity
  8
0
100
AcDbLine
 10
68.00938608090024
 20
172.2858205010729
 30
0.0
 11
68.00938608090024
 21
170.585820501073
 31
0.0
  0
LINE
  5
311
330
20
100
AcDbEntity
  8
0
100
AcDbLine
 10
68.00938608090024
 20
170.585820501073
 30
0.0
 11
69.80938608090034
 21
170.585820501073
 31
0.0
  0
LINE
  5
312
330
20
100
AcDbEntity
  8
0
100
AcDbLine
 10
69.80938608090034
 20
172.2858205010729
 30
0.0
 11
68.00938608090024
 21
172.2858205010729
 31
0.0
  0
CIRCLE
  5
313
330
20
100
AcDbEntity
  8
0
100
AcDbCircle
 10
149.5093860809003
 20
222.9858205010731
 30
0.0
 40
2.25
  0
CIRCLE
  5
314
330
20
100
AcDbEntity
  8
0
100
AcDbCircle
 10
149.5093860809003
 20
168.9858205010731
 30
0.0
 40
2.25
  0
LINE
  5
315
330
20
100
AcDbEntity
  8
0
100
AcDbLine
 10
64.50938608090024
 20
227.9858205010732
 30
0.0
 11
174.0093860809001
 21
227.9858205010731
 31
0.0
  0
LINE
  5
316
330
20
100
AcDbEntity
  8
0
100
AcDbLine
 10
64.50938608090024
 20
163.9858205010732
 30
0.0
 11
174.0093860809001
 21
163.9858205010732
 31
0.0
  0
LINE
  5
317
330
20
100
AcDbEntity
  8
0
100
AcDbLine
 10
174.0093860809001
 20
215.185820501073
 30
0.0
 11
174.0093860809001
 21
227.9858205010731
 31
0.0
  0
LINE
  5
318
330
20
100
AcDbEntity
  8
0
100
AcDbLine
 10
64.50938608090024
 20
226.4858205010732
 30
0.0
 11
66.00938608090032
 21
226.4858205010732
 31
0.0
  0
LINE
  5
319
330
20
100
AcDbEntity
  8
0
100
AcDbLine
 10
66.00938608090032
 20
227.9858205010732
 30
0.0
 11
66.00938608090032
 21
226.4858205010732
 31
0.0
  0
LINE
  5
31A
330
20
100
AcDbEntity
  8
0
100
AcDbLine
 10
137.0093860809003
 20
215.185820501073
 30
0.0
 11
174.0093860809001
 21
215.185820501073
 31
0.0
  0
LINE
  5
31B
330
20
100
AcDbEntity
  8
0
100
AcDbLine
 10
137.0093860809003
 20
176.785820501073
 30
0.0
 11
174.0093860809001
 21
176.785820501073
 31
0.0
  0
LINE
  5
31C
330
20
100
AcDbEntity
  8
0
100
AcDbLine
 10
95.55938608090031
 20
172.185820501073
 30
0.0
 11
95.55938608090031
 21
174.2858205010729
 31
0.0
  0
LINE
  5
31D
330
20
100
AcDbEntity
  8
0
100
AcDbLine
 10
103.5593860809002
 20
174.2858205010729
 30
0.0
 11
103.5593860809002
 21
172.185820501073
 31
0.0
  0
CIRCLE
  5
31E
330
20
100
AcDbEntity
  8
0
100
AcDbCircle
 10
102.5593860809002
 20
172.885820501073
 30
0.0
 40
0.75
  0
LINE
  5
31F
330
20
100
AcDbEntity
  8
0
100
AcDbLine
 10
102.4593860809002
 20
172.185820501073
 30
0.0
 11
102.4593860809002
 21
168.685820501073
 31
0.0
  0
LINE
  5
320
330
20
100
AcDbEntity
  8
0
100
AcDbLine
 10
102.4593860809002
 20
168.685820501073
 30
0.0
 11
101.6593860809003
 21
168.685820501073
 31
0.0
  0
LINE
  5
321
330
20
100
AcDbEntity
  8
0
100
AcDbLine
 10
101.6593860809003
 20
168.685820501073
 30
0.0
 11
101.6593860809003
 21
172.185820501073
 31
0.0
  0
LINE
  5
322
330
20
100
AcDbEntity
  8
0
100
AcDbLine
 10
99.95938608090023
 20
172.185820501073
 30
0.0
 11
99.95938608090023
 21
168.685820501073
 31
0.0
  0
LINE
  5
323
330
20
100
AcDbEntity
  8
0
100
AcDbLine
 10
99.95938608090023
 20
168.685820501073
 30
0.0
 11
99.1593860809003
 21
168.685820501073
 31
0.0
  0
LINE
  5
324
330
20
100
AcDbEntity
  8
0
100
AcDbLine
 10
99.1593860809003
 20
168.685820501073
 30
0.0
 11
99.1593860809003
 21
172.185820501073
 31
0.0
  0
LINE
  5
325
330
20
100
AcDbEntity
  8
0
100
AcDbLine
 10
97.45938608090023
 20
172.185820501073
 30
0.0
 11
97.45938608090023
 21
168.685820501073
 31
0.0
  0
LINE
  5
326
330
20
100
AcDbEntity
  8
0
100
AcDbLine
 10
97.45938608090023
 20
168.685820501073
 30
0.0
 11
96.6593860809003
 21
168.685820501073
 31
0.0
  0
LINE
  5
327
330
20
100
AcDbEntity
  8
0
100
AcDbLine
 10
96.6593860809003
 20
168.685820501073
 30
0.0
 11
96.6593860809003
 21
172.185820501073
 31
0.0
  0
LINE
  5
328
330
20
100
AcDbEntity
  8
0
100
AcDbLine
 10
103.5593860809002
 20
172.185820501073
 30
0.0
 11
95.55938608090031
 21
172.185820501073
 31
0.0
  0
LINE
  5
329
330
20
100
AcDbEntity
  8
0
100
AcDbLine
 10
84.55938608090026
 20
172.185820501073
 30
0.0
 11
92.55938608090024
 21
172.185820501073
 31
0.0
  0
LINE
  5
32A
330
20
100
AcDbEntity
  8
0
100
AcDbLine
 10
91.45938608090023
 20
168.685820501073
 30
0.0
 11
91.45938608090023
 21
172.185820501073
 31
0.0
  0
LINE
  5
32B
330
20
100
AcDbEntity
  8
0
100
AcDbLine
 10
90.65938608090025
 20
168.685820501073
 30
0.0
 11
91.45938608090023
 21
168.685820501073
 31
0.0
  0
LINE
  5
32C
330
20
100
AcDbEntity
  8
0
100
AcDbLine
 10
90.65938608090025
 20
172.185820501073
 30
0.0
 11
90.65938608090025
 21
168.685820501073
 31
0.0
  0
LINE
  5
32D
330
20
100
AcDbEntity
  8
0
100
AcDbLine
 10
88.95938608090023
 20
168.685820501073
 30
0.0
 11
88.95938608090023
 21
172.185820501073
 31
0.0
  0
LINE
  5
32E
330
20
100
AcDbEntity
  8
0
100
AcDbLine
 10
88.15938608090034
 20
168.685820501073
 30
0.0
 11
88.95938608090023
 21
168.685820501073
 31
0.0
  0
LINE
  5
32F
330
20
100
AcDbEntity
  8
0
100
AcDbLine
 10
88.15938608090034
 20
172.185820501073
 30
0.0
 11
88.15938608090034
 21
168.685820501073
 31
0.0
  0
LINE
  5
330
330
20
100
AcDbEntity
  8
0
100
AcDbLine
 10
86.45938608090023
 20
168.685820501073
 30
0.0
 11
86.45938608090023
 21
172.185820501073
 31
0.0
  0
LINE
  5
331
330
20
100
AcDbEntity
  8
0
100
AcDbLine
 10
85.65938608090034
 20
168.685820501073
 30
0.0
 11
86.45938608090023
 21
168.685820501073
 31
0.0
  0
LINE
  5
332
330
20
100
AcDbEntity
  8
0
100
AcDbLine
 10
85.65938608090034
 20
172.185820501073
 30
0.0
 11
85.65938608090034
 21
168.685820501073
 31
0.0
  0
CIRCLE
  5
333
330
20
100
AcDbEntity
  8
0
100
AcDbCircle
 10
85.55938608090025
 20
172.885820501073
 30
0.0
 40
0.75
  0
LINE
  5
334
330
20
100
AcDbEntity
  8
0
100
AcDbLine
 10
84.55938608090026
 20
174.2858205010729
 30
0.0
 11
84.55938608090026
 21
172.185820501073
 31
0.0
  0
LINE
  5
335
330
20
100
AcDbEntity
  8
0
100
AcDbLine
 10
92.55938608090024
 20
172.185820501073
 30
0.0
 11
92.55938608090024
 21
174.2858205010729
 31
0.0
  0
LINE
  5
336
330
20
100
AcDbEntity
  8
0
100
AcDbLine
 10
68.00938608090024
 20
170.585820501073
 30
0.0
 11
118.0593860809002
 21
170.585820501073
 31
0.0
  0
LINE
  5
337
330
20
100
AcDbEntity
  8
0
100
AcDbLine
 10
118.0593860809002
 20
172.185820501073
 30
0.0
 11
68.00938608090024
 21
172.185820501073
 31
0.0
  0
LINE
  5
338
330
20
100
AcDbEntity
  8
0
100
AcDbLine
 10
118.0593860809002
 20
170.585820501073
 30
0.0
 11
118.0593860809002
 21
172.185820501073
 31
0.0
  0
LINE
  5
339
330
20
100
AcDbEntity
  8
0
100
AcDbLine
 10
74.15938608090034
 20
172.185820501073
 30
0.0
 11
74.15938608090034
 21
180.285820501073
 31
0.0
  0
LINE
  5
33A
330
20
100
AcDbEntity
  8
0
100
AcDbLine
 10
70.35938608090024
 20
172.185820501073
 30
0.0
 11
70.35938608090024
 21
180.285820501073
 31
0.0
  0
LINE
  5
33B
330
20
100
AcDbEntity
  8
0
100
AcDbLine
 10
69.85938608090035
 20
172.185820501073
 30
0.0
 11
69.85938608090035
 21
180.285820501073
 31
0.0
  0
LINE
  5
33C
330
20
100
AcDbEntity
  8
0
100
AcDbLine
 10
74.15938608090034
 20
180.285820501073
 30
0.0
 11
69.80938608090025
 21
180.285820501073
 31
0.0
  0
LINE
  5
33D
330
20
100
AcDbEntity
  8
0
100
AcDbLine
 10
180.5093860809003
 20
179.985820501073
 30
0.0
 11
182.0093860809003
 21
179.985820501073
 31
0.0
  0
LINE
  5
33E
330
20
100
AcDbEntity
  8
0
100
AcDbLine
 10
182.0093860809003
 20
179.985820501073
 30
0.0
 11
182.0093860809003
 21
211.985820501073
 31
0.0
  0
LINE
  5
33F
330
20
100
AcDbEntity
  8
0
100
AcDbLine
 10
182.0093860809003
 20
211.985820501073
 30
0.0
 11
180.5093860809003
 21
211.985820501073
 31
0.0
  0
ARC
  5
340
330
20
100
AcDbEntity
  8
0
100
AcDbCircle
 10
71.50938608090033
 20
195.985820501073
 30
0.0
 40
2.25
100
AcDbArc
 50
270.0
 51
90.0
  0
LINE
  5
341
330
20
100
AcDbEntity
  8
0
100
AcDbLine
 10
179.5093860809002
 20
177.985820501073
 30
0.0
 11
179.5093860809002
 21
213.985820501073
 31
0.0
  0
LINE
  5
342
330
20
100
AcDbEntity
  8
0
100
AcDbLine
 10
140.5093860809004
 20
211.9858205010731
 30
0.0
 11
177.5093860809002
 21
211.9858205010731
 31
0.0
  0
LINE
  5
343
330
20
100
AcDbEntity
  8
0
100
AcDbLine
 10
140.5093860809003
 20
179.9858205010731
 30
0.0
 11
140.5093860809004
 21
211.9858205010731
 31
0.0
  0
LINE
  5
344
330
20
100
AcDbEntity
  8
0
100
AcDbLine
 10
177.5093860809002
 20
179.9858205010731
 30
0.0
 11
140.5093860809003
 21
179.9858205010731
 31
0.0
  0
LINE
  5
345
330
20
100
AcDbEntity
  8
0
100
AcDbLine
 10
177.5093860809002
 20
211.9858205010731
 30
0.0
 11
177.5093860809002
 21
179.9858205010731
 31
0.0
  0
LINE
  5
346
330
20
100
AcDbEntity
  8
0
100
AcDbLine
 10
172.5093860809003
 20
184.9858205010731
 30
0.0
 11
172.5093860809003
 21
206.9858205010731
 31
0.0
  0
LINE
  5
347
330
20
100
AcDbEntity
  8
0
100
AcDbLine
 10
145.5093860809003
 20
184.9858205010731
 30
0.0
 11
172.5093860809003
 21
184.9858205010731
 31
0.0
  0
LINE
  5
348
330
20
100
AcDbEntity
  8
0
100
AcDbLine
 10
145.5093860809004
 20
206.9858205010731
 30
0.0
 11
145.5093860809003
 21
184.9858205010731
 31
0.0
  0
LINE
  5
349
330
20
100
AcDbEntity
  8
0
100
AcDbLine
 10
172.5093860809003
 20
206.9858205010731
 30
0.0
 11
145.5093860809004
 21
206.9858205010731
 31
0.0
  0
LINE
  5
34A
330
20
100
AcDbEntity
  8
0
100
AcDbLine
 10
174.5093860809003
 20
227.985820501073
 30
0.0
 11
174.5093860809003
 21
214.985820501073
 31
0.0
  0
LINE
  5
34B
330
20
100
AcDbEntity
  8
0
100
AcDbLine
 10
176.0093860809003
 20
227.985820501073
 30
0.0
 11
174.5093860809003
 21
227.985820501073
 31
0.0
  0
LINE
  5
34C
330
20
100
AcDbEntity
  8
0
100
AcDbLine
 10
174.0093860809001
 20
226.4858205010731
 30
0.0
 11
174.5093860809003
 21
226.4858205010731
 31
0.0
  0
LINE
  5
34D
330
20
100
AcDbEntity
  8
0
100
AcDbLine
 10
176.5093860809003
 20
176.985820501073
 30
0.0
 11
176.5093860809003
 21
165.4858205010731
 31
0.0
  0
LINE
  5
34E
330
20
100
AcDbEntity
  8
0
100
AcDbLine
 10
176.5093860809003
 20
227.485820501073
 30
0.0
 11
176.5093860809003
 21
214.985820501073
 31
0.0
  0
LINE
  5
34F
330
20
100
AcDbEntity
  8
0
100
AcDbLine
 10
180.5093860809003
 20
176.985820501073
 30
0.0
 11
180.5093860809003
 21
214.985820501073
 31
0.0
  0
LINE
  5
350
330
20
100
AcDbEntity
  8
0
100
AcDbLine
 10
180.5093860809003
 20
214.985820501073
 30
0.0
 11
137.5093860809004
 21
214.985820501073
 31
0.0
  0
LINE
  5
351
330
20
100
AcDbEntity
  8
0
100
AcDbLine
 10
137.5093860809004
 20
176.985820501073
 30
0.0
 11
180.5093860809003
 21
176.985820501073
 31
0.0
  0
LINE
  5
352
330
20
100
AcDbEntity
  8
0
100
AcDbLine
 10
176.5093860809003
 20
164.4858205010731
 30
0.0
 11
176.5093860809003
 21
176.985820501073
 31
0.0
  0
LINE
  5
353
330
20
100
AcDbEntity
  8
0
100
AcDbLine
 10
137.5093860809004
 20
215.185820501073
 30
0.0
 11
137.5093860809003
 21
176.785820501073
 31
0.0
  0
LINE
  5
354
330
20
100
AcDbEntity
  8
0
100
AcDbLine
 10
174.5093860809003
 20
163.9858205010731
 30
0.0
 11
174.5093860809003
 21
176.985820501073
 31
0.0
  0
LINE
  5
355
330
20
100
AcDbEntity
  8
0
100
AcDbLine
 10
174.5093860809003
 20
163.9858205010731
 30
0.0
 11
176.0093860809003
 21
163.9858205010731
 31
0.0
  0
LINE
  5
356
330
20
100
AcDbEntity
  8
0
100
AcDbLine
 10
174.5093860809003
 20
216.485820501073
 30
0.0
 11
174.0093860809001
 21
216.485820501073
 31
0.0
  0
LINE
  5
357
330
20
100
AcDbEntity
  8
0
100
AcDbLine
 10
174.0093860809001
 20
224.9858205010731
 30
0.0
 11
174.5093860809003
 21
224.9858205010731
 31
0.0
  0
LINE
  5
358
330
20
100
AcDbEntity
  8
0
100
AcDbLine
 10
173.0093860809002
 20
215.185820501073
 30
0.0
 11
173.0093860809002
 21
214.985820501073
 31
0.0
  0
LINE
  5
359
330
20
100
AcDbEntity
  8
0
100
AcDbLine
 10
174.0093860809001
 20
175.4858205010729
 30
0.0
 11
174.5093860809003
 21
175.485820501073
 31
0.0
  0
LINE
  5
35A
330
20
100
AcDbEntity
  8
0
100
AcDbLine
 10
174.0093860809001
 20
166.9858205010731
 30
0.0
 11
174.5093860809003
 21
166.9858205010731
 31
0.0
  0
LINE
  5
35B
330
20
100
AcDbEntity
  8
0
100
AcDbLine
 10
173.0093860809002
 20
176.785820501073
 30
0.0
 11
173.0093860809002
 21
176.985820501073
 31
0.0
  0
LINE
  5
35C
330
20
100
AcDbEntity
  8
0
100
AcDbLine
 10
143.7593860809002
 20
176.785820501073
 30
0.0
 11
143.7593860809002
 21
176.985820501073
 31
0.0
  0
LINE
  5
35D
330
20
100
AcDbEntity
  8
0
100
AcDbLine
 10
155.2593860809003
 20
176.785820501073
 30
0.0
 11
155.2593860809003
 21
176.985820501073
 31
0.0
  0
LINE
  5
35E
330
20
100
AcDbEntity
  8
0
100
AcDbLine
 10
143.7593860809002
 20
214.985820501073
 30
0.0
 11
143.7593860809002
 21
215.185820501073
 31
0.0
  0
LINE
  5
35F
330
20
100
AcDbEntity
  8
0
100
AcDbLine
 10
155.2593860809003
 20
214.985820501073
 30
0.0
 11
155.2593860809003
 21
215.185820501073
 31
0.0
  0
LINE
  5
360
330
20
100
AcDbEntity
  8
0
100
AcDbLine
 10
139.0093860809003
 20
215.185820501073
 30
0.0
 11
139.0093860809003
 21
214.985820501073
 31
0.0
  0
LINE
  5
361
330
20
100
AcDbEntity
  8
0
100
AcDbLine
 10
139.0093860809003
 20
176.985820501073
 30
0.0
 11
139.0093860809003
 21
176.785820501073
 31
0.0
  0
LINE
  5
362
330
20
100
AcDbEntity
  8
0
100
AcDbLine
 10
179.5093860809002
 20
213.985820501073
 30
0.0
 11
138.5093860809004
 21
213.985820501073
 31
0.0
  0
LINE
  5
363
330
20
100
AcDbEntity
  8
0
100
AcDbLine
 10
138.5093860809003
 20
177.985820501073
 30
0.0
 11
179.5093860809002
 21
177.985820501073
 31
0.0
  0
LINE
  5
364
330
20
100
AcDbEntity
  8
0
100
AcDbLine
 10
179.5093860809002
 20
213.985820501073
 30
0.0
 11
180.5093860809003
 21
214.985820501073
 31
0.0
  0
LINE
  5
365
330
20
100
AcDbEntity
  8
0
100
AcDbLine
 10
179.5093860809002
 20
177.985820501073
 30
0.0
 11
180.5093860809003
 21
176.985820501073
 31
0.0
  0
ARC
  5
366
330
20
100
AcDbEntity
  8
0
100
AcDbCircle
 10
176.0093860809003
 20
164.4858205010731
 30
0.0
 40
0.5
100
AcDbArc
 50
270.0
 51
0.0
  0
ARC
  5
367
330
20
100
AcDbEntity
  8
0
100
AcDbCircle
 10
176.0093860809003
 20
227.485820501073
 30
0.0
 40
0.5
100
AcDbArc
 50
0.0
 51
90.0
  0
LINE
  5
368
330
20
100
AcDbEntity
  8
0
100
AcDbLine
 10
78.50938608090032
 20
195.985820501073
 30
0.0
 11
64.50938608090024
 21
195.985820501073
 31
0.0
  0
LINE
  5
369
330
20
100
AcDbEntity
  8
0
100
AcDbLine
 10
71.50938608090033
 20
202.985820501073
 30
0.0
 11
71.50938608090033
 21
188.985820501073
 31
0.0
  0
LINE
  5
36A
330
20
100
AcDbEntity
  8
0
100
AcDbLine
 10
138.5093860809004
 20
213.985820501073
 30
0.0
 11
138.5093860809003
 21
177.985820501073
 31
0.0
  0
LINE
  5
36B
330
20
100
AcDbEntity
  8
0
100
AcDbLine
 10
138.5093860809004
 20
213.985820501073
 30
0.0
 11
137.5093860809004
 21
214.985820501073
 31
0.0
  0
LINE
  5
36C
330
20
100
AcDbEntity
  8
0
100
AcDbLine
 10
138.5093860809003
 20
177.985820501073
 30
0.0
 11
137.5093860809003
 21
176.9858205010731
 31
0.0
  0
CIRCLE
  5
458
330
20
100
AcDbEntity
  8
0
100
AcDbCircle
 10
62.58889203131551
 20
91.67172881949413
 30
0.0
 40
0.5
  0
CIRCLE
  5
459
330
20
100
AcDbEntity
  8
0
100
AcDbCircle
 10
62.58889203131551
 20
89.17172881949413
 30
0.0
 40
0.5
  0
CIRCLE
  5
45A
330
20
100
AcDbEntity
  8
0
100
AcDbCircle
 10
62.58889203131551
 20
86.6717288194941
 30
0.0
 40
0.5
  0
CIRCLE
  5
45B
330
20
100
AcDbEntity
  8
0
100
AcDbCircle
 10
62.58889203131551
 20
84.17172881949412
 30
0.0
 40
0.5
  0
CIRCLE
  5
45C
330
20
100
AcDbEntity
  8
0
100
AcDbCircle
 10
66.88889203131552
 20
92.92172881949413
 30
0.0
 40
0.5
  0
CIRCLE
  5
45D
330
20
100
AcDbEntity
  8
0
100
AcDbCircle
 10
66.88889203131552
 20
90.42172881949413
 30
0.0
 40
0.5
  0
CIRCLE
  5
45E
330
20
100
AcDbEntity
  8
0
100
AcDbCircle
 10
66.88889203131552
 20
87.92172881949413
 30
0.0
 40
0.5
  0
CIRCLE
  5
45F
330
20
100
AcDbEntity
  8
0
100
AcDbCircle
 10
66.88889203131552
 20
85.42172881949412
 30
0.0
 40
0.5
  0
CIRCLE
  5
460
330
20
100
AcDbEntity
  8
0
100
AcDbCircle
 10
66.88889203131552
 20
82.92172881949412
 30
0.0
 40
0.5
  0
CIRCLE
  5
461
330
20
100
AcDbEntity
  8
0
100
AcDbCircle
 10
74.98889203131554
 20
83.42172881949412
 30
0.0
 40
0.5
  0
CIRCLE
  5
462
330
20
100
AcDbEntity
  8
0
100
AcDbCircle
 10
72.48889203131554
 20
83.42172881949412
 30
0.0
 40
0.5
  0
CIRCLE
  5
463
330
20
100
AcDbEntity
  8
0
100
AcDbCircle
 10
96.38889203131553
 20
85.82172881949409
 30
0.0
 40
0.5
  0
CIRCLE
  5
464
330
20
100
AcDbEntity
  8
0
100
AcDbCircle
 10
93.88889203131553
 20
85.82172881949409
 30
0.0
 40
0.5
  0
CIRCLE
  5
465
330
20
100
AcDbEntity
  8
0
100
AcDbCircle
 10
91.38889203131554
 20
85.82172881949409
 30
0.0
 40
0.5
  0
CIRCLE
  5
466
330
20
100
AcDbEntity
  8
0
100
AcDbCircle
 10
85.38889203131551
 20
85.82172881949411
 30
0.0
 40
0.5
  0
CIRCLE
  5
467
330
20
100
AcDbEntity
  8
0
100
AcDbCircle
 10
82.88889203131551
 20
85.82172881949411
 30
0.0
 40
0.5
  0
CIRCLE
  5
468
330
20
100
AcDbEntity
  8
0
100
AcDbCircle
 10
80.38889203131551
 20
85.82172881949411
 30
0.0
 40
0.5
  0
CIRCLE
  5
469
330
20
100
AcDbEntity
  8
0
100
AcDbCircle
 10
110.3888920313156
 20
84.12172881949411
 30
0.0
 40
0.5
  0
CIRCLE
  5
46A
330
20
100
AcDbEntity
  8
0
100
AcDbCircle
 10
110.3888920313156
 20
91.72172881949412
 30
0.0
 40
0.5
  0
CIRCLE
  5
46B
330
20
100
AcDbEntity
  8
0
100
AcDbCircle
 10
108.6288920313156
 20
84.12172881949411
 30
0.0
 40
0.5
  0
CIRCLE
  5
46C
330
20
100
AcDbEntity
  8
0
100
AcDbCircle
 10
108.6288920313156
 20
91.72172881949412
 30
0.0
 40
0.5
  0
CIRCLE
  5
46D
330
20
100
AcDbEntity
  8
0
100
AcDbCircle
 10
106.8688920313155
 20
84.12172881949411
 30
0.0
 40
0.5
  0
CIRCLE
  5
46E
330
20
100
AcDbEntity
  8
0
100
AcDbCircle
 10
106.8688920313155
 20
91.72172881949412
 30
0.0
 40
0.5
  0
CIRCLE
  5
46F
330
20
100
AcDbEntity
  8
0
100
AcDbCircle
 10
105.1088920313155
 20
84.12172881949411
 30
0.0
 40
0.5
  0
CIRCLE
  5
470
330
20
100
AcDbEntity
  8
0
100
AcDbCircle
 10
105.1088920313155
 20
91.72172881949412
 30
0.0
 40
0.5
  0
CIRCLE
  5
471
330
20
100
AcDbEntity
  8
0
100
AcDbCircle
 10
103.3488920313155
 20
84.12172881949411
 30
0.0
 40
0.5
  0
CIRCLE
  5
472
330
20
100
AcDbEntity
  8
0
100
AcDbCircle
 10
103.3488920313155
 20
91.72172881949412
 30
0.0
 40
0.5
  0
LINE
  5
473
330
20
100
AcDbEntity
  8
0
100
AcDbLine
 10
125.8888920313156
 20
91.02172881949407
 30
0.0
 11
115.8888920313155
 21
91.02172881949407
 31
0.0
  0
LINE
  5
474
330
20
100
AcDbEntity
  8
0
100
AcDbLine
 10
125.8888920313156
 20
89.42172881949408
 30
0.0
 11
125.8888920313156
 21
91.02172881949407
 31
0.0
  0
LINE
  5
475
330
20
100
AcDbEntity
  8
0
100
AcDbLine
 10
115.8888920313155
 20
89.42172881949408
 30
0.0
 11
125.8888920313156
 21
89.42172881949408
 31
0.0
  0
LINE
  5
476
330
20
100
AcDbEntity
  8
0
100
AcDbLine
 10
115.8888920313155
 20
91.02172881949407
 30
0.0
 11
115.8888920313155
 21
89.42172881949408
 31
0.0
  0
LINE
  5
538
330
20
100
AcDbEntity
  8
0
100
AcDbLine
 10
0.0
 20
0.0
 30
0.0
 11
0.0
 21
-13.87335872028505
 31
0.0
  0
LINE
  5
539
330
20
100
AcDbEntity
  8
0
100
AcDbLine
 10
0.0
 20
0.0
 30
0.0
 11
-16.1627586695196
 21
0.0
 31
0.0
  0
TEXT
  5
5AC
330
20
100
AcDbEntity
  8
0
100
AcDbText
 10
286.1999999999998
 20
2.700000000000044
 30
0.0
 40
4.0
  1
MF50*-**
  7
SIMPLEX
100
AcDbText
  0
TEXT
  5
5AD
330
20
100
AcDbEntity
  8
0
100
AcDbText
 10
286.1999999999998
 20
11.70000000000004
 30
0.0
 40
4.0
  1
dCù
  7
SIMPLEX
100
AcDbText
  0
LINE
  5
7AF
330
20
100
AcDbEntity
  8
0
100
AcDbLine
 10
131.5093860809002
 20
227.9858205010731
 30
0.0
 11
131.5093860809003
 21
255.9858205010732
 31
0.0
  0
LINE
  5
7B0
330
20
100
AcDbEntity
  8
0
100
AcDbLine
 10
121.5093860809003
 20
227.9858205010732
 30
0.0
 11
121.5093860809003
 21
255.9858205010733
 31
0.0
  0
LINE
  5
7B1
330
20
100
AcDbEntity
  8
0
100
AcDbLine
 10
121.5093860809003
 20
163.9858205010732
 30
0.0
 11
121.5093860809003
 21
155.1858205010732
 31
0.0
  0
LINE
  5
7B2
330
20
100
AcDbEntity
  8
0
100
AcDbLine
 10
131.5093860809002
 20
163.9858205010732
 30
0.0
 11
131.5093860809002
 21
155.1858205010732
 31
0.0
  0
LINE
  5
7B3
330
20
100
AcDbEntity
  8
0
100
AcDbLine
 10
122.5093860809003
 20
154.1858205010732
 30
0.0
 11
130.5093860809003
 21
154.1858205010732
 31
0.0
  0
ARC
  5
7B4
330
20
100
AcDbEntity
  8
0
100
AcDbCircle
 10
122.5093860809003
 20
155.1858205010732
 30
0.0
 40
1.0
100
AcDbArc
 50
180.0
 51
270.0
  0
ARC
  5
7B5
330
20
100
AcDbEntity
  8
0
100
AcDbCircle
 10
130.5093860809003
 20
155.1858205010732
 30
0.0
 40
1.0
100
AcDbArc
 50
269.9999999999998
 51
0.0
  0
LINE
  5
7B6
330
20
100
AcDbEntity
  8
0
100
AcDbLine
 10
130.5093860809003
 20
256.9858205010732
 30
0.0
 11
122.5093860809004
 21
256.9858205010732
 31
0.0
  0
ARC
  5
7B7
330
20
100
AcDbEntity
  8
0
100
AcDbCircle
 10
122.5093860809003
 20
255.9858205010733
 30
0.0
 40
1.0
100
AcDbArc
 50
89.9999999999996
 51
179.9999999999999
  0
ARC
  5
7B8
330
20
100
AcDbEntity
  8
0
100
AcDbCircle
 10
130.5093860809003
 20
255.9858205010732
 30
0.0
 40
1.0
100
AcDbArc
 50
359.9999999999998
 51
89.99999999999948
  0
LINE
  5
7B9
330
20
100
AcDbEntity
  8
0
100
AcDbLine
 10
127.9093860809003
 20
254.5858205010732
 30
0.0
 11
125.1093860809003
 21
254.5858205010732
 31
0.0
  0
LINE
  5
7BA
330
20
100
AcDbEntity
  8
0
100
AcDbLine
 10
127.9093860809003
 20
251.3858205010732
 30
0.0
 11
125.1093860809003
 21
251.3858205010733
 31
0.0
  0
ARC
  5
7BB
330
20
100
AcDbEntity
  8
0
100
AcDbCircle
 10
127.9093860809003
 20
252.9858205010732
 30
0.0
 40
1.600000000000004
100
AcDbArc
 50
270.0
 51
90.0
  0
ARC
  5
7BC
330
20
100
AcDbEntity
  8
0
100
AcDbCircle
 10
125.1093860809003
 20
252.9858205010732
 30
0.0
 40
1.599999999999988
100
AcDbArc
 50
89.99999999999898
 51
270.0000000000009
  0
LINE
  5
7BD
330
20
100
AcDbEntity
  8
0
100
AcDbLine
 10
125.1093860809003
 20
156.5858205010732
 30
0.0
 11
127.9093860809003
 21
156.5858205010732
 31
0.0
  0
LINE
  5
7BE
330
20
100
AcDbEntity
  8
0
100
AcDbLine
 10
125.1093860809003
 20
159.7858205010731
 30
0.0
 11
127.9093860809003
 21
159.7858205010731
 31
0.0
  0
ARC
  5
7BF
330
20
100
AcDbEntity
  8
0
100
AcDbCircle
 10
127.9093860809003
 20
158.1858205010732
 30
0.0
 40
1.600000000000022
100
AcDbArc
 50
270.0
 51
90.0
  0
ARC
  5
7C0
330
20
100
AcDbEntity
  8
0
100
AcDbCircle
 10
125.1093860809003
 20
158.1858205010732
 30
0.0
 40
1.600000000000014
100
AcDbArc
 50
90.00000000000204
 51
270.0
  0
LINE
  5
81A
330
20
100
AcDbEntity
  8
0
100
AcDbLine
 10
112.3888920313155
 20
94.42172881949414
 30
0.0
 11
114.3888920313155
 21
94.42172881949414
 31
0.0
  0
LINE
  5
81B
330
20
100
AcDbEntity
  8
0
100
AcDbLine
 10
60.38889203131553
 20
94.42172881949414
 30
0.0
 11
62.38889203131552
 21
94.42172881949414
 31
0.0
  0
LINE
  5
81C
330
20
100
AcDbEntity
  8
0
100
AcDbLine
 10
62.38889203131552
 20
95.42172881949413
 30
0.0
 11
112.3888920313155
 21
95.4217288194941
 31
0.0
  0
LINE
  5
81D
330
20
100
AcDbEntity
  8
0
100
AcDbLine
 10
112.3888920313155
 20
95.4217288194941
 30
0.0
 11
112.3888920313155
 21
94.42172881949414
 31
0.0
  0
LINE
  5
81E
330
20
100
AcDbEntity
  8
0
100
AcDbLine
 10
62.38889203131552
 20
95.42172881949413
 30
0.0
 11
62.38889203131552
 21
94.42172881949414
 31
0.0
  0
LINE
  5
81F
330
20
100
AcDbEntity
  8
0
  6
H5
100
AcDbLine
 10
89.88889203131552
 20
87.8217288194941
 30
0.0
 11
97.88889203131553
 21
87.8217288194941
 31
0.0
  0
LINE
  5
820
330
20
100
AcDbEntity
  8
0
  6
H5
100
AcDbLine
 10
89.88889203131552
 20
83.8217288194941
 30
0.0
 11
97.88889203131553
 21
83.8217288194941
 31
0.0
  0
LINE
  5
821
330
20
100
AcDbEntity
  8
0
  6
H5
100
AcDbLine
 10
78.88889203131552
 20
83.82172881949413
 30
0.0
 11
86.88889203131555
 21
83.82172881949413
 31
0.0
  0
LINE
  5
822
330
20
100
AcDbEntity
  8
0
  6
H5
100
AcDbLine
 10
78.88889203131552
 20
87.82172881949412
 30
0.0
 11
86.88889203131555
 21
87.82172881949412
 31
0.0
  0
LINE
  5
823
330
20
100
AcDbEntity
  8
0
100
AcDbLine
 10
114.3888920313155
 20
94.42172881949414
 30
0.0
 11
114.3888920313155
 21
91.42172881949406
 31
0.0
  0
LINE
  5
824
330
20
100
AcDbEntity
  8
0
  6
H5
100
AcDbLine
 10
97.88889203131553
 20
87.8217288194941
 30
0.0
 11
97.88889203131553
 21
83.8217288194941
 31
0.0
  0
LINE
  5
825
330
20
100
AcDbEntity
  8
0
  6
H5
100
AcDbLine
 10
89.88889203131552
 20
87.8217288194941
 30
0.0
 11
89.88889203131552
 21
83.8217288194941
 31
0.0
  0
LINE
  5
826
330
20
100
AcDbEntity
  8
0
  6
H5
100
AcDbLine
 10
86.88889203131552
 20
87.82172881949412
 30
0.0
 11
86.88889203131552
 21
83.82172881949413
 31
0.0
  0
LINE
  5
827
330
20
100
AcDbEntity
  8
0
  6
H5
100
AcDbLine
 10
78.88889203131552
 20
87.82172881949412
 30
0.0
 11
78.88889203131552
 21
83.82172881949413
 31
0.0
  0
LINE
  5
828
330
20
100
AcDbEntity
  8
0
100
AcDbLine
 10
60.38889203131553
 20
94.42172881949414
 30
0.0
 11
60.38889203131553
 21
81.42172881949411
 31
0.0
  0
LINE
  5
829
330
20
100
AcDbEntity
  8
0
  6
H5
100
AcDbLine
 10
64.68889203131553
 20
95.42172881949413
 30
0.0
 11
64.68889203131553
 21
80.42172881949412
 31
0.0
  0
LINE
  5
82A
330
20
100
AcDbEntity
  8
0
  6
H5
100
AcDbLine
 10
64.68889203131553
 20
80.42172881949412
 30
0.0
 11
68.48889203131553
 21
80.42172881949412
 31
0.0
  0
LINE
  5
82B
330
20
100
AcDbEntity
  8
0
  6
H5
100
AcDbLine
 10
68.48889203131553
 20
80.42172881949412
 30
0.0
 11
68.48889203131553
 21
95.42172881949413
 31
0.0
  0
LINE
  5
82C
330
20
100
AcDbEntity
  8
0
100
AcDbLine
 10
68.48889203131553
 20
95.42172881949413
 30
0.0
 11
64.68889203131553
 21
95.42172881949413
 31
0.0
  0
LINE
  5
82D
330
20
100
AcDbEntity
  8
0
  6
H5
100
AcDbLine
 10
64.18889203131553
 20
94.17172881949413
 30
0.0
 11
64.18889203131553
 21
81.67172881949412
 31
0.0
  0
LINE
  5
82E
330
20
100
AcDbEntity
  8
0
  6
H5
100
AcDbLine
 10
64.18889203131553
 20
81.67172881949412
 30
0.0
 11
60.38889203131553
 21
81.67172881949412
 31
0.0
  0
LINE
  5
82F
330
20
100
AcDbEntity
  8
0
100
AcDbLine
 10
60.38889203131553
 20
81.67172881949412
 30
0.0
 11
60.38889203131553
 21
91.67172881949413
 31
0.0
  0
LINE
  5
835
330
20
100
AcDbEntity
  8
0
  6
H5
100
AcDbLine
 10
69.9888920313156
 20
91.62172881949414
 30
0.0
 11
69.98889203131553
 21
81.92172881949412
 31
0.0
  0
LINE
  5
836
330
20
100
AcDbEntity
  8
0
  6
H5
100
AcDbLine
 10
69.98889203131553
 20
81.92172881949412
 30
0.0
 11
77.48889203131554
 21
81.92172881949412
 31
0.0
  0
LINE
  5
837
330
20
100
AcDbEntity
  8
0
  6
H5
100
AcDbLine
 10
77.48889203131554
 20
81.92172881949412
 30
0.0
 11
77.4888920313156
 21
91.62172881949414
 31
0.0
  0
LINE
  5
838
330
20
100
AcDbEntity
  8
0
  6
H5
100
AcDbLine
 10
77.48889203131554
 20
88.6217288194941
 30
0.0
 11
69.98889203131553
 21
88.6217288194941
 31
0.0
  0
LINE
  5
839
330
20
100
AcDbEntity
  8
0
100
AcDbLine
 10
72.48889203131554
 20
81.95651730785504
 30
0.0
 11
72.48889203131554
 21
84.61872018403708
 31
0.0
  0
LINE
  5
83A
330
20
100
AcDbEntity
  8
0
100
AcDbLine
 10
74.98889203131554
 20
81.95651730785497
 30
0.0
 11
74.98889203131554
 21
84.61872018403704
 31
0.0
  0
TEXT
  5
83B
330
20
100
AcDbEntity
  8
0
100
AcDbText
 10
65.08514990099357
 20
83.25301276307977
 30
0.0
 40
1.5
  1
1
  7
SIMPLEX
100
AcDbText
  0
TEXT
  5
83C
330
20
100
AcDbEntity
  8
0
100
AcDbText
 10
60.70865402111421
 20
81.76612700460168
 30
0.0
 40
1.5
  1
1
  7
SIMPLEX
100
AcDbText
  0
TEXT
  5
83D
330
20
100
AcDbEntity
  8
0
100
AcDbText
 10
76.32673735715449
 20
83.10155736408246
 30
0.0
 40
1.5
  1
1
  7
SIMPLEX
100
AcDbText
  0
TEXT
  5
83E
330
20
100
AcDbEntity
  8
0
100
AcDbText
 10
101.2954543613722
 20
91.65284340519631
 30
0.0
 40
1.5
  1
1
  7
SIMPLEX
100
AcDbText
  0
LINE
  5
83F
330
20
100
AcDbEntity
  8
0
  6
H5
100
AcDbLine
 10
60.38889203131553
 20
94.17172881949413
 30
0.0
 11
64.18889203131553
 21
94.17172881949413
 31
0.0
  0
LINE
  5
840
330
20
100
AcDbEntity
  8
0
  6
H5
100
AcDbLine
 10
69.98889203131553
 20
91.62172881949414
 30
0.0
 11
77.48889203131554
 21
91.62172881949414
 31
0.0
  0
LINE
  5
857
330
20
100
AcDbEntity
  8
0
100
AcDbLine
 10
58.88889203131558
 20
81.42172881949409
 30
0.0
 11
115.7888920313155
 21
81.42172881949406
 31
0.0
  0
LINE
  5
859
330
20
100
AcDbEntity
  8
0
100
AcDbLine
 10
58.88889203131558
 20
81.42172881949409
 30
0.0
 11
58.88889203131558
 21
79.82172881949407
 31
0.0
  0
LINE
  5
85A
330
20
100
AcDbEntity
  8
0
100
AcDbLine
 10
170.8888920313154
 20
81.42172881949397
 30
0.0
 11
170.8888920313154
 21
79.82172881949407
 31
0.0
  0
LINE
  5
85B
330
20
100
AcDbEntity
  8
0
100
AcDbLine
 10
58.88889203131558
 20
79.82172881949407
 30
0.0
 11
174.8888920313154
 21
79.82172881949407
 31
0.0
  0
LINE
  5
85C
330
20
100
AcDbEntity
  8
0
100
AcDbLine
 10
174.8888920313154
 20
81.42172881949397
 30
0.0
 11
174.8888920313154
 21
79.82172881949407
 31
0.0
  0
LINE
  5
8A5
330
20
100
AcDbEntity
  8
0
100
AcDbLine
 10
113.2888920313155
 20
91.42172881949406
 30
0.0
 11
113.2888920313155
 21
88.32172881949402
 31
0.0
  0
LINE
  5
8A6
330
20
100
AcDbEntity
  8
0
100
AcDbLine
 10
128.4888920313156
 20
91.42172881949406
 30
0.0
 11
128.4888920313156
 21
88.32172881949409
 31
0.0
  0
LINE
  5
8A7
330
20
100
AcDbEntity
  8
0
100
AcDbLine
 10
115.7888920313155
 20
91.42172881949406
 30
0.0
 11
115.7888920313155
 21
89.22172881949405
 31
0.0
  0
LINE
  5
8A8
330
20
100
AcDbEntity
  8
0
100
AcDbLine
 10
125.9888920313156
 20
91.42172881949406
 30
0.0
 11
125.9888920313156
 21
89.22172881949405
 31
0.0
  0
LINE
  5
8A9
330
20
100
AcDbEntity
  8
0
100
AcDbLine
 10
113.2888920313155
 20
91.42172881949406
 30
0.0
 11
115.7888920313155
 21
91.42172881949406
 31
0.0
  0
LINE
  5
8AA
330
20
100
AcDbEntity
  8
0
100
AcDbLine
 10
115.7888920313155
 20
89.22172881949405
 30
0.0
 11
125.9888920313156
 21
89.22172881949405
 31
0.0
  0
LINE
  5
8AB
330
20
100
AcDbEntity
  8
0
100
AcDbLine
 10
125.9888920313156
 20
85.82172881949404
 30
0.0
 11
128.4888920313156
 21
88.32172881949409
 31
0.0
  0
LINE
  5
8AC
330
20
100
AcDbEntity
  8
0
100
AcDbLine
 10
115.7888920313155
 20
85.82172881949404
 30
0.0
 11
113.2888920313155
 21
88.32172881949398
 31
0.0
  0
LINE
  5
8AD
330
20
100
AcDbEntity
  8
0
100
AcDbLine
 10
125.9888920313156
 20
91.42172881949406
 30
0.0
 11
128.4888920313156
 21
91.42172881949406
 31
0.0
  0
LINE
  5
8AE
330
20
100
AcDbEntity
  8
0
100
AcDbLine
 10
115.7888920313155
 20
85.82172881949404
 30
0.0
 11
115.7888920313155
 21
79.82172881949407
 31
0.0
  0
LINE
  5
8AF
330
20
100
AcDbEntity
  8
0
100
AcDbLine
 10
125.9888920313156
 20
85.82172881949404
 30
0.0
 11
125.9888920313156
 21
79.82172881949407
 31
0.0
  0
LINE
  5
8B0
330
20
100
AcDbEntity
  8
0
100
AcDbLine
 10
113.2888920313155
 20
81.42172881949406
 30
0.0
 11
113.2888920313155
 21
79.82172881949407
 31
0.0
  0
LINE
  5
8B1
330
20
100
AcDbEntity
  8
0
100
AcDbLine
 10
128.4888920313156
 20
81.42172881949404
 30
0.0
 11
128.4888920313156
 21
79.82172881949407
 31
0.0
  0
LINE
  5
8B2
330
20
100
AcDbEntity
  8
0
100
AcDbLine
 10
139.8888920313154
 20
86.42172881949409
 30
0.0
 11
147.8888920313154
 21
86.42172881949406
 31
0.0
  0
LINE
  5
8B3
330
20
100
AcDbEntity
  8
0
100
AcDbLine
 10
125.9888920313156
 20
81.42172881949402
 30
0.0
 11
174.8888920313154
 21
81.42172881949397
 31
0.0
  0
LINE
  5
8B4
330
20
100
AcDbEntity
  8
0
100
AcDbLine
 10
58.88889203131558
 20
86.42172881949406
 30
0.0
 11
60.38889203131553
 21
86.42172881949406
 31
0.0
  0
LINE
  5
8B5
330
20
100
AcDbEntity
  8
0
100
AcDbLine
 10
58.88889203131558
 20
84.82172881949407
 30
0.0
 11
60.38889203131553
 21
84.82172881949407
 31
0.0
  0
LINE
  5
8B6
330
20
100
AcDbEntity
  8
0
100
AcDbLine
 10
58.88889203131558
 20
86.42172881949406
 30
0.0
 11
58.88889203131558
 21
84.82172881949407
 31
0.0
  0
LINE
  5
8BD
330
20
100
AcDbEntity
  8
0
100
AcDbLine
 10
71.38889203131558
 20
79.82172881949407
 30
0.0
 11
71.38889203131558
 21
79.32172881949407
 31
0.0
  0
LINE
  5
8BE
330
20
100
AcDbEntity
  8
0
100
AcDbLine
 10
60.38889203131557
 20
79.82172881949407
 30
0.0
 11
60.38889203131557
 21
79.32172881949407
 31
0.0
  0
LINE
  5
8BF
330
20
100
AcDbEntity
  8
0
100
AcDbLine
 10
164.3888920313156
 20
79.82172881949407
 30
0.0
 11
164.3888920313156
 21
79.32172881949407
 31
0.0
  0
LINE
  5
8C0
330
20
100
AcDbEntity
  8
0
100
AcDbLine
 10
153.3888920313155
 20
79.82172881949407
 30
0.0
 11
153.3888920313156
 21
79.32172881949407
 31
0.0
  0
LINE
  5
8C1
330
20
100
AcDbEntity
  8
0
100
AcDbLine
 10
60.38889203131557
 20
79.32172881949407
 30
0.0
 11
71.38889203131558
 21
79.32172881949407
 31
0.0
  0
LINE
  5
8C2
330
20
100
AcDbEntity
  8
0
100
AcDbLine
 10
153.3888920313156
 20
79.32172881949407
 30
0.0
 11
164.3888920313156
 21
79.32172881949407
 31
0.0
  0
LINE
  5
8C9
330
20
100
AcDbEntity
  8
0
100
AcDbLine
 10
108.8888920313156
 20
87.92172881949406
 30
0.0
 11
108.8888920313156
 21
84.42172881949407
 31
0.0
  0
LINE
  5
8CA
330
20
100
AcDbEntity
  8
0
100
AcDbLine
 10
100.8888920313156
 20
87.92172881949406
 30
0.0
 11
100.8888920313156
 21
84.42172881949407
 31
0.0
  0
LINE
  5
8CB
330
20
100
AcDbEntity
  8
0
100
AcDbLine
 10
89.68889203131563
 20
82.92172881949406
 30
0.0
 11
114.3888920313156
 21
82.92172881949406
 31
0.0
  0
LINE
  5
8CC
330
20
100
AcDbEntity
  8
0
100
AcDbLine
 10
103.7888920313156
 20
81.42172881949406
 30
0.0
 11
103.7888920313156
 21
82.92172881949406
 31
0.0
  0
LINE
  5
8CD
330
20
100
AcDbEntity
  8
0
100
AcDbLine
 10
105.9888920313156
 20
81.42172881949406
 30
0.0
 11
103.7888920313156
 21
81.42172881949406
 31
0.0
  0
LINE
  5
8CE
330
20
100
AcDbEntity
  8
0
100
AcDbLine
 10
105.9888920313156
 20
82.92172881949406
 30
0.0
 11
105.9888920313156
 21
81.42172881949406
 31
0.0
  0
LINE
  5
8CF
330
20
100
AcDbEntity
  8
0
100
AcDbLine
 10
102.8888920313156
 20
84.42172881949407
 30
0.0
 11
102.8888920313156
 21
83.92172881949406
 31
0.0
  0
LINE
  5
8D0
330
20
100
AcDbEntity
  8
0
100
AcDbLine
 10
106.8888920313156
 20
84.42172881949407
 30
0.0
 11
106.8888920313156
 21
83.92172881949406
 31
0.0
  0
LINE
  5
8D1
330
20
100
AcDbEntity
  8
0
100
AcDbLine
 10
78.88889203131566
 20
83.92172881949406
 30
0.0
 11
78.88889203131566
 21
82.92172881949406
 31
0.0
  0
LINE
  5
8D2
330
20
100
AcDbEntity
  8
0
100
AcDbLine
 10
114.3888920313156
 20
83.92172881949406
 30
0.0
 11
114.3888920313156
 21
82.92172881949406
 31
0.0
  0
LINE
  5
8D3
330
20
100
AcDbEntity
  8
0
100
AcDbLine
 10
89.88889203131561
 20
94.92172881949406
 30
0.0
 11
72.08889203131566
 21
94.92172881949406
 31
0.0
  0
LINE
  5
8D4
330
20
100
AcDbEntity
  8
0
100
AcDbLine
 10
89.68889203131563
 20
82.92172881949406
 30
0.0
 11
72.08889203131557
 21
82.92172881949406
 31
0.0
  0
LINE
  5
8D5
330
20
100
AcDbEntity
  8
0
100
AcDbLine
 10
88.88889203131567
 20
94.92172881949406
 30
0.0
 11
88.88889203131567
 21
83.92172881949406
 31
0.0
  0
LINE
  5
8D6
330
20
100
AcDbEntity
  8
0
100
AcDbLine
 10
89.88889203131561
 20
94.92172881949398
 30
0.0
 11
89.88889203131561
 21
83.92172881949406
 31
0.0
  0
LINE
  5
8D7
330
20
100
AcDbEntity
  8
0
100
AcDbLine
 10
72.08889203131566
 20
94.92172881949406
 30
0.0
 11
72.08889203131557
 21
82.92172881949406
 31
0.0
  0
LINE
  5
8D8
330
20
100
AcDbEntity
  8
0
100
AcDbLine
 10
114.3888920313156
 20
83.92172881949406
 30
0.0
 11
78.88889203131566
 21
83.92172881949406
 31
0.0
  0
LINE
  5
8D9
330
20
100
AcDbEntity
  8
0
100
AcDbLine
 10
99.88889203131559
 20
87.92172881949406
 30
0.0
 11
99.88889203131559
 21
84.42172881949407
 31
0.0
  0
LINE
  5
8DA
330
20
100
AcDbEntity
  8
0
100
AcDbLine
 10
99.88889203131559
 20
84.42172881949407
 30
0.0
 11
109.8888920313156
 21
84.42172881949407
 31
0.0
  0
LINE
  5
8DB
330
20
100
AcDbEntity
  8
0
100
AcDbLine
 10
109.8888920313156
 20
84.42172881949407
 30
0.0
 11
109.8888920313156
 21
87.92172881949406
 31
0.0
  0
LINE
  5
8DC
330
20
100
AcDbEntity
  8
0
100
AcDbLine
 10
109.8888920313156
 20
87.92172881949406
 30
0.0
 11
99.88889203131559
 21
87.92172881949406
 31
0.0
  0
LINE
  5
8F1
330
20
100
AcDbEntity
  8
0
  6
H5
100
AcDbLine
 10
69.88889203131558
 20
85.32172881949415
 30
0.0
 11
115.7888920313155
 21
85.32172881949415
 31
0.0
  0
LINE
  5
8F2
330
20
100
AcDbEntity
  8
0
  6
H5
100
AcDbLine
 10
99.88889203131558
 20
80.62172881949413
 30
0.0
 11
99.88889203131558
 21
85.32172881949415
 31
0.0
  0
LINE
  5
8F3
330
20
100
AcDbEntity
  8
0
  6
H5
100
AcDbLine
 10
102.5888920313156
 20
80.32172881949415
 30
0.0
 11
100.1888920313156
 21
80.32172881949415
 31
0.0
  0
LINE
  5
8F4
330
20
100
AcDbEntity
  8
0
  6
H5
100
AcDbLine
 10
102.8888920313155
 20
85.32172881949415
 30
0.0
 11
102.8888920313155
 21
80.62172881949413
 31
0.0
  0
LINE
  5
8F5
330
20
100
AcDbEntity
  8
0
100
AcDbLine
 10
133.8888920313155
 20
91.32172881949415
 30
0.0
 11
139.8888920313156
 21
91.32172881949415
 31
0.0
  0
LINE
  5
8F6
330
20
100
AcDbEntity
  8
0
  6
H5
100
AcDbLine
 10
69.88889203131558
 20
86.32172881949415
 30
0.0
 11
115.2888920313154
 21
86.32172881949415
 31
0.0
  0
LINE
  5
8F7
330
20
100
AcDbEntity
  8
0
100
AcDbLine
 10
133.8888920313155
 20
91.3217288194941
 30
0.0
 11
133.8888920313155
 21
86.32172881949415
 31
0.0
  0
LINE
  5
8F8
330
20
100
AcDbEntity
  8
0
100
AcDbLine
 10
139.8888920313156
 20
91.3217288194941
 30
0.0
 11
139.8888920313156
 21
85.32172881949415
 31
0.0
  0
LINE
  5
8F9
330
20
100
AcDbEntity
  8
0
  6
H5
100
AcDbLine
 10
85.18934916632193
 20
86.32172881949415
 30
0.0
 11
85.18934916632193
 21
85.32172881949415
 31
0.0
  0
LINE
  5
8FA
330
20
100
AcDbEntity
  8
0
  6
H5
100
AcDbLine
 10
73.58843489630935
 20
86.32172881949415
 30
0.0
 11
73.58843489630935
 21
85.32172881949415
 31
0.0
  0
LINE
  5
8FB
330
20
100
AcDbEntity
  8
0
  6
H5
100
AcDbLine
 10
69.88889203131558
 20
86.32172881949415
 30
0.0
 11
69.88889203131558
 21
85.32172881949415
 31
0.0
  0
LINE
  5
91A
330
20
100
AcDbEntity
  8
0
  6
H5
100
AcDbLine
 10
99.88889203131558
 20
80.62172881949413
 30
0.0
 11
100.1888920313156
 21
80.32172881949415
 31
0.0
  0
LINE
  5
91B
330
20
100
AcDbEntity
  8
0
  6
H5
100
AcDbLine
 10
102.5888920313156
 20
80.32172881949415
 30
0.0
 11
102.8888920313155
 21
80.62172881949413
 31
0.0
  0
LINE
  5
91D
330
20
100
AcDbEntity
  8
0
100
AcDbLine
 10
154.8888920313156
 20
80.42172881949403
 30
0.0
 11
154.8888920313156
 21
81.42172881949402
 31
0.0
  0
LINE
  5
91E
330
20
100
AcDbEntity
  8
0
100
AcDbLine
 10
162.3888920313156
 20
79.92172881949399
 30
0.0
 11
155.3888920313156
 21
79.92172881949399
 31
0.0
  0
LINE
  5
91F
330
20
100
AcDbEntity
  8
0
100
AcDbLine
 10
162.8888920313156
 20
81.42172881949402
 30
0.0
 11
162.8888920313156
 21
80.42172881949403
 31
0.0
  0
LINE
  5
920
330
20
100
AcDbEntity
  8
0
100
AcDbLine
 10
171.8888920313156
 20
98.02172881949395
 30
0.0
 11
134.8888920313157
 21
98.02172881949395
 31
0.0
  0
LINE
  5
921
330
20
100
AcDbEntity
  8
0
100
AcDbLine
 10
139.8888920313158
 20
98.02172881949395
 30
0.0
 11
139.8888920313158
 21
96.52172881949397
 31
0.0
  0
LINE
  5
922
330
20
100
AcDbEntity
  8
0
100
AcDbLine
 10
134.8888920313157
 20
100.821728819494
 30
0.0
 11
134.8888920313157
 21
98.02172881949395
 31
0.0
  0
LINE
  5
923
330
20
100
AcDbEntity
  8
0
100
AcDbLine
 10
166.8888920313156
 20
98.02172881949395
 30
0.0
 11
166.8888920313156
 21
96.52172881949397
 31
0.0
  0
LINE
  5
924
330
20
100
AcDbEntity
  8
0
100
AcDbLine
 10
171.8888920313156
 20
100.821728819494
 30
0.0
 11
171.8888920313156
 21
98.02172881949395
 31
0.0
  0
LINE
  5
929
330
20
100
AcDbEntity
  8
0
100
AcDbLine
 10
140.888892031316
 20
85.12172881949394
 30
0.0
 11
140.8888920313158
 21
81.42172881949402
 31
0.0
  0
LINE
  5
930
330
20
100
AcDbEntity
  8
0
100
AcDbLine
 10
173.8888920313156
 20
100.821728819494
 30
0.0
 11
174.8888920313156
 21
99.82172881949404
 31
0.0
  0
LINE
  5
931
330
20
100
AcDbEntity
  8
0
100
AcDbLine
 10
131.8888920313157
 20
100.821728819494
 30
0.0
 11
131.8888920313155
 21
81.42172881949402
 31
0.0
  0
LINE
  5
932
330
20
100
AcDbEntity
  8
0
100
AcDbLine
 10
140.888892031316
 20
85.12172881949394
 30
0.0
 11
160.8888920313156
 21
85.12172881949394
 31
0.0
  0
LINE
  5
933
330
20
100
AcDbEntity
  8
0
100
AcDbLine
 10
174.8888920313156
 20
99.82172881949404
 30
0.0
 11
174.8888920313156
 21
96.42172881949404
 31
0.0
  0
LINE
  5
934
330
20
100
AcDbEntity
  8
0
100
AcDbLine
 10
131.8888920313157
 20
100.821728819494
 30
0.0
 11
173.8888920313156
 21
100.821728819494
 31
0.0
  0
LINE
  5
935
330
20
100
AcDbEntity
  8
0
100
AcDbLine
 10
131.8888920313157
 20
86.42172881949402
 30
0.0
 11
133.7388920313156
 21
86.42172881949402
 31
0.0
  0
LINE
  5
936
330
20
100
AcDbEntity
  8
0
100
AcDbLine
 10
174.8888920313156
 20
96.52172881949397
 30
0.0
 11
131.8888920313157
 21
96.52172881949397
 31
0.0
  0
LINE
  5
937
330
20
100
AcDbEntity
  8
0
100
AcDbLine
 10
160.8888920313156
 20
86.42172881949402
 30
0.0
 11
160.8888920313156
 21
85.12172881949394
 31
0.0
  0
ARC
  5
95B
330
20
100
AcDbEntity
  8
0
100
AcDbCircle
 10
155.3888920313156
 20
80.42172881949403
 30
0.0
 40
0.5
100
AcDbArc
 50
180.0
 51
270.0
  0
ARC
  5
95C
330
20
100
AcDbEntity
  8
0
100
AcDbCircle
 10
162.3888920313156
 20
80.42172881949403
 30
0.0
 40
0.5
100
AcDbArc
 50
270.0
 51
0.0
  0
LINE
  5
95D
330
20
100
AcDbEntity
  8
0
100
AcDbLine
 10
171.8888920313156
 20
83.92172881949402
 30
0.0
 11
171.8888920313156
 21
81.42172881949402
 31
0.0
  0
LINE
  5
95E
330
20
100
AcDbEntity
  8
0
100
AcDbLine
 10
154.8888920313156
 20
83.92172881949402
 30
0.0
 11
154.8888920313156
 21
81.42172881949402
 31
0.0
  0
LINE
  5
95F
330
20
100
AcDbEntity
  8
0
100
AcDbLine
 10
152.8888920313156
 20
83.92172881949402
 30
0.0
 11
152.8888920313156
 21
81.42172881949402
 31
0.0
  0
LINE
  5
960
330
20
100
AcDbEntity
  8
0
100
AcDbLine
 10
140.8888920313159
 20
83.92172881949402
 30
0.0
 11
152.8888920313156
 21
83.92172881949402
 31
0.0
  0
LINE
  5
961
330
20
100
AcDbEntity
  8
0
100
AcDbLine
 10
154.8888920313156
 20
83.92172881949402
 30
0.0
 11
171.8888920313156
 21
83.92172881949402
 31
0.0
  0
INSERT
  5
962
330
20
100
AcDbEntity
  8
0
100
AcDbBlockReference
  2
*X0
 10
-38.72127359217677
 20
-9.699868799527244
 30
0.0
  0
LINE
  5
966
330
20
100
AcDbEntity
  8
0
100
AcDbLine
 10
136.8888920313156
 20
78.35502553163316
 30
0.0
 11
136.8888920313156
 21
102.9686592370236
 31
0.0
  0
LINE
  5
967
330
20
100
AcDbEntity
  8
0
100
AcDbLine
 10
176.3888920313156
 20
88.42172881949403
 30
0.0
 11
176.3888920313156
 21
96.42172881949404
 31
0.0
  0
LINE
  5
968
330
20
100
AcDbEntity
  8
0
100
AcDbLine
 10
176.3888920313156
 20
96.42172881949404
 30
0.0
 11
131.8888920313156
 21
96.42172881949404
 31
0.0
  0
LINE
  5
969
330
20
100
AcDbEntity
  8
0
100
AcDbLine
 10
131.8888920313156
 20
96.42172881949404
 30
0.0
 11
131.8888920313156
 21
86.42172881949404
 31
0.0
  0
LINE
  5
96A
330
20
100
AcDbEntity
  8
0
100
AcDbLine
 10
131.8888920313156
 20
86.42172881949404
 30
0.0
 11
174.3888920313156
 21
86.42172881949404
 31
0.0
  0
LINE
  5
96B
330
20
100
AcDbEntity
  8
0
100
AcDbLine
 10
174.3888920313156
 20
86.42172881949404
 30
0.0
 11
176.3888920313156
 21
88.42172881949403
 31
0.0
  0
ENDSEC
  0
SECTION
  2
OBJECTS
  0
DICTIONARY
  5
C
330
0
100
AcDbDictionary
281
     1
  3
ACAD_COLOR
350
1B
  3
ACAD_GROUP
350
D
  3
ACAD_LAYOUT
350
19
  3
ACAD_MATERIAL
350
1A
  3
ACAD_MLINESTYLE
350
16
  3
ACAD_PLOTSETTINGS
350
18
  3
ACAD_PLOTSTYLENAME
350
E
  3
ACDBHEADERROUNDTRIPXREC
350
982
  3
AcDbVariableDictionary
350
96F
  0
DICTIONARY
  5
1B
102
{ACAD_REACTORS
330
C
102
}
330
C
100
AcDbDictionary
281
     1
  0
DICTIONARY
  5
D
102
{ACAD_REACTORS
330
C
102
}
330
C
100
AcDbDictionary
281
     1
  0
DICTIONARY
  5
19
102
{ACAD_REACTORS
330
C
102
}
330
C
100
AcDbDictionary
281
     1
  3
Model
350
23
  3
CAEg1
350
1F
  0
DICTIONARY
  5
1A
102
{ACAD_REACTORS
330
C
102
}
330
C
100
AcDbDictionary
281
     1
  0
DICTIONARY
  5
16
102
{ACAD_REACTORS
330
C
102
}
330
C
100
AcDbDictionary
281
     1
  3
Standard
350
17
  0
DICTIONARY
  5
18
102
{ACAD_REACTORS
330
C
102
}
330
C
100
AcDbDictionary
281
     1
  0
ACDBDICTIONARYWDFLT
  5
E
102
{ACAD_REACTORS
330
C
102
}
330
C
100
AcDbDictionary
281
     1
  3
Normal
350
F
100
AcDbDictionaryWithDefault
340
F
  0
DICTIONARY
  5
982
102
{ACAD_REACTORS
330
C
102
}
330
C
100
AcDbDictionary
281
     1
  3
COLORDICT
350
984
  3
MATERIALDICT
350
983
  0
DICTIONARY
  5
96F
102
{ACAD_REACTORS
330
C
102
}
330
C
100
AcDbDictionary
281
     1
  3
DIMASSOC
350
971
  3
HIDETEXT
350
970
  3
PROJECTNAME
350
972
  0
LAYOUT
  5
23
102
{ACAD_XDICTIONARY
360
987
102
}
102
{ACAD_REACTORS
330
19
102
}
330
19
100
AcDbPlotSettings
  1

  2
Canon iR C3220 LIPS
  4

  6

 40
0.0
 41
0.0
 42
0.0
 43
0.0
 44
0.0
 45
0.0
 46
0.0
 47
0.0
 48
0.0
 49
0.0
140
0.0
141
0.0
142
1.0
143
1.0
 70
  1712
 72
     0
 73
     0
 74
     0
  7

 75
     0
147
1.0
148
0.0
149
0.0
100
AcDbLayout
  1
Model
 70
     1
 71
     0
 10
0.0
 20
0.0
 11
12.0
 21
9.0
 12
0.0
 22
0.0
 32
0.0
 14
0.0
 24
0.0
 34
0.0
 15
0.0
 25
0.0
 35
0.0
146
0.0
 13
0.0
 23
0.0
 33
0.0
 16
1.0
 26
0.0
 36
0.0
 17
0.0
 27
1.0
 37
0.0
 76
     0
330
20
  0
LAYOUT
  5
1F
102
{ACAD_XDICTIONARY
360
985
102
}
102
{ACAD_REACTORS
330
19
102
}
330
19
100
AcDbPlotSettings
  1

  2
Canon iR C3220 LIPS
  4

  6

 40
0.0
 41
0.0
 42
0.0
 43
0.0
 44
0.0
 45
0.0
 46
0.0
 47
0.0
 48
0.0
 49
0.0
140
0.0
141
0.0
142
1.0
143
1.0
 70
   688
 72
     0
 73
     0
 74
     5
  7

 75
    16
147
1.0
148
0.0
149
0.0
100
AcDbLayout
  1
CAEg1
 70
     0
 71
     1
 10
0.0
 20
0.0
 11
12.0
 21
9.0
 12
0.0
 22
0.0
 32
0.0
 14
1.000000000000000E+20
 24
1.000000000000000E+20
 34
1.000000000000000E+20
 15
-1.000000000000000E+20
 25
-1.000000000000000E+20
 35
-1.000000000000000E+20
146
0.0
 13
0.0
 23
0.0
 33
0.0
 16
1.0
 26
0.0
 36
0.0
 17
0.0
 27
1.0
 37
0.0
 76
     0
330
1C
  0
MLINESTYLE
  5
17
102
{ACAD_REACTORS
330
16
102
}
330
16
100
AcDbMlineStyle
  2
STANDARD
 70
     0
  3

 62
   256
 51
90.0
 52
90.0
 71
     2
 49
0.5
 62
   256
  6
BYLAYER
 49
-0.5
 62
   256
  6
BYLAYER
  0
ACDBPLACEHOLDER
  5
F
102
{ACAD_REACTORS
330
E
102
}
330
E
  0
XRECORD
  5
984
102
{ACAD_REACTORS
330
982
102
}
330
982
100
AcDbXrecord
280
     1
340
1B
  0
XRECORD
  5
983
102
{ACAD_REACTORS
330
982
102
}
330
982
100
AcDbXrecord
280
     1
340
1A
  0
DICTIONARYVAR
  5
971
102
{ACAD_REACTORS
330
96F
102
}
330
96F
100
DictionaryVariables
280
     0
  1
2
  0
DICTIONARYVAR
  5
970
102
{ACAD_REACTORS
330
96F
102
}
330
96F
100
DictionaryVariables
280
     0
  1
1
  0
DICTIONARYVAR
  5
972
102
{ACAD_REACTORS
330
96F
102
}
330
96F
100
DictionaryVariables
280
     0
  1

  0
DICTIONARY
  5
987
330
23
100
AcDbDictionary
280
     1
281
     1
  3
ACAD_XREC_ROUNDTRIP
360
988
  0
DICTIONARY
  5
985
330
1F
100
AcDbDictionary
280
     1
281
     1
  3
ACAD_XREC_ROUNDTRIP
360
986
  0
XRECORD
  5
988
102
{ACAD_REACTORS
330
987
102
}
330
987
100
AcDbXrecord
280
     1
102
SHADEPLOT
 70
     0
102
SHADEPLOTRESLEVEL
 70
     2
102
SHADEPLOTCUSTOMDPI
 70
   300
  0
XRECORD
  5
986
102
{ACAD_REACTORS
330
985
102
}
330
985
100
AcDbXrecord
280
     1
102
SHADEPLOT
 70
     0
102
SHADEPLOTRESLEVEL
 70
     2
102
SHADEPLOTCUSTOMDPI
 70
   300
  0
ENDSEC
  0
EOF
