  0
SECTION
  2
HEADER
  9
$ACADVER
  1
AC1015
  9
$ACADMAINTVER
 70
    20
  9
$DWGCODEPAGE
  3
ANSI_932
  9
$INSBASE
 10
551.3743879135055
 20
4.355554119970689
 30
0.0
  9
$EXTMIN
 10
535.1762787638549
 20
-9.571394650528645
 30
-0.0015258207003583
  9
$EXTMAX
 10
948.9794116022904
 20
294.7037233231417
 30
0.0000000349246037
  9
$LIMMIN
 10
0.0
 20
0.0
  9
$LIMMAX
 10
12.0
 20
9.0
  9
$ORTHOMODE
 70
     0
  9
$REGENMODE
 70
     0
  9
$FILLMODE
 70
     1
  9
$QTEXTMODE
 70
     0
  9
$MIRRTEXT
 70
     1
  9
$LTSCALE
 40
1.0
  9
$ATTMODE
 70
     1
  9
$TEXTSIZE
 40
4.4
  9
$TRACEWID
 40
0.05
  9
$TEXTSTYLE
  7
SIMPLEX
  9
$CLAYER
  8
4
  9
$CELTYPE
  6
ByLayer
  9
$CECOLOR
 62
   256
  9
$CELTSCALE
 40
1.0
  9
$DISPSILH
 70
     0
  9
$DIMSCALE
 40
1.0
  9
$DIMASZ
 40
0.18
  9
$DIMEXO
 40
0.0625
  9
$DIMDLI
 40
0.3799999999999999
  9
$DIMRND
 40
0.0
  9
$DIMDLE
 40
0.0
  9
$DIMEXE
 40
0.18
  9
$DIMTP
 40
0.0
  9
$DIMTM
 40
0.0
  9
$DIMTXT
 40
0.18
  9
$DIMCEN
 40
0.09
  9
$DIMTSZ
 40
0.0
  9
$DIMTOL
 70
     0
  9
$DIMLIM
 70
     0
  9
$DIMTIH
 70
     1
  9
$DIMTOH
 70
     1
  9
$DIMSE1
 70
     0
  9
$DIMSE2
 70
     0
  9
$DIMTAD
 70
     0
  9
$DIMZIN
 70
     0
  9
$DIMBLK
  1

  9
$DIMASO
 70
     1
  9
$DIMSHO
 70
     0
  9
$DIMPOST
  1

  9
$DIMAPOST
  1

  9
$DIMALT
 70
     0
  9
$DIMALTD
 70
     2
  9
$DIMALTF
 40
25.4
  9
$DIMLFAC
 40
1.0
  9
$DIMTOFL
 70
     0
  9
$DIMTVP
 40
0.0
  9
$DIMTIX
 70
     0
  9
$DIMSOXD
 70
     0
  9
$DIMSAH
 70
     0
  9
$DIMBLK1
  1

  9
$DIMBLK2
  1

  9
$DIMSTYLE
  2
Standard
  9
$DIMCLRD
 70
     0
  9
$DIMCLRE
 70
     0
  9
$DIMCLRT
 70
     0
  9
$DIMTFAC
 40
1.0
  9
$DIMGAP
 40
0.09
  9
$DIMJUST
 70
     0
  9
$DIMSD1
 70
     0
  9
$DIMSD2
 70
     0
  9
$DIMTOLJ
 70
     1
  9
$DIMTZIN
 70
     0
  9
$DIMALTZ
 70
     0
  9
$DIMALTTZ
 70
     0
  9
$DIMUPT
 70
     0
  9
$DIMDEC
 70
     3
  9
$DIMTDEC
 70
     3
  9
$DIMALTU
 70
     2
  9
$DIMALTTD
 70
     2
  9
$DIMTXSTY
  7
STANDARD
  9
$DIMAUNIT
 70
     0
  9
$DIMADEC
 70
     0
  9
$DIMALTRND
 40
0.0
  9
$DIMAZIN
 70
     0
  9
$DIMDSEP
 70
    46
  9
$DIMATFIT
 70
     3
  9
$DIMFRAC
 70
     0
  9
$DIMLDRBLK
  1

  9
$DIMLUNIT
 70
     2
  9
$DIMLWD
 70
    -2
  9
$DIMLWE
 70
    -2
  9
$DIMTMOVE
 70
     2
  9
$LUNITS
 70
     2
  9
$LUPREC
 70
     3
  9
$SKETCHINC
 40
0.1
  9
$FILLETRAD
 40
0.0
  9
$AUNITS
 70
     0
  9
$AUPREC
 70
     0
  9
$MENU
  1
Z:SANPOU-1
  9
$ELEVATION
 40
0.0
  9
$PELEVATION
 40
0.0
  9
$THICKNESS
 40
0.0
  9
$LIMCHECK
 70
     0
  9
$CHAMFERA
 40
0.0
  9
$CHAMFERB
 40
0.0
  9
$CHAMFERC
 40
0.0
  9
$CHAMFERD
 40
0.0
  9
$SKPOLY
 70
     0
  9
$TDCREATE
 40
2451666.368414352
  9
$TDUCREATE
 40
2451665.993414352
  9
$TDUPDATE
 40
2455127.559984803
  9
$TDUUPDATE
 40
2455127.184984803
  9
$TDINDWG
 40
0.0111418519
  9
$TDUSRTIMER
 40
0.0111418519
  9
$USRTIMER
 70
     1
  9
$ANGBASE
 50
0.0
  9
$ANGDIR
 70
     0
  9
$PDMODE
 70
     0
  9
$PDSIZE
 40
0.0
  9
$PLINEWID
 40
0.0
  9
$SPLFRAME
 70
     0
  9
$SPLINETYPE
 70
     6
  9
$SPLINESEGS
 70
     8
  9
$HANDSEED
  5
CE1
  9
$SURFTAB1
 70
     6
  9
$SURFTAB2
 70
     6
  9
$SURFTYPE
 70
     6
  9
$SURFU
 70
     6
  9
$SURFV
 70
     6
  9
$UCSBASE
  2

  9
$UCSNAME
  2

  9
$UCSORG
 10
0.0
 20
0.0
 30
0.0
  9
$UCSXDIR
 10
1.0
 20
0.0
 30
0.0
  9
$UCSYDIR
 10
0.0
 20
1.0
 30
0.0
  9
$UCSORTHOREF
  2

  9
$UCSORTHOVIEW
 70
     0
  9
$UCSORGTOP
 10
0.0
 20
0.0
 30
0.0
  9
$UCSORGBOTTOM
 10
0.0
 20
0.0
 30
0.0
  9
$UCSORGLEFT
 10
0.0
 20
0.0
 30
0.0
  9
$UCSORGRIGHT
 10
0.0
 20
0.0
 30
0.0
  9
$UCSORGFRONT
 10
0.0
 20
0.0
 30
0.0
  9
$UCSORGBACK
 10
0.0
 20
0.0
 30
0.0
  9
$PUCSBASE
  2

  9
$PUCSNAME
  2

  9
$PUCSORG
 10
0.0
 20
0.0
 30
0.0
  9
$PUCSXDIR
 10
1.0
 20
0.0
 30
0.0
  9
$PUCSYDIR
 10
0.0
 20
1.0
 30
0.0
  9
$PUCSORTHOREF
  2

  9
$PUCSORTHOVIEW
 70
     0
  9
$PUCSORGTOP
 10
0.0
 20
0.0
 30
0.0
  9
$PUCSORGBOTTOM
 10
0.0
 20
0.0
 30
0.0
  9
$PUCSORGLEFT
 10
0.0
 20
0.0
 30
0.0
  9
$PUCSORGRIGHT
 10
0.0
 20
0.0
 30
0.0
  9
$PUCSORGFRONT
 10
0.0
 20
0.0
 30
0.0
  9
$PUCSORGBACK
 10
0.0
 20
0.0
 30
0.0
  9
$USERI1
 70
     0
  9
$USERI2
 70
     0
  9
$USERI3
 70
     0
  9
$USERI4
 70
     0
  9
$USERI5
 70
     0
  9
$USERR1
 40
0.0
  9
$USERR2
 40
0.0
  9
$USERR3
 40
0.0
  9
$USERR4
 40
0.0
  9
$USERR5
 40
0.0
  9
$WORLDVIEW
 70
     1
  9
$SHADEDGE
 70
     3
  9
$SHADEDIF
 70
    70
  9
$TILEMODE
 70
     1
  9
$MAXACTVP
 70
    16
  9
$PINSBASE
 10
0.0
 20
0.0
 30
0.0
  9
$PLIMCHECK
 70
     0
  9
$PEXTMIN
 10
1.000000000000000E+20
 20
1.000000000000000E+20
 30
1.000000000000000E+20
  9
$PEXTMAX
 10
-1.000000000000000E+20
 20
-1.000000000000000E+20
 30
-1.000000000000000E+20
  9
$PLIMMIN
 10
0.0
 20
0.0
  9
$PLIMMAX
 10
12.0
 20
9.0
  9
$UNITMODE
 70
     0
  9
$VISRETAIN
 70
     0
  9
$PLINEGEN
 70
     0
  9
$PSLTSCALE
 70
     0
  9
$TREEDEPTH
 70
  3020
  9
$CMLSTYLE
  2
Standard
  9
$CMLJUST
 70
     0
  9
$CMLSCALE
 40
1.0
  9
$PROXYGRAPHICS
 70
     1
  9
$MEASUREMENT
 70
     0
  9
$CELWEIGHT
370
    -1
  9
$ENDCAPS
280
     0
  9
$JOINSTYLE
280
     0
  9
$LWDISPLAY
290
     0
  9
$INSUNITS
 70
     0
  9
$HYPERLINKBASE
  1

  9
$STYLESHEET
  1

  9
$XEDIT
290
     1
  9
$CEPSNTYPE
380
     0
  9
$PSTYLEMODE
290
     1
  9
$FINGERPRINTGUID
  2
{F1AD5C7D-3CA8-4854-87CE-EE6CE98874E2}
  9
$VERSIONGUID
  2
{4A8E4415-E314-46F7-B288-DF224EABF4AF}
  9
$EXTNAMES
290
     1
  9
$PSVPSCALE
 40
0.0
  9
$OLESTARTUP
290
     0
  0
ENDSEC
  0
SECTION
  2
CLASSES
  0
CLASS
  1
ACDBDICTIONARYWDFLT
  2
AcDbDictionaryWithDefault
  3
ObjectDBX Classes
 90
        0
280
     0
281
     0
  0
CLASS
  1
DICTIONARYVAR
  2
AcDbDictionaryVar
  3
ObjectDBX Classes
 90
        0
280
     0
281
     0
  0
CLASS
  1
ACDBPLACEHOLDER
  2
AcDbPlaceHolder
  3
ObjectDBX Classes
 90
        0
280
     0
281
     0
  0
CLASS
  1
LAYOUT
  2
AcDbLayout
  3
ObjectDBX Classes
 90
        0
280
     0
281
     0
  0
ENDSEC
  0
SECTION
  2
TABLES
  0
TABLE
  2
VPORT
  5
8
330
0
100
AcDbSymbolTable
 70
     5
  0
VPORT
  5
CD9
330
8
100
AcDbSymbolTableRecord
100
AcDbViewportTableRecord
  2
*Active
 70
     0
 10
0.0
 20
0.0
 11
1.0
 21
1.0
 12
747.5315661824627
 22
135.3207159148735
 13
0.0
 23
0.0
 14
1.0
 24
1.0
 15
0.0
 25
0.0
 16
0.0
 26
0.0
 36
1.0
 17
0.0
 27
0.0
 37
0.0
 40
423.5012708785966
 41
1.884920634920634
 42
50.0
 43
0.0
 44
0.0
 50
0.0
 51
0.0
 71
     0
 72
 20000
 73
     1
 74
     0
 75
     0
 76
     0
 77
     0
 78
     0
281
     0
 65
     1
110
0.0
120
0.0
130
0.0
111
1.0
121
0.0
131
0.0
112
0.0
122
1.0
132
0.0
 79
     0
146
0.0
  0
ENDTAB
  0
TABLE
  2
LTYPE
  5
5
330
0
100
AcDbSymbolTable
 70
    13
  0
LTYPE
  5
13
330
5
100
AcDbSymbolTableRecord
100
AcDbLinetypeTableRecord
  2
ByBlock
 70
     0
  3

 72
    65
 73
     0
 40
0.0
  0
LTYPE
  5
14
330
5
100
AcDbSymbolTableRecord
100
AcDbLinetypeTableRecord
  2
ByLayer
 70
     0
  3

 72
    65
 73
     0
 40
0.0
  0
LTYPE
  5
15
330
5
100
AcDbSymbolTableRecord
100
AcDbLinetypeTableRecord
  2
CONTINUOUS
 70
     0
  3
Àü
 72
    65
 73
     0
 40
0.0
  0
LTYPE
  5
2D
330
5
100
AcDbSymbolTableRecord
100
AcDbLinetypeTableRecord
  2
C5
 70
     0
  3
\\\\\  ¥  \\\\\  ¥  \\\\\  ¥  \
 72
    65
 73
     4
 40
16.64
 49
12.8
 74
     0
 49
-1.28
 74
     0
 49
1.28
 74
     0
 49
-1.28
 74
     0
  0
LTYPE
  5
2E
330
5
100
AcDbSymbolTableRecord
100
AcDbLinetypeTableRecord
  2
H4
 70
     0
  3
\\\\@@\\\\@@\\\\@@\\\\@BF4AF}
 72
    65
 73
     2
 40
2.7
 49
1.6
 74
     0
 49
-1.1
 74
     0
  0
LTYPE
  5
2F
330
5
100
AcDbSymbolTableRecord
100
AcDbLinetypeTableRecord
  2
H5
 70
     0
  3
\\\\\@@@\\\\\@@@\\\\\@@BF4AF}
 72
    65
 73
     2
 40
3.8
 49
2.2
 74
     0
 49
-1.6
 74
     0
  0
LTYPE
  5
30
330
5
100
AcDbSymbolTableRecord
100
AcDbLinetypeTableRecord
  2
H6
 70
     0
  3
\\\\\\\@@@\\\\\\\   @\\\\
 72
    65
 73
     2
 40
5.4
 49
3.2
 74
     0
 49
-2.2
 74
     0
  0
LTYPE
  5
31
330
5
100
AcDbSymbolTableRecord
100
AcDbLinetypeTableRecord
  2
CENTER
 70
     0
  3
¢¢¢  ¥  ¢¢¢  ¥  ¢¢¢  ¥  ¢¢¢  ¥  ¢
 72
    65
 73
     4
 40
5.049999999999999
 49
4.0
 74
     0
 49
-0.35
 74
     0
 49
0.35
 74
     0
 49
-0.35
 74
     0
  0
LTYPE
  5
32
330
5
100
AcDbSymbolTableRecord
100
AcDbLinetypeTableRecord
  2
H7
 70
     0
  3
\\\\\\\\\@@@@@\\\\\\\\\BF4AF}
 72
    65
 73
     2
 40
7.6
 49
4.4
 74
     0
 49
-3.2
 74
     0
  0
LTYPE
  5
33
330
5
100
AcDbSymbolTableRecord
100
AcDbLinetypeTableRecord
  2
H8
 70
     0
  3
\\\\\\\\\\\@@@@@\\\\\\\BF4AF}
 72
    65
 73
     2
 40
10.8
 49
6.4
 74
     0
 49
-4.4
 74
     0
  0
LTYPE
  5
34
330
5
100
AcDbSymbolTableRecord
100
AcDbLinetypeTableRecord
  2
H9
 70
     0
  3
\\\\\\\\\\\\\@@@@@@\\\\BF4AF}
 72
    65
 73
     2
 40
14.4
 49
8.0
 74
     0
 49
-6.4
 74
     0
  0
LTYPE
  5
35
330
5
100
AcDbSymbolTableRecord
100
AcDbLinetypeTableRecord
  2
H0
 70
     0
  3
- - - - - - - - - - - - - - - - - - - - - - - -
 72
    65
 73
     2
 40
0.6800000000000001
 49
0.4
 74
     0
 49
-0.28
 74
     0
  0
LTYPE
  5
36
330
5
100
AcDbSymbolTableRecord
100
AcDbLinetypeTableRecord
  2
H1
 70
     0
  3
\ \ \ \ \ \ \ \ \ \ \ \ \ \ \ \
 72
    65
 73
     2
 40
0.9600000000000001
 49
0.5600000000000001
 74
     0
 49
-0.4
 74
     0
  0
LTYPE
  5
37
330
5
100
AcDbSymbolTableRecord
100
AcDbLinetypeTableRecord
  2
H2
 70
     0
  3
\\@\\@\\@\\@\\@\\@\\@\\BF4AF}
 72
    65
 73
     2
 40
1.36
 49
0.8
 74
     0
 49
-0.5600000000000001
 74
     0
  0
LTYPE
  5
38
330
5
100
AcDbSymbolTableRecord
100
AcDbLinetypeTableRecord
  2
H3
 70
     0
  3
\\\@@\\\@@\\\@@\\\@@\\\BF4AF}
 72
    65
 73
     2
 40
1.9
 49
1.1
 74
     0
 49
-0.8
 74
     0
  0
ENDTAB
  0
TABLE
  2
LAYER
  5
2
330
0
100
AcDbSymbolTable
 70
    19
  0
LAYER
  5
10
330
2
100
AcDbSymbolTableRecord
100
AcDbLayerTableRecord
  2
0
 70
     0
 62
     7
  6
CONTINUOUS
370
    -3
390
F
  0
LAYER
  5
3D
330
2
100
AcDbSymbolTableRecord
100
AcDbLayerTableRecord
  2
1
 70
     0
 62
     1
  6
CONTINUOUS
370
    -3
390
F
  0
LAYER
  5
3E
330
2
100
AcDbSymbolTableRecord
100
AcDbLayerTableRecord
  2
2
 70
     0
 62
     2
  6
CONTINUOUS
370
    -3
390
F
  0
LAYER
  5
3F
330
2
100
AcDbSymbolTableRecord
100
AcDbLayerTableRecord
  2
3
 70
     0
 62
     3
  6
CONTINUOUS
370
    -3
390
F
  0
LAYER
  5
40
330
2
100
AcDbSymbolTableRecord
100
AcDbLayerTableRecord
  2
4
 70
     0
 62
     4
  6
CONTINUOUS
370
    -3
390
F
  0
LAYER
  5
41
330
2
100
AcDbSymbolTableRecord
100
AcDbLayerTableRecord
  2
5
 70
     0
 62
     5
  6
CONTINUOUS
370
    -3
390
F
  0
LAYER
  5
42
330
2
100
AcDbSymbolTableRecord
100
AcDbLayerTableRecord
  2
6
 70
     0
 62
     6
  6
CONTINUOUS
370
    -3
390
F
  0
LAYER
  5
43
330
2
100
AcDbSymbolTableRecord
100
AcDbLayerTableRecord
  2
7
 70
     0
 62
     7
  6
CONTINUOUS
370
    -3
390
F
  0
LAYER
  5
44
330
2
100
AcDbSymbolTableRecord
100
AcDbLayerTableRecord
  2
S
 70
     0
 62
     6
  6
CONTINUOUS
370
    -3
390
F
  0
LAYER
  5
45
330
2
100
AcDbSymbolTableRecord
100
AcDbLayerTableRecord
  2
T
 70
     0
 62
     5
  6
C5
370
    -3
390
F
  0
LAYER
  5
46
330
2
100
AcDbSymbolTableRecord
100
AcDbLayerTableRecord
  2
W
 70
     0
 62
     7
  6
CONTINUOUS
370
    -3
390
F
  0
LAYER
  5
47
330
2
100
AcDbSymbolTableRecord
100
AcDbLayerTableRecord
  2
8
 70
     0
 62
    18
  6
CONTINUOUS
370
    -3
390
F
  0
LAYER
  5
48
330
2
100
AcDbSymbolTableRecord
100
AcDbLayerTableRecord
  2
9
 70
     0
 62
    14
  6
CONTINUOUS
370
    -3
390
F
  0
LAYER
  5
49
330
2
100
AcDbSymbolTableRecord
100
AcDbLayerTableRecord
  2
10
 70
     0
 62
    44
  6
CONTINUOUS
370
    -3
390
F
  0
LAYER
  5
4A
330
2
100
AcDbSymbolTableRecord
100
AcDbLayerTableRecord
  2
11
 70
     0
 62
    74
  6
CONTINUOUS
370
    -3
390
F
  0
LAYER
  5
4B
330
2
100
AcDbSymbolTableRecord
100
AcDbLayerTableRecord
  2
12
 70
     0
 62
   124
  6
CONTINUOUS
370
    -3
390
F
  0
LAYER
  5
4C
330
2
100
AcDbSymbolTableRecord
100
AcDbLayerTableRecord
  2
13
 70
     0
 62
   154
  6
CONTINUOUS
370
    -3
390
F
  0
LAYER
  5
4D
330
2
100
AcDbSymbolTableRecord
100
AcDbLayerTableRecord
  2
14
 70
     0
 62
   204
  6
CONTINUOUS
370
    -3
390
F
  0
LAYER
  5
4E
330
2
100
AcDbSymbolTableRecord
100
AcDbLayerTableRecord
  2
15
 70
     0
 62
     7
  6
CONTINUOUS
370
    -3
390
F
  0
ENDTAB
  0
TABLE
  2
STYLE
  5
3
330
0
100
AcDbSymbolTable
 70
     6
  0
STYLE
  5
11
330
3
100
AcDbSymbolTableRecord
100
AcDbTextStyleTableRecord
  2
STANDARD
 70
     0
 40
0.0
 41
1.0
 50
0.0
 71
     0
 42
0.2
  3
T:TXT
  4
T:SUG-BIG1
  0
STYLE
  5
28
330
3
100
AcDbSymbolTableRecord
100
AcDbTextStyleTableRecord
  2
SIMPLEX
 70
     0
 40
0.0
 41
1.0
 50
0.0
 71
     0
 42
4.4
  3
T:SIMPLEX
  4
T:SUG-BIG1
  0
STYLE
  5
29
330
3
100
AcDbSymbolTableRecord
100
AcDbTextStyleTableRecord
  2
SIMPLEX-T
 70
     4
 40
0.0
 41
1.0
 50
0.0
 71
     0
 42
0.2
  3
T:TXT
  4
T:SUG-BIG1
  0
STYLE
  5
2A
330
3
100
AcDbSymbolTableRecord
100
AcDbTextStyleTableRecord
  2
TATEGAKI
 70
     4
 40
0.0
 41
1.0
 50
0.0
 71
     0
 42
0.2
  3
Z:SUG-TAT2
  4
Z:SUG-TAT1
  0
STYLE
  5
2B
330
3
100
AcDbSymbolTableRecord
100
AcDbTextStyleTableRecord
  2
ITALIC
 70
     0
 40
0.0
 41
1.0
 50
0.0
 71
     0
 42
0.2
  3
T:ITALIC
  4
T:SUG-BIG1
  0
STYLE
  5
2C
330
3
100
AcDbSymbolTableRecord
100
AcDbTextStyleTableRecord
  2
TXT
 70
     0
 40
0.0
 41
1.0
 50
0.0
 71
     0
 42
4.0
  3
T:TXT
  4
T:SUG-BIG1
  0
ENDTAB
  0
TABLE
  2
VIEW
  5
6
330
0
100
AcDbSymbolTable
 70
     1
  0
VIEW
  5
39
330
6
100
AcDbSymbolTableRecord
100
AcDbViewTableRecord
  2
VIEW1
 70
     0
 40
294.8292857236029
 10
744.5516095422106
 20
138.1230725394237
 41
405.8847632843062
 11
0.0
 21
0.0
 31
1.0
 12
0.0
 22
0.0
 32
0.0
 42
50.0
 43
0.0
 44
0.0
 50
0.0
 71
     0
281
     0
 72
     0
  0
ENDTAB
  0
TABLE
  2
UCS
  5
7
330
0
100
AcDbSymbolTable
 70
     0
  0
ENDTAB
  0
TABLE
  2
APPID
  5
9
330
0
100
AcDbSymbolTable
 70
     1
  0
APPID
  5
12
330
9
100
AcDbSymbolTableRecord
100
AcDbRegAppTableRecord
  2
ACAD
 70
     0
  0
ENDTAB
  0
TABLE
  2
DIMSTYLE
  5
A
330
0
100
AcDbSymbolTable
 70
     1
100
AcDbDimStyleTable
 71
     0
  0
DIMSTYLE
105
CD2
330
A
100
AcDbSymbolTableRecord
100
AcDbDimStyleTableRecord
  2
Standard
 70
     0
340
11
  0
ENDTAB
  0
TABLE
  2
BLOCK_RECORD
  5
1
330
0
100
AcDbSymbolTable
 70
     4
  0
BLOCK_RECORD
  5
20
330
1
100
AcDbSymbolTableRecord
100
AcDbBlockTableRecord
  2
*Model_Space
340
23
  0
BLOCK_RECORD
  5
1C
330
1
100
AcDbSymbolTableRecord
100
AcDbBlockTableRecord
  2
*Paper_Space
340
1F
  0
BLOCK_RECORD
  5
24
330
1
100
AcDbSymbolTableRecord
100
AcDbBlockTableRecord
  2
SUG-AR06
340
0
102
{BLKREFS
331
5B
331
995
102
}
  0
BLOCK_RECORD
  5
25
330
1
100
AcDbSymbolTableRecord
100
AcDbBlockTableRecord
  2
SUG-AR01
340
0
102
{BLKREFS
331
385
331
7FC
331
7FD
331
80B
331
812
331
9A1
102
}
  0
BLOCK_RECORD
  5
26
330
1
100
AcDbSymbolTableRecord
100
AcDbBlockTableRecord
  2
TEXT-B04
340
0
  0
BLOCK_RECORD
  5
27
330
1
100
AcDbSymbolTableRecord
100
AcDbBlockTableRecord
  2
TEXT-C18
340
0
  0
ENDTAB
  0
ENDSEC
  0
SECTION
  2
BLOCKS
  0
BLOCK
  5
51
330
20
100
AcDbEntity
  8
0
100
AcDbBlockBegin
  2
*Model_Space
 70
     0
 10
0.0
 20
0.0
 30
0.0
  3
*Model_Space
  1

  0
ENDBLK
  5
52
330
20
100
AcDbEntity
  8
0
100
AcDbBlockEnd
  0
BLOCK
  5
4F
330
1C
100
AcDbEntity
 67
     1
  8
0
100
AcDbBlockBegin
  2
*Paper_Space
 70
     0
 10
0.0
 20
0.0
 30
0.0
  3
*Paper_Space
  1

  0
ENDBLK
  5
50
330
1C
100
AcDbEntity
 67
     1
  8
0
100
AcDbBlockEnd
  0
BLOCK
  5
53
330
24
100
AcDbEntity
  8
0
100
AcDbBlockBegin
  2
SUG-AR06
 70
     0
 10
0.0
 20
0.0
 30
0.0
  3
SUG-AR06
  1

  0
ENDBLK
  5
54
330
24
100
AcDbEntity
  8
0
100
AcDbBlockEnd
  0
BLOCK
  5
55
330
25
100
AcDbEntity
  8
0
100
AcDbBlockBegin
  2
SUG-AR01
 70
     0
 10
0.0
 20
0.0
 30
0.0
  3
SUG-AR01
  1

  0
LINE
  5
56
330
25
100
AcDbEntity
  8
0
100
AcDbLine
 10
0.0
 20
0.0
 30
0.0
 11
5.0
 21
1.339745962155659
 31
0.0
  0
LINE
  5
57
330
25
100
AcDbEntity
  8
0
100
AcDbLine
 10
5.0
 20
-1.339745962155659
 30
0.0
 11
5.0
 21
1.339745962155659
 31
0.0
  0
LINE
  5
58
330
25
100
AcDbEntity
  8
0
100
AcDbLine
 10
0.0
 20
0.0
 30
0.0
 11
5.0
 21
-1.339745962155659
 31
0.0
  0
ENDBLK
  5
59
330
25
100
AcDbEntity
  8
0
100
AcDbBlockEnd
  0
BLOCK
  5
5A
330
26
100
AcDbEntity
  8
0
100
AcDbBlockBegin
  2
TEXT-B04
 70
     0
 10
0.0
 20
0.0
 30
0.0
  3
TEXT-B04
  1

  0
INSERT
  5
5B
330
26
100
AcDbEntity
  8
4
100
AcDbBlockReference
  2
SUG-AR06
 10
0.0
 20
0.0
 30
0.0
  0
LINE
  5
5C
330
26
100
AcDbEntity
  8
5
100
AcDbLine
 10
27.99999999999999
 20
5.0
 30
0.0
 11
36.00000000000001
 21
5.0
 31
0.0
  0
LINE
  5
5D
330
26
100
AcDbEntity
  8
4
100
AcDbLine
 10
0.0
 20
10.0
 30
0.0
 11
36.00000000000001
 21
10.0
 31
0.0
  0
LINE
  5
5E
330
26
100
AcDbEntity
  8
5
100
AcDbLine
 10
28.0
 20
0.0
 30
0.0
 11
28.0
 21
10.0
 31
0.0
  0
LINE
  5
5F
330
26
100
AcDbEntity
  8
4
100
AcDbLine
 10
0.0
 20
14.0
 30
0.0
 11
0.0
 21
1.0
 31
0.0
  0
LINE
  5
60
330
26
100
AcDbEntity
  8
4
100
AcDbLine
 10
1.0
 20
0.0000000000000002
 30
0.0
 11
35.0
 21
0.0
 31
0.0
  0
LINE
  5
61
330
26
100
AcDbEntity
  8
4
100
AcDbLine
 10
36.0
 20
1.0
 30
0.0
 11
36.0
 21
13.99999999999999
 31
0.0
  0
LINE
  5
62
330
26
100
AcDbEntity
  8
4
100
AcDbLine
 10
35.0
 20
14.99999999999999
 30
0.0
 11
1.0
 21
15.0
 31
0.0
  0
TEXT
  5
63
330
26
100
AcDbEntity
  8
S
 62
     6
100
AcDbText
 10
28.69999999999999
 20
6.0
 30
0.0
 40
3.0
  1
px
  7
SIMPLEX
 72
     4
 11
31.99999999999999
 21
7.499999999999999
 31
0.0
100
AcDbText
  0
TEXT
  5
66
330
26
100
AcDbEntity
  8
S
 62
     6
100
AcDbText
 10
30.78095238095237
 20
1.5
 30
0.0
 40
2.0
  1
2
  7
SIMPLEX
 72
     4
 11
31.99999999999999
 21
2.5
 31
0.0
100
AcDbText
  0
TEXT
  5
67
330
26
100
AcDbEntity
  8
S
 62
     6
100
AcDbText
 10
2.011214057584227
 20
10.74882595787393
 30
0.0
 40
3.0
  1
»ìêÊö· i}j
  7
SIMPLEX
 72
     4
 11
17.91121405758423
 21
12.24882595787393
 31
0.0
100
AcDbText
  0
ARC
  5
68
330
26
100
AcDbEntity
  8
4
100
AcDbCircle
 10
1.0
 20
1.0
 30
0.0
 40
1.0
100
AcDbArc
 50
180.0
 51
270.0
  0
ARC
  5
69
330
26
100
AcDbEntity
  8
4
100
AcDbCircle
 10
1.0
 20
14.0
 30
0.0
 40
1.0
100
AcDbArc
 50
90.0
 51
180.0
  0
ARC
  5
6A
330
26
100
AcDbEntity
  8
4
100
AcDbCircle
 10
35.0
 20
13.99999999999999
 30
0.0
 40
1.0
100
AcDbArc
 50
0.0
 51
90.0
  0
ARC
  5
6B
330
26
100
AcDbEntity
  8
4
100
AcDbCircle
 10
35.0
 20
1.0
 30
0.0
 40
1.0
100
AcDbArc
 50
270.0
 51
0.0000000000000254
  0
TEXT
  5
6C
330
26
100
AcDbEntity
  8
S
 62
     6
100
AcDbText
 10
0.6147526562379433
 20
5.181551581934705
 30
0.0
 40
3.0
  1
JIS B 0404 
  7
SIMPLEX
100
AcDbText
  0
TEXT
  5
6D
330
26
100
AcDbEntity
  8
S
 62
     6
100
AcDbText
 10
7.214166451465327
 20
0.9645261667844053
 30
0.0
 40
3.0
  1
2-14
  7
SIMPLEX
100
AcDbText
  0
ENDBLK
  5
6E
330
26
100
AcDbEntity
  8
0
100
AcDbBlockEnd
  0
BLOCK
  5
6F
330
27
100
AcDbEntity
  8
0
100
AcDbBlockBegin
  2
TEXT-C18
 70
     0
 10
0.0
 20
0.0
 30
0.0
  3
TEXT-C18
  1

  0
TEXT
  5
70
330
27
100
AcDbEntity
  8
S
100
AcDbText
 10
-0.0348163725868886
 20
0.0482228401458329
 30
0.0
 40
4.0
  1
H.Iwama
 41
0.4
  7
ITALIC
100
AcDbText
  0
ENDBLK
  5
72
330
27
100
AcDbEntity
  8
0
100
AcDbBlockEnd
  0
ENDSEC
  0
SECTION
  2
ENTITIES
  0
LINE
  5
74
330
20
100
AcDbEntity
  8
W
100
AcDbLine
 10
935.7743879135055
 20
274.7555541199707
 30
0.0
 11
935.7743879135055
 21
294.681695611222
 31
0.0
  0
LWPOLYLINE
  5
76
330
20
100
AcDbEntity
  8
0
100
AcDbPolyline
 90
        3
 70
     0
 43
0.0
 10
613.9095639126734
 20
149.2606465805938
 42
-0.0732816546436764
 10
596.5657099554674
 20
149.1430159428119
 42
0.0698731966063494
 10
592.4775323592007
 20
149.1430159428119
 42
0.0698731966063494
  0
LWPOLYLINE
  5
7B
330
20
100
AcDbEntity
  8
0
100
AcDbPolyline
 90
        3
 70
     0
 43
0.0
 10
613.9095639126734
 20
146.743875570883
 42
-0.097068612818631
 10
596.7602460217313
 20
146.7123503697706
 42
0.1038741633760542
 10
592.6204546621216
 20
146.6489515358205
 42
0.1038741633760542
  0
LINE
  5
80
330
20
100
AcDbEntity
  8
0
100
AcDbLine
 10
593.7095639126734
 20
146.8330572628994
 30
0.0
 11
593.7095639126734
 21
140.8123789667303
 31
0.0
  0
LINE
  5
81
330
20
100
AcDbEntity
  8
0
100
AcDbLine
 10
593.7095639126734
 20
149.2633937679251
 30
0.0
 11
593.7095639126734
 21
147.8388498068547
 31
0.0
  0
ARC
  5
82
330
20
100
AcDbEntity
  8
0
100
AcDbCircle
 10
592.5102084752397
 20
147.1366458850578
 30
0.0
 40
0.5
100
AcDbArc
 50
102.7379541110937
 51
282.7379541110937
  0
ARC
  5
83
330
20
100
AcDbEntity
  8
0
100
AcDbCircle
 10
592.4079986445187
 20
149.6381573998951
 30
0.0
 40
0.5
100
AcDbArc
 50
97.99388600795863
 51
277.9938860079586
  0
LWPOLYLINE
  5
84
330
20
100
AcDbEntity
  8
0
100
AcDbPolyline
 90
        3
 70
     0
 43
0.0
 10
613.9095639126734
 20
150.2726854471275
 42
-0.0739448678425849
 10
596.7047773848311
 20
150.1332988569784
 42
0.0698731966063496
 10
592.3384649298368
 20
150.1332988569784
 42
16.97455399390593
  0
LWPOLYLINE
  5
89
330
20
100
AcDbEntity
  8
0
100
AcDbPolyline
 90
        3
 70
     0
 43
0.0
 10
613.9095639126734
 20
147.7637268244442
 42
-0.0982150738034222
 10
596.9507668189153
 20
147.6940335293696
 42
0.1038741633760543
 10
592.3999622883578
 20
147.6243402342951
 42
7.79317429721813
  0
TEXT
  5
8E
330
20
100
AcDbEntity
  8
0
100
AcDbText
 10
640.2614771235468
 20
152.5296383187626
 30
0.0
 40
2.0
  1
6
 50
90.0
  7
SIMPLEX
100
AcDbText
  0
TEXT
  5
8F
330
20
100
AcDbEntity
  8
0
100
AcDbText
 10
627.1151694189177
 20
152.8301888622413
 30
0.0
 40
2.0
  1
1
 50
90.0
  7
SIMPLEX
100
AcDbText
  0
LINE
  5
90
330
20
100
AcDbEntity
  8
0
100
AcDbLine
 10
613.9095639126734
 20
152.5123789667302
 30
0.0
 11
613.9095639126734
 21
145.1123789667302
 31
0.0
  0
LINE
  5
91
330
20
100
AcDbEntity
  8
0
100
AcDbLine
 10
622.1095639126734
 20
152.5123789667302
 30
0.0
 11
613.9095639126734
 21
152.5123789667302
 31
0.0
  0
LINE
  5
92
330
20
100
AcDbEntity
  8
0
100
AcDbLine
 10
622.1095639126734
 20
145.1123789667302
 30
0.0
 11
622.1095639126734
 21
152.5123789667302
 31
0.0
  0
LINE
  5
93
330
20
100
AcDbEntity
  8
0
100
AcDbLine
 10
613.9095639126734
 20
145.1123789667302
 30
0.0
 11
622.1095639126734
 21
145.1123789667302
 31
0.0
  0
LINE
  5
94
330
20
100
AcDbEntity
  8
0
100
AcDbLine
 10
623.7095639126735
 20
150.7123789667302
 30
0.0
 11
623.7095639126735
 21
146.9123789667302
 31
0.0
  0
LINE
  5
95
330
20
100
AcDbEntity
  8
0
100
AcDbLine
 10
641.2095639126736
 20
150.7123789667302
 30
0.0
 11
623.7095639126735
 21
150.7123789667302
 31
0.0
  0
LINE
  5
96
330
20
100
AcDbEntity
  8
0
100
AcDbLine
 10
623.7095639126735
 20
146.9123789667302
 30
0.0
 11
641.2095639126735
 21
146.9123789667302
 31
0.0
  0
LINE
  5
97
330
20
100
AcDbEntity
  8
0
100
AcDbLine
 10
615.7095639126735
 20
152.5123789667302
 30
0.0
 11
615.7095639126735
 21
156.8123789667303
 31
0.0
  0
LINE
  5
98
330
20
100
AcDbEntity
  8
0
100
AcDbLine
 10
597.5280136417084
 20
153.1598914695795
 30
0.0
 11
596.2675534001404
 21
152.8123789667303
 31
0.0
  0
LINE
  5
99
330
20
100
AcDbEntity
  8
0
100
AcDbLine
 10
597.8095639126734
 20
154.5546945358396
 30
0.0
 11
597.5280136417084
 21
153.1598914695795
 31
0.0
  0
LINE
  5
9A
330
20
100
AcDbEntity
  8
0
100
AcDbLine
 10
598.113581785429
 20
153.1036494104562
 30
0.0
 11
597.8095639126734
 21
154.5546945358396
 31
0.0
  0
LINE
  5
9B
330
20
100
AcDbEntity
  8
0
100
AcDbLine
 10
599.6320890055856
 20
152.8123789667303
 30
0.0
 11
598.113581785429
 21
153.1036494104562
 31
0.0
  0
LINE
  5
9C
330
20
100
AcDbEntity
  8
0
100
AcDbLine
 10
598.1036569016371
 20
152.552477231047
 30
0.0
 11
599.6320890055856
 21
152.8123789667303
 31
0.0
  0
LINE
  5
9D
330
20
100
AcDbEntity
  8
0
100
AcDbLine
 10
597.8095639126734
 20
151.1464257529622
 30
0.0
 11
598.1036569016371
 21
152.552477231047
 31
0.0
  0
LINE
  5
9E
330
20
100
AcDbEntity
  8
0
100
AcDbLine
 10
597.5379385255003
 20
152.5299804073976
 30
0.0
 11
597.8095639126734
 21
151.1464257529622
 31
0.0
  0
LINE
  5
9F
330
20
100
AcDbEntity
  8
0
100
AcDbLine
 10
596.2675534001404
 20
152.8123789667303
 30
0.0
 11
597.5379385255003
 21
152.5299804073976
 31
0.0
  0
LINE
  5
A0
330
20
100
AcDbEntity
  8
0
100
AcDbLine
 10
595.1095639126735
 20
152.8123789667303
 30
0.0
 11
600.5095639126734
 21
152.8123789667303
 31
0.0
  0
LINE
  5
A1
330
20
100
AcDbEntity
  8
0
100
AcDbLine
 10
597.8095639126734
 20
155.5123789667302
 30
0.0
 11
597.8095639126734
 21
150.1123789667303
 31
0.0
  0
CIRCLE
  5
A2
330
20
100
AcDbEntity
  8
0
100
AcDbCircle
 10
597.8095639126734
 20
152.8123789667303
 30
0.0
 40
2.549999999999999
  0
CIRCLE
  5
A3
330
20
100
AcDbEntity
  8
0
100
AcDbCircle
 10
597.8095639126734
 20
152.8123789667303
 30
0.0
 40
2.25
  0
CIRCLE
  5
A4
330
20
100
AcDbEntity
  8
0
100
AcDbCircle
 10
609.8095639126734
 20
144.8123789667302
 30
0.0
 40
1.35
  0
LINE
  5
A5
330
20
100
AcDbEntity
  8
0
100
AcDbLine
 10
648.2095639126734
 20
149.5123789667302
 30
0.0
 11
648.2095639126734
 21
148.1123789667301
 31
0.0
  0
LINE
  5
A6
330
20
100
AcDbEntity
  8
0
100
AcDbLine
 10
651.4095639126735
 20
148.1123789667301
 30
0.0
 11
651.4095639126735
 21
149.5123789667302
 31
0.0
  0
LINE
  5
A7
330
20
100
AcDbEntity
  8
0
100
AcDbLine
 10
665.2095639126734
 20
156.8123789667303
 30
0.0
 11
665.2095639126734
 21
155.6123789667302
 31
0.0
  0
LINE
  5
A8
330
20
100
AcDbEntity
  8
0
100
AcDbLine
 10
667.2095639126735
 20
142.0123789667301
 30
0.0
 11
667.2095639126735
 21
140.8123789667303
 31
0.0
  0
LINE
  5
A9
330
20
100
AcDbEntity
  8
0
100
AcDbLine
 10
677.5095639126734
 20
156.8123789667303
 30
0.0
 11
678.7095639126735
 21
156.8123789667303
 31
0.0
  0
LINE
  5
AA
330
20
100
AcDbEntity
  8
0
100
AcDbLine
 10
677.2095639126734
 20
142.0123789667301
 30
0.0
 11
677.2095639126734
 21
140.8123789667303
 31
0.0
  0
LINE
  5
AB
330
20
100
AcDbEntity
  8
0
100
AcDbLine
 10
677.5095639126734
 20
140.8123789667303
 30
0.0
 11
678.7095639126735
 21
140.8123789667303
 31
0.0
  0
LINE
  5
AC
330
20
100
AcDbEntity
  8
0
100
AcDbLine
 10
677.2095639126734
 20
156.8123789667303
 30
0.0
 11
677.2095639126734
 21
155.6123789667302
 31
0.0
  0
LINE
  5
AD
330
20
100
AcDbEntity
  8
0
100
AcDbLine
 10
667.2095639126735
 20
156.8123789667303
 30
0.0
 11
667.2095639126735
 21
155.6123789667302
 31
0.0
  0
LINE
  5
AE
330
20
100
AcDbEntity
  8
0
100
AcDbLine
 10
665.2095639126734
 20
140.8123789667302
 30
0.0
 11
665.2095639126734
 21
142.0123789667301
 31
0.0
  0
LINE
  5
AF
330
20
100
AcDbEntity
  8
0
100
AcDbLine
 10
605.7095639126734
 20
142.0123789667302
 30
0.0
 11
605.7095639126734
 21
140.8123789667303
 31
0.0
  0
LINE
  5
B0
330
20
100
AcDbEntity
  8
0
100
AcDbLine
 10
605.7095639126734
 20
156.8123789667303
 30
0.0
 11
605.7095639126734
 21
155.6123789667303
 31
0.0
  0
LINE
  5
B1
330
20
100
AcDbEntity
  8
0
100
AcDbLine
 10
651.4095639126735
 20
149.5123789667302
 30
0.0
 11
648.2095639126734
 21
149.5123789667302
 31
0.0
  0
LINE
  5
B2
330
20
100
AcDbEntity
  8
0
100
AcDbLine
 10
648.2095639126734
 20
148.1123789667301
 30
0.0
 11
651.4095639126735
 21
148.1123789667301
 31
0.0
  0
LINE
  5
B3
330
20
100
AcDbEntity
  8
0
100
AcDbLine
 10
603.7095639126735
 20
142.0123789667302
 30
0.0
 11
603.7095639126735
 21
140.8123789667302
 31
0.0
  0
LINE
  5
B4
330
20
100
AcDbEntity
  8
0
100
AcDbLine
 10
593.7095639126734
 20
155.6123789667302
 30
0.0
 11
605.7095639126734
 21
155.6123789667303
 31
0.0
  0
LINE
  5
B5
330
20
100
AcDbEntity
  8
0
100
AcDbLine
 10
593.7095639126734
 20
142.0123789667302
 30
0.0
 11
605.7095639126734
 21
142.0123789667302
 31
0.0
  0
LINE
  5
B6
330
20
100
AcDbEntity
  8
0
100
AcDbLine
 10
603.7095639126735
 20
156.8123789667303
 30
0.0
 11
603.7095639126735
 21
155.6123789667302
 31
0.0
  0
LINE
  5
B7
330
20
100
AcDbEntity
  8
0
100
AcDbLine
 10
665.2095639126734
 20
155.6123789667302
 30
0.0
 11
677.5095639126734
 21
155.6123789667302
 31
0.0
  0
LINE
  5
B8
330
20
100
AcDbEntity
  8
0
100
AcDbLine
 10
665.2095639126734
 20
142.0123789667301
 30
0.0
 11
677.5095639126734
 21
142.0123789667301
 31
0.0
  0
LINE
  5
B9
330
20
100
AcDbEntity
  8
0
100
AcDbLine
 10
677.5095639126734
 20
156.8123789667302
 30
0.0
 11
677.5095639126734
 21
140.8123789667302
 31
0.0
  0
LINE
  5
BA
330
20
100
AcDbEntity
  8
0
100
AcDbLine
 10
593.7095639126734
 20
156.8123789667303
 30
0.0
 11
593.7095639126734
 21
150.264825767898
 31
0.0
  0
LINE
  5
BB
330
20
100
AcDbEntity
  8
0
100
AcDbLine
 10
665.6095639126735
 20
154.8123789667303
 30
0.0
 11
663.7095639126735
 21
154.8123789667303
 31
0.0
  0
LINE
  5
BC
330
20
100
AcDbEntity
  8
0
100
AcDbLine
 10
668.6095639126734
 20
142.8123789667303
 30
0.0
 11
670.6095639126735
 21
142.8123789667303
 31
0.0
  0
LINE
  5
BD
330
20
100
AcDbEntity
  8
0
100
AcDbLine
 10
663.7095639126735
 20
154.8123789667302
 30
0.0
 11
663.7095639126735
 21
156.8123789667303
 31
0.0
  0
LINE
  5
BE
330
20
100
AcDbEntity
  8
0
100
AcDbLine
 10
659.3632429787079
 20
148.8123789667302
 30
0.0
 11
681.5414266295233
 21
148.8123789667302
 31
0.0
  0
LINE
  5
BF
330
20
100
AcDbEntity
  8
0
100
AcDbLine
 10
663.7095639126735
 20
142.8123789667303
 30
0.0
 11
665.6095639126735
 21
142.8123789667303
 31
0.0
  0
LINE
  5
C0
330
20
100
AcDbEntity
  8
0
100
AcDbLine
 10
670.6095639126735
 20
154.8123789667303
 30
0.0
 11
668.6095639126734
 21
154.8123789667303
 31
0.0
  0
LINE
  5
C1
330
20
100
AcDbEntity
  8
0
100
AcDbLine
 10
670.6095639126735
 20
142.8123789667303
 30
0.0
 11
670.6095639126735
 21
154.8123789667303
 31
0.0
  0
LINE
  5
C2
330
20
100
AcDbEntity
  8
0
100
AcDbLine
 10
678.0009915324209
 20
148.8123789667302
 30
0.0
 11
590.1773754843352
 21
148.8123789667302
 31
0.0
  0
LINE
  5
C3
330
20
100
AcDbEntity
  8
T
100
AcDbLine
 10
668.6095639126733
 20
139.4811640166121
 30
0.0
 11
668.6095639126734
 21
158.3302869579966
 31
0.0
  0
LINE
  5
C4
330
20
100
AcDbEntity
  8
0
100
AcDbLine
 10
651.8095639126734
 20
149.9123789667302
 30
0.0
 11
647.8095639126734
 21
149.9123789667302
 31
0.0
  0
LINE
  5
C5
330
20
100
AcDbEntity
  8
0
100
AcDbLine
 10
651.8095639126734
 20
147.7123789667302
 30
0.0
 11
651.8095639126734
 21
149.9123789667302
 31
0.0
  0
LINE
  5
C6
330
20
100
AcDbEntity
  8
0
100
AcDbLine
 10
647.8095639126734
 20
147.7123789667302
 30
0.0
 11
651.8095639126734
 21
147.7123789667302
 31
0.0
  0
LINE
  5
C7
330
20
100
AcDbEntity
  8
0
100
AcDbLine
 10
647.8095639126734
 20
149.9123789667302
 30
0.0
 11
647.8095639126734
 21
147.7123789667302
 31
0.0
  0
LINE
  5
C8
330
20
100
AcDbEntity
  8
0
100
AcDbLine
 10
639.2095639126734
 20
140.9123789667302
 30
0.0
 11
639.2095639126734
 21
140.8123789667302
 31
0.0
  0
LINE
  5
C9
330
20
100
AcDbEntity
  8
0
100
AcDbLine
 10
628.2095639126735
 20
140.9123789667302
 30
0.0
 11
628.2095639126735
 21
140.8123789667302
 31
0.0
  0
LINE
  5
CA
330
20
100
AcDbEntity
  8
0
100
AcDbLine
 10
620.7095639126735
 20
156.7123789667302
 30
0.0
 11
620.7095639126735
 21
156.8123789667303
 31
0.0
  0
LINE
  5
CB
330
20
100
AcDbEntity
  8
0
100
AcDbLine
 10
620.7095639126735
 20
140.8123789667303
 30
0.0
 11
620.7095639126735
 21
140.9123789667302
 31
0.0
  0
LINE
  5
CC
330
20
100
AcDbEntity
  8
0
100
AcDbLine
 10
615.7095639126735
 20
140.8123789667303
 30
0.0
 11
615.7095639126735
 21
145.1123789667302
 31
0.0
  0
LINE
  5
CD
330
20
100
AcDbEntity
  8
0
100
AcDbLine
 10
618.7342520523761
 20
150.01237896673
 30
0.0
 11
620.8470196688963
 21
150.01237896673
 31
0.0
  0
LINE
  5
CE
330
20
100
AcDbEntity
  8
0
100
AcDbLine
 10
618.8106171469492
 20
147.51237896673
 30
0.0
 11
620.5415592906042
 21
147.51237896673
 31
0.0
  0
LINE
  5
CF
330
20
100
AcDbEntity
  8
0
100
AcDbLine
 10
619.9095639126734
 20
144.0858875054746
 30
0.0
 11
619.9095639126734
 21
153.6637963466278
 31
0.0
  0
LINE
  5
D0
330
20
100
AcDbEntity
  8
0
100
AcDbLine
 10
626.2095639126735
 20
146.1403061271187
 30
0.0
 11
626.2095639126735
 21
151.6220687575787
 31
0.0
  0
LINE
  5
D1
330
20
100
AcDbEntity
  8
0
100
AcDbLine
 10
628.7095639126735
 20
146.0787132885741
 30
0.0
 11
628.7095639126735
 21
151.5604759190343
 31
0.0
  0
LINE
  5
D2
330
20
100
AcDbEntity
  8
0
100
AcDbLine
 10
631.2095639126734
 20
146.2634918042077
 30
0.0
 11
631.2095639126734
 21
151.6220687575787
 31
0.0
  0
LINE
  5
D3
330
20
100
AcDbEntity
  8
0
100
AcDbLine
 10
633.7095639126735
 20
146.0171204500297
 30
0.0
 11
633.7095639126735
 21
151.6220687575787
 31
0.0
  0
LINE
  5
D4
330
20
100
AcDbEntity
  8
0
100
AcDbLine
 10
636.2095639126735
 20
146.0787132885741
 30
0.0
 11
636.2095639126735
 21
151.5604759190343
 31
0.0
  0
LINE
  5
D5
330
20
100
AcDbEntity
  8
0
100
AcDbLine
 10
638.7095639126735
 20
146.3866774812966
 30
0.0
 11
638.7095639126735
 21
151.2525117263118
 31
0.0
  0
LINE
  5
D6
330
20
100
AcDbEntity
  8
0
100
AcDbLine
 10
641.2095639126735
 20
146.9123789667302
 30
0.0
 11
641.2095639126736
 21
150.7123789667302
 31
0.0
  0
LINE
  5
D7
330
20
100
AcDbEntity
  8
0
100
AcDbLine
 10
663.7095639126735
 20
140.8123789667302
 30
0.0
 11
663.7095639126735
 21
142.8123789667303
 31
0.0
  0
LINE
  5
D8
330
20
100
AcDbEntity
  8
0
  6
H4
100
AcDbLine
 10
637.7095639126735
 20
140.3123789667302
 30
0.0
 11
637.7095639126735
 21
144.3123789667302
 31
0.0
  0
LINE
  5
D9
330
20
100
AcDbEntity
  8
0
  6
H4
100
AcDbLine
 10
637.7095639126735
 20
144.3123789667302
 30
0.0
 11
629.7095639126735
 21
144.3123789667302
 31
0.0
  0
LINE
  5
DA
330
20
100
AcDbEntity
  8
0
  6
H4
100
AcDbLine
 10
629.7095639126735
 20
140.3123789667302
 30
0.0
 11
637.7095639126735
 21
140.3123789667302
 31
0.0
  0
LINE
  5
DB
330
20
100
AcDbEntity
  8
0
100
AcDbLine
 10
636.2095639126735
 20
143.3219386913684
 30
0.0
 11
636.2095639126735
 21
141.0227023378498
 31
0.0
  0
LINE
  5
DC
330
20
100
AcDbEntity
  8
0
100
AcDbLine
 10
633.7095639126735
 20
143.4634301592772
 30
0.0
 11
633.7095639126735
 21
141.1288209387814
 31
0.0
  0
LINE
  5
DD
330
20
100
AcDbEntity
  8
0
100
AcDbLine
 10
631.2095639126734
 20
143.4634301592772
 30
0.0
 11
631.2095639126734
 21
141.1288209387814
 31
0.0
  0
CIRCLE
  5
DE
330
20
100
AcDbEntity
  8
0
100
AcDbCircle
 10
636.2095639126735
 20
142.3123789667302
 30
0.0
 40
0.5
  0
CIRCLE
  5
DF
330
20
100
AcDbEntity
  8
0
100
AcDbCircle
 10
633.7095639126735
 20
142.3123789667302
 30
0.0
 40
0.5
  0
CIRCLE
  5
E0
330
20
100
AcDbEntity
  8
0
100
AcDbCircle
 10
631.2095639126734
 20
142.3123789667302
 30
0.0
 40
0.5
  0
LINE
  5
E1
330
20
100
AcDbEntity
  8
0
  6
H4
100
AcDbLine
 10
629.7095639126735
 20
143.1123789667302
 30
0.0
 11
625.215122901825
 21
143.1123789667302
 31
0.0
  0
LINE
  5
E2
330
20
100
AcDbEntity
  8
0
  6
H4
100
AcDbLine
 10
625.215122901825
 20
143.1123789667302
 30
0.0
 11
625.215122901825
 21
141.5123789667302
 31
0.0
  0
LINE
  5
E3
330
20
100
AcDbEntity
  8
0
  6
H4
100
AcDbLine
 10
625.215122901825
 20
141.5123789667302
 30
0.0
 11
629.7095639126735
 21
141.5123789667302
 31
0.0
  0
LINE
  5
E4
330
20
100
AcDbEntity
  8
0
  6
H4
100
AcDbLine
 10
629.7095639126735
 20
144.3123789667302
 30
0.0
 11
629.7095639126735
 21
140.3123789667302
 31
0.0
  0
LINE
  5
E5
330
20
100
AcDbEntity
  8
0
  6
H4
100
AcDbLine
 10
660.2095639126734
 20
146.8123789667302
 30
0.0
 11
660.2095639126734
 21
150.8123789667302
 31
0.0
  0
LINE
  5
E6
330
20
100
AcDbEntity
  8
0
  6
H4
100
AcDbLine
 10
664.7040049235219
 20
149.6123789667303
 30
0.0
 11
660.2095639126734
 21
149.6123789667303
 31
0.0
  0
LINE
  5
E7
330
20
100
AcDbEntity
  8
0
  6
H4
100
AcDbLine
 10
664.7040049235219
 20
148.0123789667302
 30
0.0
 11
664.7040049235219
 21
149.6123789667303
 31
0.0
  0
LINE
  5
E8
330
20
100
AcDbEntity
  8
0
  6
H4
100
AcDbLine
 10
660.2095639126734
 20
148.0123789667302
 30
0.0
 11
664.7040049235219
 21
148.0123789667302
 31
0.0
  0
CIRCLE
  5
E9
330
20
100
AcDbEntity
  8
0
100
AcDbCircle
 10
658.7095639126735
 20
148.8123789667302
 30
0.0
 40
0.5
  0
CIRCLE
  5
EA
330
20
100
AcDbEntity
  8
0
100
AcDbCircle
 10
656.2095639126734
 20
148.8123789667302
 30
0.0
 40
0.5
  0
CIRCLE
  5
EB
330
20
100
AcDbEntity
  8
0
100
AcDbCircle
 10
653.7095639126735
 20
148.8123789667302
 30
0.0
 40
0.5
  0
LINE
  5
EC
330
20
100
AcDbEntity
  8
0
100
AcDbLine
 10
656.2095639126734
 20
147.6613277741832
 30
0.0
 11
656.2095639126734
 21
149.995936994679
 31
0.0
  0
LINE
  5
ED
330
20
100
AcDbEntity
  8
0
100
AcDbLine
 10
653.7095639126735
 20
147.8028192420921
 30
0.0
 11
653.7095639126735
 21
150.1020555956107
 31
0.0
  0
LINE
  5
EE
330
20
100
AcDbEntity
  8
0
  6
H4
100
AcDbLine
 10
660.2095639126734
 20
150.8123789667302
 30
0.0
 11
652.2095639126734
 21
150.8123789667302
 31
0.0
  0
LINE
  5
EF
330
20
100
AcDbEntity
  8
0
  6
H4
100
AcDbLine
 10
652.2095639126734
 20
146.8123789667302
 30
0.0
 11
660.2095639126734
 21
146.8123789667302
 31
0.0
  0
LINE
  5
F0
330
20
100
AcDbEntity
  8
0
  6
H4
100
AcDbLine
 10
652.2095639126734
 20
150.8123789667302
 30
0.0
 11
652.2095639126734
 21
146.8123789667302
 31
0.0
  0
LINE
  5
F1
330
20
100
AcDbEntity
  8
0
100
AcDbLine
 10
639.2430415983724
 20
142.3123789667302
 30
0.0
 11
626.9839005430959
 21
142.3123789667302
 31
0.0
  0
LINE
  5
F2
330
20
100
AcDbEntity
  8
0
100
AcDbLine
 10
620.7095639126735
 20
156.7123789667302
 30
0.0
 11
658.7095639126735
 21
156.7123789667302
 31
0.0
  0
LINE
  5
F3
330
20
100
AcDbEntity
  8
0
100
AcDbLine
 10
588.7095639126735
 20
158.4123789667302
 30
0.0
 11
588.7095639126735
 21
156.8123789667303
 31
0.0
  0
LINE
  5
F4
330
20
100
AcDbEntity
  8
0
100
AcDbLine
 10
588.7095639126735
 20
156.8123789667303
 30
0.0
 11
685.7095639126734
 21
156.8123789667302
 31
0.0
  0
LINE
  5
F5
330
20
100
AcDbEntity
  8
0
100
AcDbLine
 10
588.7095639126735
 20
140.8123789667303
 30
0.0
 11
685.7095639126734
 21
140.8123789667302
 31
0.0
  0
LINE
  5
F6
330
20
100
AcDbEntity
  8
0
100
AcDbLine
 10
588.7095639126735
 20
158.4123789667302
 30
0.0
 11
685.7095639126734
 21
158.4123789667302
 31
0.0
  0
LINE
  5
F7
330
20
100
AcDbEntity
  8
0
100
AcDbLine
 10
588.7095639126735
 20
139.2123789667302
 30
0.0
 11
685.7095639126734
 21
139.2123789667303
 31
0.0
  0
LINE
  5
F8
330
20
100
AcDbEntity
  8
0
100
AcDbLine
 10
588.7095639126735
 20
140.8123789667303
 30
0.0
 11
588.7095639126735
 21
139.2123789667302
 31
0.0
  0
LINE
  5
F9
330
20
100
AcDbEntity
  8
0
100
AcDbLine
 10
678.7095639126735
 20
153.0623789667302
 30
0.0
 11
679.2095639126735
 21
153.0623789667302
 31
0.0
  0
LINE
  5
FA
330
20
100
AcDbEntity
  8
0
100
AcDbLine
 10
679.2095639126735
 20
144.5623789667302
 30
0.0
 11
678.7095639126735
 21
144.5623789667302
 31
0.0
  0
LINE
  5
FB
330
20
100
AcDbEntity
  8
0
100
AcDbLine
 10
678.7095639126735
 20
156.8123789667302
 30
0.0
 11
678.7095639126735
 21
140.8123789667302
 31
0.0
  0
LINE
  5
FC
330
20
100
AcDbEntity
  8
0
100
AcDbLine
 10
678.2095639126735
 20
156.8123789667302
 30
0.0
 11
678.2095639126735
 21
140.8123789667302
 31
0.0
  0
LINE
  5
25A
330
20
100
AcDbEntity
  8
0
100
AcDbLine
 10
685.7095639126734
 20
139.2123789667303
 30
0.0
 11
685.7095639126734
 21
140.8123789667302
 31
0.0
  0
LINE
  5
25B
330
20
100
AcDbEntity
  8
0
100
AcDbLine
 10
685.7095639126734
 20
156.8123789667302
 30
0.0
 11
685.7095639126734
 21
158.4123789667302
 31
0.0
  0
LINE
  5
25C
330
20
100
AcDbEntity
  8
T
100
AcDbLine
 10
585.276107507371
 20
148.8123789667302
 30
0.0
 11
688.5623326452728
 21
148.8123789667302
 31
0.0
  0
LINE
  5
25D
330
20
100
AcDbEntity
  8
0
100
AcDbLine
 10
685.7095639126734
 20
140.8123789667302
 30
0.0
 11
685.7095639126734
 21
156.8123789667302
 31
0.0
  0
LINE
  5
25E
330
20
100
AcDbEntity
  8
0
100
AcDbLine
 10
628.2175075130028
 20
103.1961574396907
 30
0.0
 11
630.2964346680646
 21
105.1700436568056
 31
0.0
  0
LINE
  5
25F
330
20
100
AcDbEntity
  8
0
100
AcDbLine
 10
630.0557551903499
 20
102.8349296174448
 30
0.0
 11
631.1927320677882
 21
104.3791930099906
 31
0.0
  0
LINE
  5
260
330
20
100
AcDbEntity
  8
0
100
AcDbLine
 10
663.7095639126735
 20
111.0349296174446
 30
0.0
 11
663.7095639126735
 21
109.8349296174445
 31
0.0
  0
LINE
  5
261
330
20
100
AcDbEntity
  8
0
100
AcDbLine
 10
620.7095639126735
 20
111.0349296174449
 30
0.0
 11
620.7095639126735
 21
109.8349296174449
 31
0.0
  0
CIRCLE
  5
262
330
20
100
AcDbEntity
  8
0
100
AcDbCircle
 10
630.7095639126734
 20
104.7349296174448
 30
0.0
 40
0.6
  0
CIRCLE
  5
263
330
20
100
AcDbEntity
  8
0
100
AcDbCircle
 10
636.2095639126735
 20
105.3349296174448
 30
0.0
 40
1.0
  0
ARC
  5
264
330
20
100
AcDbEntity
  8
0
100
AcDbCircle
 10
630.7095639126734
 20
109.1349296174448
 30
0.0
 40
0.75
100
AcDbArc
 50
111.0394697813168
 51
68.96053021868097
  0
LINE
  5
265
330
20
100
AcDbEntity
  8
0
100
AcDbLine
 10
629.7095639126734
 20
103.8349296174449
 30
0.0
 11
629.7095639126735
 21
109.8349296174449
 31
0.0
  0
LINE
  5
266
330
20
100
AcDbEntity
  8
0
100
AcDbLine
 10
637.7095639126734
 20
103.8349296174448
 30
0.0
 11
629.7095639126734
 21
103.8349296174449
 31
0.0
  0
LINE
  5
267
330
20
100
AcDbEntity
  8
0
100
AcDbLine
 10
637.7095639126735
 20
109.8349296174447
 30
0.0
 11
637.7095639126734
 21
103.8349296174448
 31
0.0
  0
LINE
  5
268
330
20
100
AcDbEntity
  8
0
100
AcDbLine
 10
635.3095639126734
 20
95.13492961744498
 30
0.0
 11
635.3095639126734
 21
95.03492961744498
 31
0.0
  0
LINE
  5
269
330
20
100
AcDbEntity
  8
0
100
AcDbLine
 10
592.8095639126732
 20
91.83492961744514
 30
0.0
 11
592.8095639126732
 21
96.83492961744512
 31
0.0
  0
LINE
  5
26A
330
20
100
AcDbEntity
  8
0
100
AcDbLine
 10
678.7095639126735
 20
112.4349296174427
 30
0.0
 11
678.7095639126733
 21
107.2349296174426
 31
0.0
  0
LINE
  5
26B
330
20
100
AcDbEntity
  8
0
100
AcDbLine
 10
678.7095639126733
 20
112.3349296174443
 30
0.0
 11
677.5095639126735
 21
112.3349296174443
 31
0.0
  0
LINE
  5
26C
330
20
100
AcDbEntity
  8
0
100
AcDbLine
 10
678.7095639126733
 20
107.3349296174443
 30
0.0
 11
677.5095639126734
 21
107.3349296174443
 31
0.0
  0
LINE
  5
26D
330
20
100
AcDbEntity
  8
0
100
AcDbLine
 10
655.7095639126734
 20
103.5349296174444
 30
0.0
 11
655.7095639126734
 21
102.3349296174445
 31
0.0
  0
LINE
  5
26E
330
20
100
AcDbEntity
  8
0
100
AcDbLine
 10
650.7095639126734
 20
103.5349296174445
 30
0.0
 11
650.7095639126734
 21
102.3349296174445
 31
0.0
  0
LINE
  5
26F
330
20
100
AcDbEntity
  8
0
100
AcDbLine
 10
677.5095639126734
 20
112.4349296174427
 30
0.0
 11
677.5095639126734
 21
107.2349296174426
 31
0.0
  0
CIRCLE
  5
270
330
20
100
AcDbEntity
  8
0
100
AcDbCircle
 10
598.7095639126735
 20
113.334929617445
 30
0.0
 40
1.825
  0
ARC
  5
271
330
20
100
AcDbEntity
  8
0
100
AcDbCircle
 10
609.9179559343646
 20
103.8349296174452
 30
0.0
 40
0.3
100
AcDbArc
 50
269.9999999999993
 51
350.4059317731194
  0
ARC
  5
272
330
20
100
AcDbEntity
  8
0
100
AcDbCircle
 10
606.501171890982
 20
103.8349296174452
 30
0.0
 40
0.3
100
AcDbArc
 50
189.5940682268789
 51
269.9999999999993
  0
ARC
  5
273
330
20
100
AcDbEntity
  8
0
100
AcDbCircle
 10
606.501171890982
 20
101.9349296174453
 30
0.0
 40
0.3
100
AcDbArc
 50
89.99999999999925
 51
170.4059317731194
  0
ARC
  5
274
330
20
100
AcDbEntity
  8
0
100
AcDbCircle
 10
609.9179559343646
 20
101.9349296174452
 30
0.0
 40
0.3
100
AcDbArc
 50
9.594068226879018
 51
89.99999999999925
  0
ARC
  5
275
330
20
100
AcDbEntity
  8
0
100
AcDbCircle
 10
610.5095639126733
 20
103.7349296174451
 30
0.0
 40
0.3
100
AcDbArc
 50
89.99999999999925
 51
170.4059317731173
  0
ARC
  5
276
330
20
100
AcDbEntity
  8
0
100
AcDbCircle
 10
610.9095639126733
 20
103.7349296174451
 30
0.0
 40
0.3
100
AcDbArc
 50
0.0000000000000592
 51
89.99999999999925
  0
ARC
  5
277
330
20
100
AcDbEntity
  8
0
100
AcDbCircle
 10
610.9095639126733
 20
102.0349296174452
 30
0.0
 40
0.3
100
AcDbArc
 50
269.9999999999993
 51
360.0
  0
ARC
  5
278
330
20
100
AcDbEntity
  8
0
100
AcDbCircle
 10
610.5095639126733
 20
102.0349296174452
 30
0.0
 40
0.3
100
AcDbArc
 50
189.5940682268785
 51
269.9999999999993
  0
ARC
  5
279
330
20
100
AcDbEntity
  8
0
100
AcDbCircle
 10
605.9095639126732
 20
102.0349296174453
 30
0.0
 40
0.3
100
AcDbArc
 50
269.9999999999993
 51
350.40593177312
  0
ARC
  5
27A
330
20
100
AcDbEntity
  8
0
100
AcDbCircle
 10
605.9095639126732
 20
103.7349296174452
 30
0.0
 40
0.3
100
AcDbArc
 50
9.594068226881157
 51
89.99999999999925
  0
ARC
  5
27B
330
20
100
AcDbEntity
  8
0
100
AcDbCircle
 10
605.5095639126733
 20
103.7349296174452
 30
0.0
 40
0.3
100
AcDbArc
 50
89.99999999999925
 51
179.9999999999992
  0
ARC
  5
27C
330
20
100
AcDbEntity
  8
0
100
AcDbCircle
 10
605.5095639126733
 20
102.0349296174453
 30
0.0
 40
0.3
100
AcDbArc
 50
180.0000000000001
 51
269.9999999999993
  0
LINE
  5
27D
330
20
100
AcDbEntity
  8
0
100
AcDbLine
 10
605.9095639126732
 20
101.7349296174452
 30
0.0
 11
605.5095639126733
 21
101.7349296174452
 31
0.0
  0
LINE
  5
27E
330
20
100
AcDbEntity
  8
0
100
AcDbLine
 10
610.5095639126735
 20
104.0349296174451
 30
0.0
 11
610.9095639126734
 21
104.0349296174451
 31
0.0
  0
LINE
  5
27F
330
20
100
AcDbEntity
  8
0
100
AcDbLine
 10
605.5095639126734
 20
104.0349296174452
 30
0.0
 11
605.9095639126734
 21
104.0349296174452
 31
0.0
  0
LINE
  5
280
330
20
100
AcDbEntity
  8
0
100
AcDbLine
 10
610.9095639126733
 20
101.7349296174451
 30
0.0
 11
610.5095639126733
 21
101.7349296174451
 31
0.0
  0
ARC
  5
281
330
20
100
AcDbEntity
  8
0
100
AcDbCircle
 10
620.0179559343647
 20
111.3349296174449
 30
0.0
 40
0.3
100
AcDbArc
 50
269.9999999999993
 51
350.4059317731194
  0
ARC
  5
282
330
20
100
AcDbEntity
  8
0
100
AcDbCircle
 10
616.4011718909883
 20
111.3349296174449
 30
0.0
 40
0.3
100
AcDbArc
 50
189.5940682267817
 51
269.9999999999993
  0
ARC
  5
283
330
20
100
AcDbEntity
  8
0
100
AcDbCircle
 10
616.4011718909821
 20
109.434929617445
 30
0.0
 40
0.3
100
AcDbArc
 50
89.99999999999925
 51
170.4059317731194
  0
ARC
  5
284
330
20
100
AcDbEntity
  8
0
100
AcDbCircle
 10
620.0179559343647
 20
109.4349296174449
 30
0.0
 40
0.3
100
AcDbArc
 50
9.594068226879018
 51
89.99999999999925
  0
ARC
  5
285
330
20
100
AcDbEntity
  8
0
100
AcDbCircle
 10
621.0095639126733
 20
111.2349296174449
 30
0.0
 40
0.3
100
AcDbArc
 50
359.9999999999992
 51
89.99999999999925
  0
ARC
  5
286
330
20
100
AcDbEntity
  8
0
100
AcDbCircle
 10
620.6095639126735
 20
111.2349296174449
 30
0.0
 40
0.3
100
AcDbArc
 50
89.99999999999925
 51
170.40593177312
  0
ARC
  5
287
330
20
100
AcDbEntity
  8
0
100
AcDbCircle
 10
615.8095639126734
 20
111.234929617445
 30
0.0
 40
0.3
100
AcDbArc
 50
9.594068226782127
 51
89.99999999999925
  0
ARC
  5
288
330
20
100
AcDbEntity
  8
0
100
AcDbCircle
 10
615.4095639126734
 20
111.234929617445
 30
0.0
 40
0.3
100
AcDbArc
 50
89.99999999999925
 51
179.9999999999992
  0
ARC
  5
289
330
20
100
AcDbEntity
  8
0
100
AcDbCircle
 10
615.4095639126734
 20
109.534929617445
 30
0.0
 40
0.3
100
AcDbArc
 50
179.9999999999992
 51
270.0000000000004
  0
ARC
  5
28A
330
20
100
AcDbEntity
  8
0
100
AcDbCircle
 10
615.8095639126734
 20
109.534929617445
 30
0.0
 40
0.3
100
AcDbArc
 50
270.0
 51
350.4059317731173
  0
ARC
  5
28B
330
20
100
AcDbEntity
  8
0
100
AcDbCircle
 10
620.6095639126735
 20
109.5349296174449
 30
0.0
 40
0.3
100
AcDbArc
 50
189.5940682268785
 51
269.999999999998
  0
ARC
  5
28C
330
20
100
AcDbEntity
  8
0
100
AcDbCircle
 10
621.0095639126734
 20
109.5349296174449
 30
0.0
 40
0.3
100
AcDbArc
 50
269.9999999999985
 51
359.9999999999992
  0
LINE
  5
28D
330
20
100
AcDbEntity
  8
0
100
AcDbLine
 10
620.6095639126735
 20
111.5349296174448
 30
0.0
 11
621.0095639126733
 21
111.5349296174448
 31
0.0
  0
LINE
  5
28E
330
20
100
AcDbEntity
  8
0
100
AcDbLine
 10
615.8095639126734
 20
109.2349296174451
 30
0.0
 11
615.4095639126734
 21
109.2349296174451
 31
0.0
  0
LINE
  5
28F
330
20
100
AcDbEntity
  8
0
100
AcDbLine
 10
621.0095639126734
 20
109.2349296174449
 30
0.0
 11
620.6095639126735
 21
109.234929617445
 31
0.0
  0
LINE
  5
290
330
20
100
AcDbEntity
  8
0
100
AcDbLine
 10
615.4095639126734
 20
111.5349296174449
 30
0.0
 11
615.8095639126734
 21
111.5349296174449
 31
0.0
  0
ARC
  5
291
330
20
100
AcDbEntity
  8
0
100
AcDbCircle
 10
654.5179559343615
 20
103.8349296174446
 30
0.0
 40
0.3
100
AcDbArc
 50
269.9999999999993
 51
350.4059317731645
  0
ARC
  5
292
330
20
100
AcDbEntity
  8
0
100
AcDbCircle
 10
651.901171890982
 20
103.8349296174447
 30
0.0
 40
0.3
100
AcDbArc
 50
189.5940682268789
 51
269.9999999999993
  0
ARC
  5
293
330
20
100
AcDbEntity
  8
0
100
AcDbCircle
 10
651.901171890982
 20
101.9349296174447
 30
0.0
 40
0.3
100
AcDbArc
 50
89.99999999999925
 51
170.4059317731194
  0
ARC
  5
294
330
20
100
AcDbEntity
  8
0
100
AcDbCircle
 10
654.5179559343615
 20
101.9349296174446
 30
0.0
 40
0.3
100
AcDbArc
 50
9.594068226831282
 51
89.99999999999925
  0
ARC
  5
295
330
20
100
AcDbEntity
  8
0
100
AcDbCircle
 10
655.1095639126733
 20
103.7349296174446
 30
0.0
 40
0.3
100
AcDbArc
 50
89.99999999999925
 51
170.4059317731673
  0
ARC
  5
296
330
20
100
AcDbEntity
  8
0
100
AcDbCircle
 10
651.3095639126732
 20
103.7349296174446
 30
0.0
 40
0.3
100
AcDbArc
 50
9.594068226881157
 51
89.99999999999925
  0
ARC
  5
297
330
20
100
AcDbEntity
  8
0
100
AcDbCircle
 10
651.3095639126732
 20
102.0349296174447
 30
0.0
 40
0.3
100
AcDbArc
 50
269.9999999999993
 51
350.4059317731173
  0
ARC
  5
298
330
20
100
AcDbEntity
  8
0
100
AcDbCircle
 10
655.1095639126733
 20
102.0349296174446
 30
0.0
 40
0.3
100
AcDbArc
 50
189.5940682268285
 51
269.9999999999993
  0
LINE
  5
299
330
20
100
AcDbEntity
  8
0
100
AcDbLine
 10
651.3095639126732
 20
101.7349296174447
 30
0.0
 11
650.9095639126733
 21
101.7349296174447
 31
0.0
  0
LINE
  5
29A
330
20
100
AcDbEntity
  8
0
100
AcDbLine
 10
655.1095639126734
 20
104.0349296174445
 30
0.0
 11
655.5095639126734
 21
104.0349296174445
 31
0.0
  0
ARC
  5
29B
330
20
100
AcDbEntity
  8
0
100
AcDbCircle
 10
650.9095639126733
 20
103.7349296174446
 30
0.0
 40
0.3
100
AcDbArc
 50
89.99999999999925
 51
179.9999999999984
  0
ARC
  5
29C
330
20
100
AcDbEntity
  8
0
100
AcDbCircle
 10
650.9095639126733
 20
102.0349296174447
 30
0.0
 40
0.3
100
AcDbArc
 50
179.9999999999992
 51
269.9999999999994
  0
ARC
  5
29D
330
20
100
AcDbEntity
  8
0
100
AcDbCircle
 10
655.5095639126733
 20
102.0349296174446
 30
0.0
 40
0.3
100
AcDbArc
 50
269.9999999999993
 51
359.9999999999976
  0
ARC
  5
29E
330
20
100
AcDbEntity
  8
0
100
AcDbCircle
 10
655.5095639126733
 20
103.7349296174446
 30
0.0
 40
0.3
100
AcDbArc
 50
359.9999999999978
 51
89.99999999999925
  0
LINE
  5
29F
330
20
100
AcDbEntity
  8
0
100
AcDbLine
 10
655.5095639126733
 20
101.7349296174447
 30
0.0
 11
655.1095639126733
 21
101.7349296174447
 31
0.0
  0
LINE
  5
2A0
330
20
100
AcDbEntity
  8
0
100
AcDbLine
 10
650.9095639126734
 20
104.0349296174446
 30
0.0
 11
651.3095639126734
 21
104.0349296174446
 31
0.0
  0
ARC
  5
2A1
330
20
100
AcDbEntity
  8
0
100
AcDbCircle
 10
662.5179559343616
 20
111.3349296174444
 30
0.0
 40
0.3
100
AcDbArc
 50
269.9999999999993
 51
350.4059317731672
  0
ARC
  5
2A2
330
20
100
AcDbEntity
  8
0
100
AcDbCircle
 10
659.9011718909821
 20
111.3349296174444
 30
0.0
 40
0.3
100
AcDbArc
 50
189.5940682268817
 51
269.9999999999993
  0
ARC
  5
2A3
330
20
100
AcDbEntity
  8
0
100
AcDbCircle
 10
659.9011718909821
 20
109.4349296174446
 30
0.0
 40
0.3
100
AcDbArc
 50
89.99999999999925
 51
170.4059317731194
  0
ARC
  5
2A4
330
20
100
AcDbEntity
  8
0
100
AcDbCircle
 10
662.5179559343616
 20
109.4349296174444
 30
0.0
 40
0.3
100
AcDbArc
 50
9.594068226833929
 51
89.99999999999925
  0
ARC
  5
2A5
330
20
100
AcDbEntity
  8
0
100
AcDbCircle
 10
663.1095639126734
 20
109.5349296174444
 30
0.0
 40
0.3
100
AcDbArc
 50
189.5940682268312
 51
269.999999999998
  0
ARC
  5
2A6
330
20
100
AcDbEntity
  8
0
100
AcDbCircle
 10
663.1095639126734
 20
111.2349296174444
 30
0.0
 40
0.3
100
AcDbArc
 50
90.00000000000042
 51
170.40593177317
  0
ARC
  5
2A7
330
20
100
AcDbEntity
  8
0
100
AcDbCircle
 10
659.3095639126734
 20
111.2349296174444
 30
0.0
 40
0.3
100
AcDbArc
 50
9.594068226881157
 51
89.99999999999813
  0
ARC
  5
2A8
330
20
100
AcDbEntity
  8
0
100
AcDbCircle
 10
659.3095639126734
 20
109.5349296174445
 30
0.0
 40
0.3
100
AcDbArc
 50
270.0000000000004
 51
350.40593177312
  0
LINE
  5
2A9
330
20
100
AcDbEntity
  8
0
100
AcDbLine
 10
663.1095639126734
 20
111.5349296174443
 30
0.0
 11
663.5095639126733
 21
111.5349296174443
 31
0.0
  0
LINE
  5
2AA
330
20
100
AcDbEntity
  8
0
100
AcDbLine
 10
659.3095639126734
 20
109.2349296174445
 30
0.0
 11
658.9095639126734
 21
109.2349296174445
 31
0.0
  0
ARC
  5
2AB
330
20
100
AcDbEntity
  8
0
100
AcDbCircle
 10
663.5095639126733
 20
111.2349296174444
 30
0.0
 40
0.3
100
AcDbArc
 50
359.9999999999992
 51
89.99999999999925
  0
ARC
  5
2AC
330
20
100
AcDbEntity
  8
0
100
AcDbCircle
 10
663.5095639126734
 20
109.5349296174444
 30
0.0
 40
0.3
100
AcDbArc
 50
269.9999999999993
 51
359.9999999999992
  0
ARC
  5
2AD
330
20
100
AcDbEntity
  8
0
100
AcDbCircle
 10
658.9095639126734
 20
111.2349296174444
 30
0.0
 40
0.3
100
AcDbArc
 50
89.99999999999925
 51
179.9999999999992
  0
ARC
  5
2AE
330
20
100
AcDbEntity
  8
0
100
AcDbCircle
 10
658.9095639126734
 20
109.5349296174445
 30
0.0
 40
0.3
100
AcDbArc
 50
179.9999999999992
 51
269.9999999999993
  0
LINE
  5
2AF
330
20
100
AcDbEntity
  8
0
100
AcDbLine
 10
663.5095639126734
 20
109.2349296174445
 30
0.0
 11
663.1095639126734
 21
109.2349296174445
 31
0.0
  0
LINE
  5
2B0
330
20
100
AcDbEntity
  8
0
100
AcDbLine
 10
658.9095639126734
 20
111.5349296174444
 30
0.0
 11
659.3095639126734
 21
111.5349296174444
 31
0.0
  0
CIRCLE
  5
2B1
330
20
100
AcDbEntity
  8
0
100
AcDbCircle
 10
672.2095639126735
 20
113.3349296174444
 30
0.0
 40
1.825
  0
CIRCLE
  5
2B2
330
20
100
AcDbEntity
  8
0
100
AcDbCircle
 10
598.7095639126735
 20
113.334929617445
 30
0.0
 40
2.0
  0
LINE
  5
2B3
330
20
100
AcDbEntity
  8
0
100
AcDbLine
 10
650.6095639126733
 20
102.0349296174446
 30
0.0
 11
650.6095639126733
 21
103.7349296174445
 31
0.0
  0
LINE
  5
2B4
330
20
100
AcDbEntity
  8
0
100
AcDbLine
 10
654.5179559343615
 20
102.2349296174447
 30
0.0
 11
651.901171890982
 21
102.2349296174446
 31
0.0
  0
LINE
  5
2B5
330
20
100
AcDbEntity
  8
0
100
AcDbLine
 10
655.8095639126734
 20
103.7349296174446
 30
0.0
 11
655.8095639126734
 21
102.0349296174446
 31
0.0
  0
LINE
  5
2B6
330
20
100
AcDbEntity
  8
0
100
AcDbLine
 10
651.901171890982
 20
103.5349296174446
 30
0.0
 11
654.5179559343615
 21
103.5349296174447
 31
0.0
  0
CIRCLE
  5
2B7
330
20
100
AcDbEntity
  8
0
100
AcDbCircle
 10
672.2095639126735
 20
113.3349296174444
 30
0.0
 40
2.0
  0
ARC
  5
2B8
330
20
100
AcDbEntity
  8
0
100
AcDbCircle
 10
654.7095639126727
 20
57.83492961744446
 30
0.0
 40
0.5
100
AcDbArc
 50
269.9999999999995
 51
359.9999999999992
  0
ARC
  5
2B9
330
20
100
AcDbEntity
  8
0
100
AcDbCircle
 10
661.7095639126727
 20
57.83492961744457
 30
0.0
 40
0.5
100
AcDbArc
 50
179.9999999999992
 51
269.9999999999997
  0
ARC
  5
2BA
330
20
100
AcDbEntity
  8
0
100
AcDbCircle
 10
676.1095639126726
 20
57.83492961744435
 30
0.0
 40
0.5
100
AcDbArc
 50
269.9999999999997
 51
359.9999999999992
  0
ARC
  5
2BB
330
20
100
AcDbEntity
  8
0
100
AcDbCircle
 10
682.3095639126727
 20
57.83492961744437
 30
0.0
 40
0.5
100
AcDbArc
 50
179.9999999999992
 51
269.9999999999994
  0
LINE
  5
2BC
330
20
100
AcDbEntity
  8
0
100
AcDbLine
 10
676.1095639126726
 20
57.33492961744435
 30
0.0
 11
661.7095639126727
 21
57.33492961744435
 31
0.0
  0
ARC
  5
2BD
330
20
100
AcDbEntity
  8
0
100
AcDbCircle
 10
590.7095639126728
 20
59.33492961744517
 30
0.0
 40
2.0
100
AcDbArc
 50
179.9999999999992
 51
270.0
  0
LINE
  5
2BE
330
20
100
AcDbEntity
  8
0
100
AcDbLine
 10
655.2095639126727
 20
57.83492961744443
 30
0.0
 11
655.2095639126727
 21
58.58492961744443
 31
0.0
  0
LINE
  5
2BF
330
20
100
AcDbEntity
  8
0
100
AcDbLine
 10
661.2095639126728
 20
58.58492961744435
 30
0.0
 11
661.2095639126727
 21
57.83492961744435
 31
0.0
  0
LINE
  5
2C0
330
20
100
AcDbEntity
  8
0
100
AcDbLine
 10
655.2095639126727
 20
58.58492961744443
 30
0.0
 11
661.2095639126728
 21
58.58492961744435
 31
0.0
  0
LINE
  5
2C1
330
20
100
AcDbEntity
  8
0
100
AcDbLine
 10
676.6095639126726
 20
57.83492961744435
 30
0.0
 11
676.6095639126728
 21
58.58492961744435
 31
0.0
  0
LINE
  5
2C2
330
20
100
AcDbEntity
  8
0
100
AcDbLine
 10
681.8095639126728
 20
58.58492961744426
 30
0.0
 11
681.8095639126727
 21
57.83492961744426
 31
0.0
  0
LINE
  5
2C3
330
20
100
AcDbEntity
  8
0
100
AcDbLine
 10
676.6095639126728
 20
58.58492961744435
 30
0.0
 11
681.8095639126728
 21
58.58492961744426
 31
0.0
  0
LINE
  5
2C4
330
20
100
AcDbEntity
  8
0
100
AcDbLine
 10
605.2095639126733
 20
102.0349296174453
 30
0.0
 11
605.2095639126733
 21
103.7349296174452
 31
0.0
  0
LINE
  5
2C5
330
20
100
AcDbEntity
  8
0
100
AcDbLine
 10
609.9179559343646
 20
102.2349296174452
 30
0.0
 11
606.501171890982
 21
102.2349296174452
 31
0.0
  0
LINE
  5
2C6
330
20
100
AcDbEntity
  8
0
100
AcDbLine
 10
611.2095639126732
 20
103.7349296174451
 30
0.0
 11
611.2095639126732
 21
102.0349296174452
 31
0.0
  0
LINE
  5
2C7
330
20
100
AcDbEntity
  8
0
100
AcDbLine
 10
606.501171890982
 20
103.5349296174452
 30
0.0
 11
609.9179559343646
 21
103.5349296174451
 31
0.0
  0
LINE
  5
2C8
330
20
100
AcDbEntity
  8
0
100
AcDbLine
 10
615.1095639126733
 20
109.534929617445
 30
0.0
 11
615.1095639126733
 21
111.234929617445
 31
0.0
  0
LINE
  5
2C9
330
20
100
AcDbEntity
  8
0
100
AcDbLine
 10
620.0179559343647
 20
109.734929617445
 30
0.0
 11
616.4011718909821
 21
109.7349296174449
 31
0.0
  0
LINE
  5
2CA
330
20
100
AcDbEntity
  8
0
100
AcDbLine
 10
621.3095639126734
 20
111.2349296174449
 30
0.0
 11
621.3095639126734
 21
109.5349296174449
 31
0.0
  0
LINE
  5
2CB
330
20
100
AcDbEntity
  8
0
100
AcDbLine
 10
616.4011718909883
 20
111.0349296174449
 30
0.0
 11
620.0179559343647
 21
111.0349296174448
 31
0.0
  0
LINE
  5
2CC
330
20
100
AcDbEntity
  8
0
100
AcDbLine
 10
658.6095639126734
 20
109.5349296174445
 30
0.0
 11
658.6095639126734
 21
111.2349296174444
 31
0.0
  0
LINE
  5
2CD
330
20
100
AcDbEntity
  8
0
100
AcDbLine
 10
662.5179559343616
 20
109.7349296174445
 30
0.0
 11
659.9011718909821
 21
109.7349296174445
 31
0.0
  0
LINE
  5
2CE
330
20
100
AcDbEntity
  8
0
100
AcDbLine
 10
663.8095639126734
 20
111.2349296174444
 30
0.0
 11
663.8095639126734
 21
109.5349296174444
 31
0.0
  0
LINE
  5
2CF
330
20
100
AcDbEntity
  8
0
100
AcDbLine
 10
659.9011718909821
 20
111.0349296174444
 30
0.0
 11
662.5179559343616
 21
111.0349296174443
 31
0.0
  0
LINE
  5
2D0
330
20
100
AcDbEntity
  8
0
100
AcDbLine
 10
588.7095639126735
 20
115.3349296174452
 30
0.0
 11
588.7095639126727
 21
59.33492961744519
 31
0.0
  0
ARC
  5
2D1
330
20
100
AcDbEntity
  8
0
100
AcDbCircle
 10
590.7095639126735
 20
115.3349296174451
 30
0.0
 40
2.0
100
AcDbArc
 50
89.99999999999944
 51
179.9999999999992
  0
LINE
  5
2D2
330
20
100
AcDbEntity
  8
0
100
AcDbLine
 10
683.7095639126735
 20
117.3349296174444
 30
0.0
 11
590.7095639126735
 21
117.3349296174451
 31
0.0
  0
CIRCLE
  5
2D3
330
20
100
AcDbEntity
  8
0
100
AcDbCircle
 10
639.709563912673
 20
71.73492961744486
 30
0.0
 40
2.0
  0
ARC
  5
2D4
330
20
100
AcDbEntity
  8
0
100
AcDbCircle
 10
683.7095639126735
 20
115.3349296174444
 30
0.0
 40
2.0
100
AcDbArc
 50
359.9999999999992
 51
89.99999999999944
  0
LINE
  5
2D5
330
20
100
AcDbEntity
  8
0
100
AcDbLine
 10
678.8095639126733
 20
111.1433216391339
 30
0.0
 11
678.8095639126733
 21
108.5265375957544
 31
0.0
  0
LINE
  5
2D6
330
20
100
AcDbEntity
  8
0
100
AcDbLine
 10
679.0095639126733
 20
107.2349296174426
 30
0.0
 11
677.3095639126734
 21
107.2349296174426
 31
0.0
  0
LINE
  5
2D7
330
20
100
AcDbEntity
  8
0
100
AcDbLine
 10
677.5095639126734
 20
108.5265375957544
 30
0.0
 11
677.5095639126734
 21
111.1433216391339
 31
0.0
  0
LINE
  5
2D8
330
20
100
AcDbEntity
  8
0
100
AcDbLine
 10
677.3095639126735
 20
112.4349296174427
 30
0.0
 11
679.0095639126734
 21
112.4349296174427
 31
0.0
  0
LINE
  5
2D9
330
20
100
AcDbEntity
  8
0
100
AcDbLine
 10
679.3095639126735
 20
112.1349296174426
 30
0.0
 11
679.3095639126735
 21
111.7349296174426
 31
0.0
  0
LINE
  5
2DA
330
20
100
AcDbEntity
  8
0
100
AcDbLine
 10
677.0095639126735
 20
107.5349296174426
 30
0.0
 11
677.0095639126735
 21
107.9349296174426
 31
0.0
  0
ARC
  5
2DB
330
20
100
AcDbEntity
  8
0
100
AcDbCircle
 10
677.3095639126736
 20
112.1349296174426
 30
0.0
 40
0.3
100
AcDbArc
 50
89.99999999999925
 51
179.9999999999992
  0
ARC
  5
2DC
330
20
100
AcDbEntity
  8
0
100
AcDbCircle
 10
679.0095639126735
 20
112.1349296174426
 30
0.0
 40
0.3
100
AcDbArc
 50
359.9999999999992
 51
89.99999999999925
  0
ARC
  5
2DD
330
20
100
AcDbEntity
  8
0
100
AcDbCircle
 10
677.3095639126735
 20
107.5349296174426
 30
0.0
 40
0.3
100
AcDbArc
 50
179.9999999999992
 51
269.9999999999993
  0
ARC
  5
2DE
330
20
100
AcDbEntity
  8
0
100
AcDbCircle
 10
679.0095639126734
 20
107.5349296174427
 30
0.0
 40
0.3
100
AcDbArc
 50
269.9999999999993
 51
359.9999999999992
  0
LINE
  5
2DF
330
20
100
AcDbEntity
  8
0
100
AcDbLine
 10
677.0095639126735
 20
111.7349296174426
 30
0.0
 11
677.0095639126735
 21
112.1349296174426
 31
0.0
  0
LINE
  5
2E0
330
20
100
AcDbEntity
  8
0
100
AcDbLine
 10
679.3095639126733
 20
107.9349296174426
 30
0.0
 11
679.3095639126733
 21
107.5349296174427
 31
0.0
  0
ARC
  5
2E1
330
20
100
AcDbEntity
  8
0
100
AcDbCircle
 10
677.3095639126736
 20
111.7349296174426
 30
0.0
 40
0.3
100
AcDbArc
 50
180.0000000000005
 51
260.40593177312
  0
ARC
  5
2E2
330
20
100
AcDbEntity
  8
0
100
AcDbCircle
 10
679.0095639126734
 20
111.7349296174426
 30
0.0
 40
0.3
100
AcDbArc
 50
279.5940682268812
 51
359.9999999999981
  0
ARC
  5
2E3
330
20
100
AcDbEntity
  8
0
100
AcDbCircle
 10
679.0095639126734
 20
107.9349296174426
 30
0.0
 40
0.3
100
AcDbArc
 50
0.0000000000003646
 51
80.40593177316996
  0
ARC
  5
2E4
330
20
100
AcDbEntity
  8
0
100
AcDbCircle
 10
677.3095639126735
 20
107.9349296174426
 30
0.0
 40
0.3
100
AcDbArc
 50
99.59406822683119
 51
179.9999999999981
  0
ARC
  5
2E5
330
20
100
AcDbEntity
  8
0
100
AcDbCircle
 10
677.2095639126734
 20
108.5265375957544
 30
0.0
 40
0.3
100
AcDbArc
 50
279.594068226834
 51
359.9999999999992
  0
ARC
  5
2E6
330
20
100
AcDbEntity
  8
0
100
AcDbCircle
 10
677.2095639126734
 20
111.1433216391339
 30
0.0
 40
0.3
100
AcDbArc
 50
359.9999999999992
 51
80.40593177311947
  0
ARC
  5
2E7
330
20
100
AcDbEntity
  8
0
100
AcDbCircle
 10
679.1095639126734
 20
111.1433216391339
 30
0.0
 40
0.3
100
AcDbArc
 50
99.59406822688173
 51
179.9999999999992
  0
ARC
  5
2E8
330
20
100
AcDbEntity
  8
0
100
AcDbCircle
 10
679.1095639126734
 20
108.5265375957544
 30
0.0
 40
0.3
100
AcDbArc
 50
179.9999999999992
 51
260.4059317731671
  0
LINE
  5
2E9
330
20
100
AcDbEntity
  8
0
100
AcDbLine
 10
685.7095639126729
 20
70.69532181200734
 30
0.0
 11
685.7095639126728
 21
59.33492961744431
 31
0.0
  0
ARC
  5
2EA
330
20
100
AcDbEntity
  8
0
100
AcDbCircle
 10
683.7095639126728
 20
59.43492961744448
 30
0.0
 40
2.0
100
AcDbArc
 50
359.9999999999992
 51
359.9999999999992
  0
LINE
  5
2EB
330
20
100
AcDbEntity
  8
0
100
AcDbLine
 10
685.7095639126734
 20
115.3349296174444
 30
0.0
 11
685.709563912673
 21
84.33492961744423
 31
0.0
  0
LINE
  5
2EC
330
20
100
AcDbEntity
  8
0
100
AcDbLine
 10
668.709563912673
 20
82.33492961744445
 30
0.0
 11
683.709563912673
 21
82.33492961744422
 31
0.0
  0
LINE
  5
2ED
330
20
100
AcDbEntity
  8
0
100
AcDbLine
 10
675.7095639126729
 20
74.33492961744457
 30
0.0
 11
668.709563912673
 21
74.33492961744469
 31
0.0
  0
LINE
  5
2EE
330
20
100
AcDbEntity
  8
0
100
AcDbLine
 10
684.1017961829493
 20
72.6564831633892
 30
0.0
 11
675.7095639126729
 21
74.33492961744457
 31
0.0
  0
ARC
  5
2EF
330
20
100
AcDbEntity
  8
0
100
AcDbCircle
 10
683.7095639126729
 20
70.69532181200736
 30
0.0
 40
2.0
100
AcDbArc
 50
359.9999999999992
 51
78.69006752597899
  0
ARC
  5
2F0
330
20
100
AcDbEntity
  8
0
100
AcDbCircle
 10
683.7095639126728
 20
59.33492961744434
 30
0.0
 40
2.0
100
AcDbArc
 50
269.9999999999997
 51
359.9999999999992
  0
LINE
  5
2F1
330
20
100
AcDbEntity
  8
0
100
AcDbLine
 10
683.7095639126728
 20
57.33492961744435
 30
0.0
 11
682.3095639126727
 21
57.33492961744437
 31
0.0
  0
LINE
  5
2F2
330
20
100
AcDbEntity
  8
0
100
AcDbLine
 10
676.1095639126726
 20
57.33492961744435
 30
0.0
 11
661.7095639126727
 21
57.33492961744457
 31
0.0
  0
LINE
  5
2F3
330
20
100
AcDbEntity
  8
0
100
AcDbLine
 10
654.7095639126727
 20
57.33492961744468
 30
0.0
 11
590.7095639126727
 21
57.33492961744471
 31
0.0
  0
CIRCLE
  5
2F4
330
20
100
AcDbEntity
  8
0
100
AcDbCircle
 10
631.7095639126726
 20
62.33492961744468
 30
0.0
 40
2.0
  0
CIRCLE
  5
2F5
330
20
100
AcDbEntity
  8
0
100
AcDbCircle
 10
631.7095639126726
 20
62.33492961744468
 30
0.0
 40
1.825
  0
LINE
  5
2F6
330
20
100
AcDbEntity
  8
0
100
AcDbLine
 10
638.7095639126735
 20
102.8349296174447
 30
0.0
 11
628.7095639126735
 21
102.8349296174448
 31
0.0
  0
LINE
  5
2F7
330
20
100
AcDbEntity
  8
0
100
AcDbLine
 10
628.2095639126735
 20
103.3349296174448
 30
0.0
 11
628.2095639126737
 21
112.3349296174449
 31
0.0
  0
LINE
  5
2F8
330
20
100
AcDbEntity
  8
0
100
AcDbLine
 10
628.7095639126737
 20
112.8349296174449
 30
0.0
 11
638.7095639126737
 21
112.8349296174447
 31
0.0
  0
LINE
  5
2F9
330
20
100
AcDbEntity
  8
0
100
AcDbLine
 10
639.2095639126737
 20
112.3349296174447
 30
0.0
 11
639.2095639126736
 21
103.3349296174447
 31
0.0
  0
ARC
  5
2FA
330
20
100
AcDbEntity
  8
0
100
AcDbCircle
 10
638.7095639126735
 20
103.3349296174447
 30
0.0
 40
0.5
100
AcDbArc
 50
269.9999999999997
 51
359.9999999999992
  0
ARC
  5
2FB
330
20
100
AcDbEntity
  8
0
100
AcDbCircle
 10
628.7095639126735
 20
103.3349296174448
 30
0.0
 40
0.5
100
AcDbArc
 50
179.9999999999991
 51
269.9999999999997
  0
ARC
  5
2FC
330
20
100
AcDbEntity
  8
0
100
AcDbCircle
 10
628.7095639126737
 20
112.3349296174449
 30
0.0
 40
0.5
100
AcDbArc
 50
89.99999999999955
 51
179.9999999999991
  0
ARC
  5
2FD
330
20
100
AcDbEntity
  8
0
100
AcDbCircle
 10
638.7095639126737
 20
112.3349296174448
 30
0.0
 40
0.5
100
AcDbArc
 50
359.9999999999992
 51
89.99999999999955
  0
LINE
  5
2FE
330
20
100
AcDbEntity
  8
0
100
AcDbLine
 10
591.7095639126732
 20
96.83492961744514
 30
0.0
 11
595.7095639126732
 21
96.83492961744509
 31
0.0
  0
LINE
  5
2FF
330
20
100
AcDbEntity
  8
0
100
AcDbLine
 10
596.2095639126732
 20
96.33492961744506
 30
0.0
 11
596.2095639126731
 21
92.33492961744508
 31
0.0
  0
LINE
  5
300
330
20
100
AcDbEntity
  8
0
100
AcDbLine
 10
595.7095639126731
 20
91.83492961744509
 30
0.0
 11
591.7095639126731
 21
91.83492961744514
 31
0.0
  0
LINE
  5
301
330
20
100
AcDbEntity
  8
0
100
AcDbLine
 10
591.2095639126731
 20
92.33492961744515
 30
0.0
 11
591.2095639126732
 21
96.33492961744515
 31
0.0
  0
ARC
  5
302
330
20
100
AcDbEntity
  8
0
100
AcDbCircle
 10
591.7095639126732
 20
96.33492961744515
 30
0.0
 40
0.5
100
AcDbArc
 50
89.99999999999925
 51
179.9999999999992
  0
ARC
  5
303
330
20
100
AcDbEntity
  8
0
100
AcDbCircle
 10
591.7095639126731
 20
92.33492961744515
 30
0.0
 40
0.5
100
AcDbArc
 50
179.9999999999992
 51
269.9999999999993
  0
ARC
  5
304
330
20
100
AcDbEntity
  8
0
100
AcDbCircle
 10
595.7095639126731
 20
92.33492961744508
 30
0.0
 40
0.5
100
AcDbArc
 50
269.9999999999993
 51
359.9999999999992
  0
ARC
  5
305
330
20
100
AcDbEntity
  8
0
100
AcDbCircle
 10
595.7095639126732
 20
96.33492961744508
 30
0.0
 40
0.5
100
AcDbArc
 50
359.9999999999992
 51
89.99999999999925
  0
ARC
  5
306
330
20
100
AcDbEntity
  8
0
100
AcDbCircle
 10
642.6179559343617
 20
95.43492961744489
 30
0.0
 40
0.3
100
AcDbArc
 50
270.0
 51
350.405931773167
  0
ARC
  5
307
330
20
100
AcDbEntity
  8
0
100
AcDbCircle
 10
642.6179559343648
 20
93.13492961744492
 30
0.0
 40
0.3
100
AcDbArc
 50
9.594068226878917
 51
90.0
  0
ARC
  5
308
330
20
100
AcDbEntity
  8
0
100
AcDbCircle
 10
643.6095639126736
 20
95.33492961744483
 30
0.0
 40
0.3
100
AcDbArc
 50
359.9999999999992
 51
89.99999999999914
  0
ARC
  5
309
330
20
100
AcDbEntity
  8
0
100
AcDbCircle
 10
643.2095639126735
 20
95.33492961744485
 30
0.0
 40
0.3
100
AcDbArc
 50
89.99999999999914
 51
170.4059317731699
  0
ARC
  5
30A
330
20
100
AcDbEntity
  8
0
100
AcDbCircle
 10
643.2095639126734
 20
93.23492961744495
 30
0.0
 40
0.3
100
AcDbArc
 50
189.5940682268784
 51
270.0000000000015
  0
ARC
  5
30B
330
20
100
AcDbEntity
  8
0
100
AcDbCircle
 10
643.6095639126736
 20
93.23492961744491
 30
0.0
 40
0.3
100
AcDbArc
 50
269.9999999999999
 51
359.9999999999985
  0
LINE
  5
30C
330
20
100
AcDbEntity
  8
0
100
AcDbLine
 10
643.2095639126735
 20
95.63492961744481
 30
0.0
 11
643.6095639126736
 21
95.63492961744477
 31
0.0
  0
LINE
  5
30D
330
20
100
AcDbEntity
  8
0
100
AcDbLine
 10
643.6095639126736
 20
92.93492961744485
 30
0.0
 11
643.2095639126734
 21
92.93492961744489
 31
0.0
  0
LINE
  5
30E
330
20
100
AcDbEntity
  8
0
100
AcDbLine
 10
642.6179559343648
 20
93.43492961744487
 30
0.0
 11
631.6011718909822
 21
93.43492961744505
 31
0.0
  0
LINE
  5
30F
330
20
100
AcDbEntity
  8
0
100
AcDbLine
 10
631.6011718909853
 20
95.13492961744509
 30
0.0
 11
642.6179559343617
 21
95.1349296174448
 31
0.0
  0
LINE
  5
310
330
20
100
AcDbEntity
  8
0
100
AcDbLine
 10
630.3095639126735
 20
95.33492961744503
 30
0.0
 11
630.3095639126735
 21
93.234929617445
 31
0.0
  0
LINE
  5
311
330
20
100
AcDbEntity
  8
0
100
AcDbLine
 10
630.6095639126736
 20
92.93492961744505
 30
0.0
 11
631.0095639126735
 21
92.93492961744505
 31
0.0
  0
LINE
  5
312
330
20
100
AcDbEntity
  8
0
100
AcDbLine
 10
631.0095639126735
 20
95.63492961744499
 30
0.0
 11
630.6095639126736
 21
95.63492961744499
 31
0.0
  0
ARC
  5
313
330
20
100
AcDbEntity
  8
0
100
AcDbCircle
 10
630.6095639126736
 20
93.23492961744511
 30
0.0
 40
0.3
100
AcDbArc
 50
179.9999999999998
 51
269.9999999999984
  0
ARC
  5
314
330
20
100
AcDbEntity
  8
0
100
AcDbCircle
 10
631.0095639126735
 20
93.23492961744511
 30
0.0
 40
0.3
100
AcDbArc
 50
269.9999999999968
 51
350.4059317731198
  0
ARC
  5
315
330
20
100
AcDbEntity
  8
0
100
AcDbCircle
 10
631.0095639126735
 20
95.33492961744503
 30
0.0
 40
0.3
100
AcDbArc
 50
9.594068226828484
 51
89.99999999999914
  0
ARC
  5
316
330
20
100
AcDbEntity
  8
0
100
AcDbCircle
 10
630.6095639126736
 20
95.33492961744503
 30
0.0
 40
0.3
100
AcDbArc
 50
89.99999999999914
 51
179.9999999999991
  0
ARC
  5
317
330
20
100
AcDbEntity
  8
0
100
AcDbCircle
 10
631.6011718909822
 20
93.13492961744509
 30
0.0
 40
0.3
100
AcDbArc
 50
89.99999999999914
 51
170.4059317731193
  0
ARC
  5
318
330
20
100
AcDbEntity
  8
0
100
AcDbCircle
 10
631.6011718909853
 20
95.43492961744505
 30
0.0
 40
0.3
100
AcDbArc
 50
189.5940682268312
 51
269.9999999999992
  0
ARC
  5
319
330
20
100
AcDbEntity
  8
0
100
AcDbCircle
 10
657.7922683092257
 20
79.06849760748918
 30
0.0
 40
10.0
100
AcDbArc
 50
337.5218635525708
 51
354.9999999999998
  0
LINE
  5
31A
330
20
100
AcDbEntity
  8
0
100
AcDbLine
 10
667.9660468318743
 20
80.61818578137446
 30
0.0
 11
667.7542152901432
 21
78.19694018001246
 31
0.0
  0
LINE
  5
31B
330
20
100
AcDbEntity
  8
0
100
AcDbLine
 10
674.4413123694707
 20
80.05167345351472
 30
0.0
 11
673.9411620915327
 21
74.33492961744462
 31
0.0
  0
ARC
  5
31C
330
20
100
AcDbEntity
  8
0
100
AcDbCircle
 10
671.2036796006725
 20
80.33492961744451
 30
0.0
 40
3.25
100
AcDbArc
 50
354.9999999999993
 51
37.97987244484878
  0
LINE
  5
31D
330
20
100
AcDbEntity
  8
0
100
AcDbLine
 10
676.7095639126728
 20
57.33492961744457
 30
0.0
 11
676.7095639126729
 21
58.5349296174445
 31
0.0
  0
LINE
  5
31E
330
20
100
AcDbEntity
  8
0
100
AcDbLine
 10
681.7095639126728
 20
57.33492961744449
 30
0.0
 11
681.7095639126729
 21
58.53492961744453
 31
0.0
  0
ARC
  5
31F
330
20
100
AcDbEntity
  8
0
100
AcDbCircle
 10
681.7095639126729
 20
58.53492961744453
 30
0.0
 40
1.199999999999999
100
AcDbArc
 50
269.9999999999994
 51
287.8147966453939
  0
LINE
  5
320
330
20
100
AcDbEntity
  8
0
100
AcDbLine
 10
681.7095639126729
 20
58.53492961744453
 30
0.0
 11
681.7445742895832
 21
58.58492961744426
 31
0.0
  0
LINE
  5
321
330
20
100
AcDbEntity
  8
0
100
AcDbLine
 10
661.2095639126728
 20
58.53492961744473
 30
0.0
 11
655.2095639126727
 21
58.53492961744473
 31
0.0
  0
LINE
  5
322
330
20
100
AcDbEntity
  8
0
100
AcDbLine
 10
655.7095639126729
 20
58.5349296174447
 30
0.0
 11
655.7095639126728
 21
57.33492961744477
 31
0.0
  0
LINE
  5
323
330
20
100
AcDbEntity
  8
0
100
AcDbLine
 10
660.7095639126729
 20
58.53492961744473
 30
0.0
 11
660.7095639126728
 21
57.33492961744468
 31
0.0
  0
LINE
  5
324
330
20
100
AcDbEntity
  8
0
100
AcDbLine
 10
681.7095639126729
 20
58.53492961744453
 30
0.0
 11
676.6095639126728
 21
58.53492961744456
 31
0.0
  0
LINE
  5
325
330
20
100
AcDbEntity
  8
0
100
AcDbLine
 10
681.7095639126728
 20
57.33492961744449
 30
0.0
 11
676.1095639126726
 21
57.33492961744452
 31
0.0
  0
ARC
  5
326
330
20
100
AcDbEntity
  8
0
100
AcDbCircle
 10
642.5006210600638
 20
93.23492961744495
 30
0.0
 40
1.0
100
AcDbArc
 50
158.4898117331088
 51
168.4630409671886
  0
LINE
  5
327
330
20
100
AcDbEntity
  8
0
100
AcDbLine
 10
637.7095639126734
 20
93.53492961744496
 30
0.0
 11
637.7095639126734
 21
93.43492961744493
 31
0.0
  0
ARC
  5
328
330
20
100
AcDbEntity
  8
0
100
AcDbCircle
 10
639.7095639126733
 20
94.3349296174451
 30
0.0
 40
2.0
100
AcDbArc
 50
20.48731511471634
 51
23.57817847819179
  0
LINE
  5
329
330
20
100
AcDbEntity
  8
0
100
AcDbLine
 10
634.3095639126732
 20
93.53492961744501
 30
0.0
 11
634.3095639126732
 21
95.03492961744502
 31
0.0
  0
LINE
  5
32A
330
20
100
AcDbEntity
  8
0
100
AcDbLine
 10
630.3095639126736
 20
93.53492961744507
 30
0.0
 11
643.9095639126735
 21
93.53492961744487
 31
0.0
  0
LINE
  5
32B
330
20
100
AcDbEntity
  8
0
100
AcDbLine
 10
631.7095639126733
 20
95.03492961744505
 30
0.0
 11
643.9095639126736
 21
95.03492961744489
 31
0.0
  0
LINE
  5
32C
330
20
100
AcDbEntity
  8
T
100
AcDbLine
 10
628.0595639126726
 20
62.33492961744474
 30
0.0
 11
635.3595639126727
 21
62.33492961744463
 31
0.0
  0
LINE
  5
32D
330
20
100
AcDbEntity
  8
T
100
AcDbLine
 10
631.7095639126728
 20
65.98492961744478
 30
0.0
 11
631.7095639126726
 21
58.68492961744459
 31
0.0
  0
LINE
  5
32E
330
20
100
AcDbEntity
  8
T
100
AcDbLine
 10
668.5595639126733
 20
113.3349296174444
 30
0.0
 11
675.8595639126736
 21
113.3349296174443
 31
0.0
  0
LINE
  5
32F
330
20
100
AcDbEntity
  8
0
100
AcDbLine
 10
672.2095639126735
 20
116.9849296174444
 30
0.0
 11
672.2095639126734
 21
109.6849296174443
 31
0.0
  0
LINE
  5
330
330
20
100
AcDbEntity
  8
T
100
AcDbLine
 10
595.0595639126735
 20
113.3349296174451
 30
0.0
 11
602.3595639126734
 21
113.334929617445
 31
0.0
  0
LINE
  5
331
330
20
100
AcDbEntity
  8
T
100
AcDbLine
 10
598.7095639126735
 20
116.9849296174451
 30
0.0
 11
598.7095639126733
 21
109.6849296174449
 31
0.0
  0
ARC
  5
332
330
20
100
AcDbEntity
  8
0
100
AcDbCircle
 10
639.7095639126733
 20
94.3349296174451
 30
0.0
 40
2.0
100
AcDbArc
 50
156.4218215218053
 51
159.5126848852818
  0
ARC
  5
333
330
20
100
AcDbEntity
  8
0
100
AcDbCircle
 10
671.2036796006725
 20
80.33492961744451
 30
0.0
 40
3.25
100
AcDbArc
 50
142.0463969259534
 51
174.9999999999999
  0
LINE
  5
334
330
20
100
AcDbEntity
  8
0
100
AcDbLine
 10
615.7095639126735
 20
111.0349296174449
 30
0.0
 11
621.3095639126734
 21
111.0349296174449
 31
0.0
  0
LINE
  5
335
330
20
100
AcDbEntity
  8
0
100
AcDbLine
 10
663.8095639126734
 20
109.8349296174445
 30
0.0
 11
658.6095639126734
 21
109.8349296174446
 31
0.0
  0
LINE
  5
336
330
20
100
AcDbEntity
  8
0
100
AcDbLine
 10
615.7095639126735
 20
109.8349296174449
 30
0.0
 11
615.7095639126735
 21
111.0349296174449
 31
0.0
  0
LINE
  5
337
330
20
100
AcDbEntity
  8
0
100
AcDbLine
 10
658.7095639126734
 20
109.8349296174446
 30
0.0
 11
658.7095639126734
 21
111.0349296174446
 31
0.0
  0
LINE
  5
338
330
20
100
AcDbEntity
  8
0
100
AcDbLine
 10
628.2095639126737
 20
111.0349296174448
 30
0.0
 11
639.2095639126737
 21
111.0349296174448
 31
0.0
  0
LINE
  5
339
330
20
100
AcDbEntity
  8
0
100
AcDbLine
 10
621.3095639126734
 20
109.8349296174449
 30
0.0
 11
615.7095639126735
 21
109.8349296174449
 31
0.0
  0
LINE
  5
33A
330
20
100
AcDbEntity
  8
0
100
AcDbLine
 10
658.6095639126734
 20
111.0349296174446
 30
0.0
 11
663.8095639126734
 21
111.0349296174446
 31
0.0
  0
LINE
  5
33B
330
20
100
AcDbEntity
  8
0
100
AcDbLine
 10
639.2095639126737
 20
109.8349296174447
 30
0.0
 11
628.2095639126737
 21
109.8349296174448
 31
0.0
  0
LINE
  5
33C
330
20
100
AcDbEntity
  8
0
100
AcDbLine
 10
657.2095639126728
 20
54.83492961744463
 30
0.0
 11
657.2095639126728
 21
57.33492961744468
 31
0.0
  0
LINE
  5
33D
330
20
100
AcDbEntity
  8
0
100
AcDbLine
 10
661.7095639126727
 20
57.33492961744463
 30
0.0
 11
654.7095639126727
 21
57.33492961744468
 31
0.0
  0
LINE
  5
33E
330
20
100
AcDbEntity
  8
0
100
AcDbLine
 10
635.3095639126733
 20
93.53492961744498
 30
0.0
 11
635.3095639126733
 21
93.434929617445
 31
0.0
  0
LINE
  5
33F
330
20
100
AcDbEntity
  8
0
100
AcDbLine
 10
599.2095639126733
 20
106.8349296174453
 30
0.0
 11
598.7095639126733
 21
104.5349296174454
 31
0.0
  0
LINE
  5
340
330
20
100
AcDbEntity
  8
0
100
AcDbLine
 10
601.5095639126733
 20
107.3349296174453
 30
0.0
 11
599.2095639126733
 21
106.8349296174453
 31
0.0
  0
LINE
  5
341
330
20
100
AcDbEntity
  8
0
100
AcDbLine
 10
599.2095639126733
 20
107.8349296174453
 30
0.0
 11
601.5095639126733
 21
107.3349296174453
 31
0.0
  0
LINE
  5
342
330
20
100
AcDbEntity
  8
0
100
AcDbLine
 10
598.7095639126733
 20
110.1349296174453
 30
0.0
 11
599.2095639126733
 21
107.8349296174453
 31
0.0
  0
LINE
  5
343
330
20
100
AcDbEntity
  8
0
100
AcDbLine
 10
598.2095639126733
 20
107.8349296174453
 30
0.0
 11
598.7095639126733
 21
110.1349296174453
 31
0.0
  0
LINE
  5
344
330
20
100
AcDbEntity
  8
0
100
AcDbLine
 10
595.9095639126734
 20
107.3349296174453
 30
0.0
 11
598.2095639126733
 21
107.8349296174453
 31
0.0
  0
LINE
  5
345
330
20
100
AcDbEntity
  8
0
100
AcDbLine
 10
598.2095639126733
 20
106.8349296174453
 30
0.0
 11
595.9095639126734
 21
107.3349296174453
 31
0.0
  0
LINE
  5
346
330
20
100
AcDbEntity
  8
0
100
AcDbLine
 10
598.7095639126733
 20
104.5349296174454
 30
0.0
 11
598.2095639126733
 21
106.8349296174453
 31
0.0
  0
CIRCLE
  5
347
330
20
100
AcDbEntity
  8
0
100
AcDbCircle
 10
598.7095639126733
 20
107.3349296174453
 30
0.0
 40
2.799999999999999
  0
CIRCLE
  5
348
330
20
100
AcDbEntity
  8
0
100
AcDbCircle
 10
672.2095639126734
 20
107.3349296174443
 30
0.0
 40
2.799999999999999
  0
LINE
  5
349
330
20
100
AcDbEntity
  8
0
100
AcDbLine
 10
672.2095639126734
 20
104.5349296174444
 30
0.0
 11
671.7095639126734
 21
106.8349296174444
 31
0.0
  0
LINE
  5
34A
330
20
100
AcDbEntity
  8
0
100
AcDbLine
 10
671.7095639126734
 20
106.8349296174444
 30
0.0
 11
669.4095639126734
 21
107.3349296174443
 31
0.0
  0
LINE
  5
34B
330
20
100
AcDbEntity
  8
0
100
AcDbLine
 10
669.4095639126734
 20
107.3349296174443
 30
0.0
 11
671.7095639126734
 21
107.8349296174444
 31
0.0
  0
LINE
  5
34C
330
20
100
AcDbEntity
  8
0
100
AcDbLine
 10
671.7095639126734
 20
107.8349296174444
 30
0.0
 11
672.2095639126734
 21
110.1349296174443
 31
0.0
  0
LINE
  5
34D
330
20
100
AcDbEntity
  8
0
100
AcDbLine
 10
672.2095639126734
 20
110.1349296174443
 30
0.0
 11
672.7095639126734
 21
107.8349296174444
 31
0.0
  0
LINE
  5
34E
330
20
100
AcDbEntity
  8
0
100
AcDbLine
 10
672.7095639126734
 20
107.8349296174444
 30
0.0
 11
675.0095639126733
 21
107.3349296174443
 31
0.0
  0
LINE
  5
34F
330
20
100
AcDbEntity
  8
0
100
AcDbLine
 10
675.0095639126733
 20
107.3349296174443
 30
0.0
 11
672.7095639126734
 21
106.8349296174444
 31
0.0
  0
LINE
  5
350
330
20
100
AcDbEntity
  8
0
100
AcDbLine
 10
672.7095639126734
 20
106.8349296174444
 30
0.0
 11
672.2095639126734
 21
104.5349296174444
 31
0.0
  0
LINE
  5
351
330
20
100
AcDbEntity
  8
T
100
AcDbLine
 10
672.2095639126735
 20
116.9849296174441
 30
0.0
 11
672.2095639126734
 21
109.6849296174439
 31
0.0
  0
CIRCLE
  5
352
330
20
100
AcDbEntity
  8
0
100
AcDbCircle
 10
667.7095639126727
 20
62.33492961744468
 30
0.0
 40
2.799999999999999
  0
LINE
  5
353
330
20
100
AcDbEntity
  8
0
100
AcDbLine
 10
667.7095639126727
 20
59.53492961744473
 30
0.0
 11
667.2095639126728
 21
61.83492961744469
 31
0.0
  0
LINE
  5
354
330
20
100
AcDbEntity
  8
0
100
AcDbLine
 10
667.2095639126728
 20
61.83492961744469
 30
0.0
 11
664.9095639126728
 21
62.33492961744468
 31
0.0
  0
LINE
  5
355
330
20
100
AcDbEntity
  8
0
100
AcDbLine
 10
664.9095639126728
 20
62.33492961744468
 30
0.0
 11
667.2095639126728
 21
62.83492961744468
 31
0.0
  0
LINE
  5
356
330
20
100
AcDbEntity
  8
0
100
AcDbLine
 10
667.2095639126728
 20
62.83492961744468
 30
0.0
 11
667.7095639126727
 21
65.1349296174447
 31
0.0
  0
LINE
  5
357
330
20
100
AcDbEntity
  8
0
100
AcDbLine
 10
667.7095639126727
 20
65.1349296174447
 30
0.0
 11
668.2095639126728
 21
62.83492961744468
 31
0.0
  0
LINE
  5
358
330
20
100
AcDbEntity
  8
0
100
AcDbLine
 10
668.2095639126728
 20
62.83492961744468
 30
0.0
 11
670.5095639126727
 21
62.33492961744468
 31
0.0
  0
LINE
  5
359
330
20
100
AcDbEntity
  8
0
100
AcDbLine
 10
670.5095639126727
 20
62.33492961744468
 30
0.0
 11
668.2095639126728
 21
61.83492961744469
 31
0.0
  0
LINE
  5
35A
330
20
100
AcDbEntity
  8
0
100
AcDbLine
 10
668.2095639126728
 20
61.83492961744469
 30
0.0
 11
667.7095639126727
 21
59.53492961744473
 31
0.0
  0
LINE
  5
35B
330
20
100
AcDbEntity
  8
0
100
AcDbLine
 10
594.0095639126733
 20
91.83492961744514
 30
0.0
 11
594.0095639126733
 21
96.83492961744512
 31
0.0
  0
INSERT
  5
385
330
20
100
AcDbEntity
  8
0
100
AcDbBlockReference
  2
SUG-AR01
 10
682.6435839759233
 20
146.0
 30
0.0
 41
0.5
 42
0.5
 43
0.5
 50
307.8749836510982
  0
ARC
  5
387
330
20
100
AcDbEntity
  8
0
100
AcDbCircle
 10
683.709563912673
 20
84.33492961744423
 30
0.0
 40
2.0
100
AcDbArc
 50
269.9999999999993
 51
359.9999999999991
  0
LINE
  5
38E
330
20
100
AcDbEntity
  8
0
100
AcDbLine
 10
679.4095639126736
 20
156.8123789667302
 30
0.0
 11
679.4095639126736
 21
151.2123789667302
 31
0.0
  0
LINE
  5
38F
330
20
100
AcDbEntity
  8
0
100
AcDbLine
 10
682.2379910374198
 20
156.8123789667302
 30
0.0
 11
682.2379910374198
 21
151.2123789667302
 31
0.0
  0
LINE
  5
390
330
20
100
AcDbEntity
  8
0
100
AcDbLine
 10
682.2379910374198
 20
146.4123789667302
 30
0.0
 11
682.2379910374198
 21
140.8123789667302
 31
0.0
  0
LINE
  5
391
330
20
100
AcDbEntity
  8
0
100
AcDbLine
 10
679.4095639126736
 20
146.4123789667302
 30
0.0
 11
679.4095639126736
 21
140.8123789667302
 31
0.0
  0
LINE
  5
39A
330
20
100
AcDbEntity
  8
0
100
AcDbLine
 10
679.2095639126735
 20
151.2123789667302
 30
0.0
 11
683.3095639126733
 21
151.2123789667302
 31
0.0
  0
LINE
  5
39B
330
20
100
AcDbEntity
  8
0
100
AcDbLine
 10
683.3095639126733
 20
146.4123789667302
 30
0.0
 11
679.2095639126735
 21
146.4123789667302
 31
0.0
  0
LINE
  5
39C
330
20
100
AcDbEntity
  8
0
100
AcDbLine
 10
679.2095639126735
 20
153.0623789667302
 30
0.0
 11
679.2095639126735
 21
144.5623789667302
 31
0.0
  0
ARC
  5
39D
330
20
100
AcDbEntity
  8
0
100
AcDbCircle
 10
683.3095639126733
 20
148.8123789667302
 30
0.0
 40
2.400000000000009
100
AcDbArc
 50
269.9999999999986
 51
90.0
  0
LINE
  5
3A1
330
20
100
AcDbEntity
  8
0
100
AcDbLine
 10
666.709563912673
 20
80.33492961744446
 30
0.0
 11
666.709563912673
 21
76.33492961744472
 31
0.0
  0
ARC
  5
3A2
330
20
100
AcDbEntity
  8
0
100
AcDbCircle
 10
668.709563912673
 20
76.33492961744469
 30
0.0
 40
2.0
100
AcDbArc
 50
179.9999999999992
 51
269.9999999999993
  0
ARC
  5
3A3
330
20
100
AcDbEntity
  8
0
100
AcDbCircle
 10
668.709563912673
 20
80.33492961744446
 30
0.0
 40
2.0
100
AcDbArc
 50
89.9999999999992
 51
179.9999999999992
  0
ARC
  5
3A4
330
20
100
AcDbEntity
  8
0
100
AcDbCircle
 10
779.9138949509559
 20
85.08600134723023
 30
0.0
 40
2.399999999999987
100
AcDbArc
 50
270.0
 51
90.0
  0
LINE
  5
3A5
330
20
100
AcDbEntity
  8
0
100
AcDbLine
 10
775.3138949509559
 20
89.33600134723016
 30
0.0
 11
775.3138949509559
 21
80.83600134723017
 31
0.0
  0
LINE
  5
3A6
330
20
100
AcDbEntity
  8
0
100
AcDbLine
 10
779.9138949509559
 20
82.68600134723021
 30
0.0
 11
775.3138949509559
 21
82.68600134723021
 31
0.0
  0
LINE
  5
3A7
330
20
100
AcDbEntity
  8
0
100
AcDbLine
 10
775.3138949509559
 20
87.48600134723023
 30
0.0
 11
779.9138949509559
 21
87.48600134723023
 31
0.0
  0
CIRCLE
  5
3A8
330
20
100
AcDbEntity
  8
0
100
AcDbCircle
 10
722.8821761682235
 20
148.8123789667302
 30
0.0
 40
4.25
  0
LINE
  5
4E8
330
20
100
AcDbEntity
  8
W
100
AcDbLine
 10
935.7743879135055
 20
274.7555541199707
 30
0.0
 11
948.9618815639376
 21
274.7555541199707
 31
0.0
  0
LINE
  5
4E9
330
20
100
AcDbEntity
  8
W
100
AcDbLine
 10
551.3743879135055
 20
4.355554119970689
 30
0.0
 11
551.3743879135055
 21
-9.517804600314367
 31
0.0
  0
LINE
  5
4EA
330
20
100
AcDbEntity
  8
W
100
AcDbLine
 10
551.3743879135055
 20
4.355554119970689
 30
0.0
 11
535.2116292439859
 21
4.355554119970689
 31
0.0
  0
TEXT
  5
555
330
20
100
AcDbEntity
  8
0
100
AcDbText
 10
837.5743879135052
 20
7.055554119970735
 30
0.0
 40
4.0
  1
MF36N-7*
  7
SIMPLEX
100
AcDbText
  0
TEXT
  5
556
330
20
100
AcDbEntity
  8
0
100
AcDbText
 10
837.5743879135052
 20
16.05555411997073
 30
0.0
 40
4.0
  1
dCù
  7
SIMPLEX
100
AcDbText
  0
LINE
  5
758
330
20
100
AcDbEntity
  8
0
100
AcDbLine
 10
770.8821761682234
 20
155.6123789667301
 30
0.0
 11
774.3821761682234
 21
155.6123789667301
 31
0.0
  0
LINE
  5
759
330
20
100
AcDbEntity
  8
0
100
AcDbLine
 10
770.8821761682234
 20
142.0123789667301
 30
0.0
 11
774.3821761682234
 21
142.0123789667302
 31
0.0
  0
LINE
  5
75A
330
20
100
AcDbEntity
  8
0
100
AcDbLine
 10
770.3821761682234
 20
142.5123789667301
 30
0.0
 11
770.3821761682234
 21
155.1123789667301
 31
0.0
  0
ARC
  5
75B
330
20
100
AcDbEntity
  8
0
100
AcDbCircle
 10
716.8821761682234
 20
156.3123789667303
 30
0.0
 40
0.5
100
AcDbArc
 50
90.0
 51
180.0
  0
ARC
  5
75C
330
20
100
AcDbEntity
  8
0
100
AcDbCircle
 10
716.8821761682234
 20
141.3123789667301
 30
0.0
 40
0.5
100
AcDbArc
 50
180.0
 51
270.0000000000004
  0
LINE
  5
75D
330
20
100
AcDbEntity
  8
0
100
AcDbLine
 10
716.3821761682234
 20
141.3123789667301
 30
0.0
 11
716.3821761682234
 21
156.3123789667303
 31
0.0
  0
LINE
  5
75E
330
20
100
AcDbEntity
  8
0
100
AcDbLine
 10
722.8821761682235
 20
143.0502803785264
 30
0.0
 11
722.8821761682235
 21
155.0196454085665
 31
0.0
  0
ARC
  5
75F
330
20
100
AcDbEntity
  8
0
100
AcDbCircle
 10
773.1821761682233
 20
155.6123789667302
 30
0.0
 40
1.199999999999999
100
AcDbArc
 50
0.0000000000000799
 51
90.0
  0
ARC
  5
760
330
20
100
AcDbEntity
  8
0
100
AcDbCircle
 10
773.1821761682233
 20
142.0123789667302
 30
0.0
 40
1.199999999999999
100
AcDbArc
 50
270.0
 51
0.0000000000000799
  0
LINE
  5
761
330
20
100
AcDbEntity
  8
0
100
AcDbLine
 10
774.3821761682234
 20
142.0123789667302
 30
0.0
 11
774.3821761682234
 21
155.6123789667302
 31
0.0
  0
LINE
  5
762
330
20
100
AcDbEntity
  8
0
100
AcDbLine
 10
714.3821761682233
 20
140.8123789667302
 30
0.0
 11
714.3821761682233
 21
139.2123789667302
 31
0.0
  0
LINE
  5
763
330
20
100
AcDbEntity
  8
0
100
AcDbLine
 10
714.3821761682233
 20
158.4123789667302
 30
0.0
 11
714.3821761682233
 21
156.8123789667302
 31
0.0
  0
LINE
  5
764
330
20
100
AcDbEntity
  8
0
100
AcDbLine
 10
714.3821761682233
 20
158.4123789667302
 30
0.0
 11
774.3821761682234
 21
158.4123789667301
 31
0.0
  0
LINE
  5
765
330
20
100
AcDbEntity
  8
0
100
AcDbLine
 10
714.3821761682233
 20
156.8123789667302
 30
0.0
 11
774.3821761682234
 21
156.8123789667301
 31
0.0
  0
LINE
  5
766
330
20
100
AcDbEntity
  8
0
100
AcDbLine
 10
714.3821761682233
 20
139.2123789667302
 30
0.0
 11
774.3821761682234
 21
139.2123789667302
 31
0.0
  0
LINE
  5
767
330
20
100
AcDbEntity
  8
0
100
AcDbLine
 10
714.3821761682233
 20
140.8123789667302
 30
0.0
 11
774.3821761682234
 21
140.8123789667301
 31
0.0
  0
CIRCLE
  5
768
330
20
100
AcDbEntity
  8
0
100
AcDbCircle
 10
722.8821761682235
 20
148.8123789667302
 30
0.0
 40
2.5
  0
LINE
  5
769
330
20
100
AcDbEntity
  8
0
100
AcDbLine
 10
775.3138949509559
 20
80.83600134723017
 30
0.0
 11
773.6138949509559
 21
80.83600134723017
 31
0.0
  0
LINE
  5
76A
330
20
100
AcDbEntity
  8
0
100
AcDbLine
 10
773.6138949509559
 20
89.33600134723016
 30
0.0
 11
775.3138949509559
 21
89.33600134723016
 31
0.0
  0
LINE
  5
76B
330
20
100
AcDbEntity
  8
0
100
AcDbLine
 10
716.8138949509559
 20
92.9860013472302
 30
0.0
 11
754.8138949509559
 21
92.98600134723015
 31
0.0
  0
LINE
  5
76C
330
20
100
AcDbEntity
  8
0
100
AcDbLine
 10
735.3473726366549
 20
78.58600134723016
 30
0.0
 11
723.0882315813784
 21
78.58600134723016
 31
0.0
  0
LINE
  5
76D
330
20
100
AcDbEntity
  8
0
100
AcDbLine
 10
749.8138949509559
 20
84.07644162259206
 30
0.0
 11
749.8138949509559
 21
86.37567797611067
 31
0.0
  0
LINE
  5
76E
330
20
100
AcDbEntity
  8
0
100
AcDbLine
 10
752.3138949509559
 20
83.93495015468321
 30
0.0
 11
752.3138949509559
 21
86.269559375179
 31
0.0
  0
CIRCLE
  5
76F
330
20
100
AcDbEntity
  8
0
100
AcDbCircle
 10
749.8138949509559
 20
85.08600134723023
 30
0.0
 40
0.5
  0
CIRCLE
  5
770
330
20
100
AcDbEntity
  8
0
100
AcDbCircle
 10
752.3138949509559
 20
85.08600134723023
 30
0.0
 40
0.5
  0
CIRCLE
  5
771
330
20
100
AcDbEntity
  8
0
100
AcDbCircle
 10
754.8138949509559
 20
85.08600134723023
 30
0.0
 40
0.5
  0
CIRCLE
  5
772
330
20
100
AcDbEntity
  8
0
100
AcDbCircle
 10
727.3138949509559
 20
78.58600134723016
 30
0.0
 40
0.5
  0
CIRCLE
  5
773
330
20
100
AcDbEntity
  8
0
100
AcDbCircle
 10
729.8138949509559
 20
78.58600134723016
 30
0.0
 40
0.5
  0
CIRCLE
  5
774
330
20
100
AcDbEntity
  8
0
100
AcDbCircle
 10
732.313894950956
 20
78.58600134723016
 30
0.0
 40
0.5
  0
LINE
  5
775
330
20
100
AcDbEntity
  8
0
100
AcDbLine
 10
727.3138949509559
 20
79.73705253977718
 30
0.0
 11
727.3138949509559
 21
77.40244331928138
 31
0.0
  0
LINE
  5
776
330
20
100
AcDbEntity
  8
0
100
AcDbLine
 10
729.8138949509559
 20
79.73705253977718
 30
0.0
 11
729.8138949509559
 21
77.40244331928138
 31
0.0
  0
LINE
  5
777
330
20
100
AcDbEntity
  8
0
100
AcDbLine
 10
732.313894950956
 20
79.59556107186833
 30
0.0
 11
732.313894950956
 21
77.29632471834972
 31
0.0
  0
LINE
  5
778
330
20
100
AcDbEntity
  8
0
100
AcDbLine
 10
759.8138949509559
 20
75.58600134723019
 30
0.0
 11
759.8138949509559
 21
79.08600134723022
 31
0.0
  0
LINE
  5
779
330
20
100
AcDbEntity
  8
0
100
AcDbLine
 10
737.3138949509558
 20
83.1860013472302
 30
0.0
 11
737.3138949509559
 21
86.98600134723019
 31
0.0
  0
LINE
  5
77A
330
20
100
AcDbEntity
  8
0
100
AcDbLine
 10
734.8138949509559
 20
82.66029986179658
 30
0.0
 11
734.8138949509559
 21
87.52613410681178
 31
0.0
  0
LINE
  5
77B
330
20
100
AcDbEntity
  8
0
100
AcDbLine
 10
732.313894950956
 20
82.3523356690741
 30
0.0
 11
732.313894950956
 21
87.83409829953425
 31
0.0
  0
LINE
  5
77C
330
20
100
AcDbEntity
  8
0
100
AcDbLine
 10
729.8138949509559
 20
82.29074283052964
 30
0.0
 11
729.8138949509559
 21
87.89569113807871
 31
0.0
  0
LINE
  5
77D
330
20
100
AcDbEntity
  8
0
100
AcDbLine
 10
727.3138949509559
 20
82.53711418470762
 30
0.0
 11
727.3138949509559
 21
87.89569113807871
 31
0.0
  0
LINE
  5
77E
330
20
100
AcDbEntity
  8
0
100
AcDbLine
 10
724.8138949509559
 20
82.3523356690741
 30
0.0
 11
724.8138949509559
 21
87.83409829953425
 31
0.0
  0
LINE
  5
77F
330
20
100
AcDbEntity
  8
0
100
AcDbLine
 10
722.3138949509559
 20
82.41392850761863
 30
0.0
 11
722.3138949509559
 21
87.89569113807871
 31
0.0
  0
LINE
  5
780
330
20
100
AcDbEntity
  8
0
100
AcDbLine
 10
716.0138949509558
 20
80.35950988597457
 30
0.0
 11
716.0138949509558
 21
89.93741872712773
 31
0.0
  0
LINE
  5
781
330
20
100
AcDbEntity
  8
0
100
AcDbLine
 10
714.9149481852316
 20
83.78600134722999
 30
0.0
 11
716.6458903288867
 21
83.78600134722999
 31
0.0
  0
LINE
  5
782
330
20
100
AcDbEntity
  8
0
100
AcDbLine
 10
714.8385830906586
 20
86.28600134722999
 30
0.0
 11
716.9513507071788
 21
86.28600134722999
 31
0.0
  0
LINE
  5
783
330
20
100
AcDbEntity
  8
0
100
AcDbLine
 10
716.8138949509559
 20
77.08600134723022
 30
0.0
 11
716.8138949509559
 21
77.18600134723018
 31
0.0
  0
LINE
  5
784
330
20
100
AcDbEntity
  8
0
100
AcDbLine
 10
716.8138949509559
 20
92.9860013472302
 30
0.0
 11
716.8138949509559
 21
93.08600134723022
 31
0.0
  0
LINE
  5
785
330
20
100
AcDbEntity
  8
0
100
AcDbLine
 10
724.3138949509559
 20
77.18600134723013
 30
0.0
 11
724.3138949509559
 21
77.08600134723017
 31
0.0
  0
LINE
  5
786
330
20
100
AcDbEntity
  8
0
100
AcDbLine
 10
735.3138949509559
 20
77.18600134723013
 30
0.0
 11
735.3138949509559
 21
77.08600134723017
 31
0.0
  0
LINE
  5
787
330
20
100
AcDbEntity
  8
0
100
AcDbLine
 10
743.9138949509558
 20
86.18600134723013
 30
0.0
 11
743.9138949509558
 21
83.98600134723015
 31
0.0
  0
LINE
  5
788
330
20
100
AcDbEntity
  8
0
100
AcDbLine
 10
743.9138949509558
 20
83.98600134723015
 30
0.0
 11
747.9138949509558
 21
83.98600134723015
 31
0.0
  0
LINE
  5
789
330
20
100
AcDbEntity
  8
0
100
AcDbLine
 10
747.9138949509558
 20
83.98600134723015
 30
0.0
 11
747.9138949509558
 21
86.18600134723013
 31
0.0
  0
LINE
  5
78A
330
20
100
AcDbEntity
  8
0
100
AcDbLine
 10
747.9138949509558
 20
86.18600134723013
 30
0.0
 11
743.9138949509558
 21
86.18600134723013
 31
0.0
  0
LINE
  5
78B
330
20
100
AcDbEntity
  8
0
100
AcDbLine
 10
764.7138949509558
 20
75.7547863971121
 30
0.0
 11
764.7138949509559
 21
94.60390933849661
 31
0.0
  0
LINE
  5
78C
330
20
100
AcDbEntity
  8
0
100
AcDbLine
 10
766.7138949509559
 20
91.08600134723022
 30
0.0
 11
764.7138949509559
 21
91.08600134723022
 31
0.0
  0
LINE
  5
78D
330
20
100
AcDbEntity
  8
0
100
AcDbLine
 10
759.8138949509559
 20
79.08600134723022
 30
0.0
 11
761.7138949509559
 21
79.08600134723022
 31
0.0
  0
LINE
  5
78E
330
20
100
AcDbEntity
  8
0
100
AcDbLine
 10
755.4675740169904
 20
85.08600134723023
 30
0.0
 11
785.0891116472262
 21
85.08600134723023
 31
0.0
  0
LINE
  5
78F
330
20
100
AcDbEntity
  8
0
100
AcDbLine
 10
759.8138949509559
 20
91.08600134723017
 30
0.0
 11
759.8138949509559
 21
94.48600134723012
 31
0.0
  0
LINE
  5
790
330
20
100
AcDbEntity
  8
0
100
AcDbLine
 10
764.7138949509559
 20
79.08600134723022
 30
0.0
 11
766.7138949509559
 21
79.08600134723022
 31
0.0
  0
LINE
  5
791
330
20
100
AcDbEntity
  8
0
100
AcDbLine
 10
761.7138949509559
 20
91.08600134723019
 30
0.0
 11
759.8138949509559
 21
91.08600134723022
 31
0.0
  0
LINE
  5
792
330
20
100
AcDbEntity
  8
0
100
AcDbLine
 10
744.313894950956
 20
84.38600134723012
 30
0.0
 11
747.513894950956
 21
84.38600134723012
 31
0.0
  0
LINE
  5
793
330
20
100
AcDbEntity
  8
0
100
AcDbLine
 10
747.513894950956
 20
85.78600134723016
 30
0.0
 11
744.313894950956
 21
85.78600134723016
 31
0.0
  0
LINE
  5
794
330
20
100
AcDbEntity
  8
0
100
AcDbLine
 10
747.513894950956
 20
84.38600134723012
 30
0.0
 11
747.513894950956
 21
85.78600134723016
 31
0.0
  0
LINE
  5
795
330
20
100
AcDbEntity
  8
0
100
AcDbLine
 10
744.313894950956
 20
85.78600134723016
 30
0.0
 11
744.313894950956
 21
84.38600134723012
 31
0.0
  0
LINE
  5
796
330
20
100
AcDbEntity
  8
0
100
AcDbLine
 10
719.813894950956
 20
83.18600134723018
 30
0.0
 11
737.3138949509558
 21
83.1860013472302
 31
0.0
  0
LINE
  5
797
330
20
100
AcDbEntity
  8
0
100
AcDbLine
 10
737.3138949509559
 20
86.98600134723019
 30
0.0
 11
719.813894950956
 21
86.98600134723021
 31
0.0
  0
LINE
  5
798
330
20
100
AcDbEntity
  8
0
100
AcDbLine
 10
719.813894950956
 20
86.98600134723021
 30
0.0
 11
719.813894950956
 21
83.18600134723018
 31
0.0
  0
LINE
  5
799
330
20
100
AcDbEntity
  8
0
100
AcDbLine
 10
718.2138949509559
 20
81.38600134723018
 30
0.0
 11
718.2138949509559
 21
88.78600134723015
 31
0.0
  0
TEXT
  5
79A
330
20
100
AcDbEntity
  8
0
100
AcDbText
 10
723.2195004572002
 20
89.10381124274133
 30
0.0
 40
2.0
  1
1
 50
90.0
  7
SIMPLEX
100
AcDbText
  0
TEXT
  5
79B
330
20
100
AcDbEntity
  8
0
100
AcDbText
 10
736.3658081618293
 20
88.80326069926258
 30
0.0
 40
2.0
  1
6
 50
90.0
  7
SIMPLEX
100
AcDbText
  0
LINE
  5
79C
330
20
100
AcDbEntity
  8
0
100
AcDbLine
 10
716.8138949509559
 20
94.48600134723021
 30
0.0
 11
716.8138949509559
 21
92.98600134723017
 31
0.0
  0
LINE
  5
79D
330
20
100
AcDbEntity
  8
0
100
AcDbLine
 10
754.8138949509559
 20
94.48600134723012
 30
0.0
 11
754.8138949509559
 21
92.98600134723015
 31
0.0
  0
LINE
  5
79E
330
20
100
AcDbEntity
  8
0
100
AcDbLine
 10
716.8138949509559
 20
77.08600134723019
 30
0.0
 11
754.8138949509559
 21
77.08600134723019
 31
0.0
  0
LINE
  5
79F
330
20
100
AcDbEntity
  8
0
100
AcDbLine
 10
761.7138949509559
 20
79.08600134723022
 30
0.0
 11
761.7138949509559
 21
80.08600134723023
 31
0.0
  0
LINE
  5
7A0
330
20
100
AcDbEntity
  8
0
100
AcDbLine
 10
764.7138949509559
 20
91.08600134723022
 30
0.0
 11
764.7138949509559
 21
90.08600134723023
 31
0.0
  0
LINE
  5
7A1
330
20
100
AcDbEntity
  8
0
100
AcDbLine
 10
761.7138949509559
 20
80.08600134723023
 30
0.0
 11
764.7138949509559
 21
80.08600134723023
 31
0.0
  0
LINE
  5
7A2
330
20
100
AcDbEntity
  8
0
100
AcDbLine
 10
764.7138949509559
 20
90.08600134723023
 30
0.0
 11
761.7138949509559
 21
90.08600134723023
 31
0.0
  0
LINE
  5
7A3
330
20
100
AcDbEntity
  8
0
100
AcDbLine
 10
711.8138949509559
 20
75.58600134723019
 30
0.0
 11
716.8138949509559
 21
75.58600134723019
 31
0.0
  0
LINE
  5
7A4
330
20
100
AcDbEntity
  8
0
100
AcDbLine
 10
711.8138949509559
 20
94.48600134723021
 30
0.0
 11
716.8138949509559
 21
94.48600134723021
 31
0.0
  0
LINE
  5
7A5
330
20
100
AcDbEntity
  8
0
100
AcDbLine
 10
754.8138949509559
 20
94.48600134723012
 30
0.0
 11
759.8138949509559
 21
94.48600134723012
 31
0.0
  0
LINE
  5
7A6
330
20
100
AcDbEntity
  8
0
100
AcDbLine
 10
754.8138949509559
 20
75.58600134723019
 30
0.0
 11
759.8138949509559
 21
75.58600134723019
 31
0.0
  0
LINE
  5
7A7
330
20
100
AcDbEntity
  8
0
100
AcDbLine
 10
761.7138949509559
 20
90.08600134723023
 30
0.0
 11
761.7138949509559
 21
91.08600134723019
 31
0.0
  0
LINE
  5
7A8
330
20
100
AcDbEntity
  8
0
100
AcDbLine
 10
764.7138949509559
 20
80.08600134723023
 30
0.0
 11
764.7138949509559
 21
79.08600134723022
 31
0.0
  0
LINE
  5
7A9
330
20
100
AcDbEntity
  8
0
100
AcDbLine
 10
754.8138949509559
 20
77.08600134723022
 30
0.0
 11
754.8138949509559
 21
75.58600134723022
 31
0.0
  0
LINE
  5
7AA
330
20
100
AcDbEntity
  8
0
100
AcDbLine
 10
716.0138949509558
 20
80.35950988597463
 30
0.0
 11
716.0138949509558
 21
89.93741872712778
 31
0.0
  0
LINE
  5
7AB
330
20
100
AcDbEntity
  8
0
100
AcDbLine
 10
714.9149481852316
 20
83.78600134723004
 30
0.0
 11
716.6458903288867
 21
83.78600134723004
 31
0.0
  0
LINE
  5
7AC
330
20
100
AcDbEntity
  8
0
100
AcDbLine
 10
714.8385830906586
 20
86.28600134723004
 30
0.0
 11
716.9513507071788
 21
86.28600134723004
 31
0.0
  0
LINE
  5
7AD
330
20
100
AcDbEntity
  8
0
100
AcDbLine
 10
711.8138949509559
 20
75.58600134723019
 30
0.0
 11
711.8138949509559
 21
81.38600134723024
 31
0.0
  0
LINE
  5
7AE
330
20
100
AcDbEntity
  8
0
100
AcDbLine
 10
716.8138949509559
 20
77.08600134723027
 30
0.0
 11
716.8138949509559
 21
77.18600134723025
 31
0.0
  0
LINE
  5
7AF
330
20
100
AcDbEntity
  8
0
100
AcDbLine
 10
716.8138949509559
 20
92.98600134723026
 30
0.0
 11
716.8138949509559
 21
93.08600134723027
 31
0.0
  0
LINE
  5
7B0
330
20
100
AcDbEntity
  8
0
100
AcDbLine
 10
711.8138949509559
 20
88.7860013472302
 30
0.0
 11
711.8138949509559
 21
94.48600134723021
 31
0.0
  0
LINE
  5
7B1
330
20
100
AcDbEntity
  8
0
100
AcDbLine
 10
719.813894950956
 20
86.98600134723026
 30
0.0
 11
719.813894950956
 21
83.18600134723025
 31
0.0
  0
LINE
  5
7B2
330
20
100
AcDbEntity
  8
0
100
AcDbLine
 10
710.0138949509559
 20
81.38600134723024
 30
0.0
 11
718.2138949509559
 21
81.38600134723024
 31
0.0
  0
LINE
  5
7B3
330
20
100
AcDbEntity
  8
0
100
AcDbLine
 10
718.2138949509559
 20
81.38600134723024
 30
0.0
 11
718.2138949509559
 21
88.7860013472302
 31
0.0
  0
LINE
  5
7B4
330
20
100
AcDbEntity
  8
0
100
AcDbLine
 10
718.2138949509559
 20
88.7860013472302
 30
0.0
 11
710.0138949509559
 21
88.7860013472302
 31
0.0
  0
LINE
  5
7B5
330
20
100
AcDbEntity
  8
0
100
AcDbLine
 10
710.0138949509559
 20
88.7860013472302
 30
0.0
 11
710.0138949509559
 21
81.38600134723024
 31
0.0
  0
LINE
  5
7B6
330
20
100
AcDbEntity
  8
0
100
AcDbLine
 10
716.8138949509559
 20
77.08600134723019
 30
0.0
 11
716.8138949509559
 21
75.58600134723019
 31
0.0
  0
LINE
  5
7B7
330
20
100
AcDbEntity
  8
0
100
AcDbLine
 10
761.7138949509559
 20
79.08600134723022
 30
0.0
 11
773.6138949509559
 21
79.08600134723022
 31
0.0
  0
LINE
  5
7B8
330
20
100
AcDbEntity
  8
0
100
AcDbLine
 10
773.6138949509559
 20
79.08600134723022
 30
0.0
 11
773.6138949509559
 21
91.08600134723022
 31
0.0
  0
LINE
  5
7B9
330
20
100
AcDbEntity
  8
0
100
AcDbLine
 10
773.6138949509559
 20
91.08600134723022
 30
0.0
 11
761.7138949509559
 21
91.08600134723022
 31
0.0
  0
LINE
  5
7BA
330
20
100
AcDbEntity
  8
0
100
AcDbLine
 10
771.1138949509559
 20
91.08600134723022
 30
0.0
 11
771.1138949509559
 21
79.08600134723022
 31
0.0
  0
LINE
  5
7BB
330
20
100
AcDbEntity
  8
0
100
AcDbLine
 10
766.7138949509559
 20
87.98600134723022
 30
0.0
 11
767.7138949509559
 21
87.98600134723022
 31
0.0
  0
LINE
  5
7BC
330
20
100
AcDbEntity
  8
0
100
AcDbLine
 10
767.7138949509559
 20
87.98600134723022
 30
0.0
 11
767.7138949509559
 21
82.18600134723022
 31
0.0
  0
LINE
  5
7BD
330
20
100
AcDbEntity
  8
0
100
AcDbLine
 10
767.7138949509559
 20
82.18600134723022
 30
0.0
 11
766.7138949509559
 21
82.18600134723022
 31
0.0
  0
LINE
  5
7BE
330
20
100
AcDbEntity
  8
0
100
AcDbLine
 10
766.7138949509559
 20
79.08600134723022
 30
0.0
 11
766.7138949509559
 21
91.08600134723022
 31
0.0
  0
LINE
  5
7BF
330
20
100
AcDbEntity
  8
0
100
AcDbLine
 10
768.0875229658242
 20
81.83600134723025
 30
0.0
 11
768.0875229658242
 21
88.33600134723022
 31
0.0
  0
LINE
  5
7C0
330
20
100
AcDbEntity
  8
0
100
AcDbLine
 10
774.8138949509559
 20
89.33600134723016
 30
0.0
 11
774.8138949509559
 21
80.83600134723017
 31
0.0
  0
LINE
  5
7C1
330
20
100
AcDbEntity
  8
0
100
AcDbLine
 10
768.0875229658242
 20
88.33600134723022
 30
0.0
 11
771.1138949509559
 21
88.60077458754167
 31
0.0
  0
LINE
  5
7C2
330
20
100
AcDbEntity
  8
0
100
AcDbLine
 10
768.0875229658242
 20
81.83600134723025
 30
0.0
 11
771.1138949509559
 21
81.57122810691877
 31
0.0
  0
LINE
  5
7C3
330
20
100
AcDbEntity
  8
0
100
AcDbLine
 10
767.7138949509559
 20
87.58600134723023
 30
0.0
 11
768.0875229658242
 21
87.58600134723023
 31
0.0
  0
LINE
  5
7C4
330
20
100
AcDbEntity
  8
0
100
AcDbLine
 10
767.7138949509559
 20
82.58600134723023
 30
0.0
 11
768.0875229658242
 21
82.58600134723025
 31
0.0
  0
CIRCLE
  5
7C5
330
20
100
AcDbEntity
  8
0
100
AcDbCircle
 10
757.4364619417203
 20
83.58600134723022
 30
0.0
 40
1.0
  0
CIRCLE
  5
7C6
330
20
100
AcDbEntity
  8
0
100
AcDbCircle
 10
757.4364619417203
 20
86.58600134723021
 30
0.0
 40
1.0
  0
TEXT
  5
7C7
330
20
100
AcDbEntity
  8
0
100
AcDbText
 10
725.7635327646178
 20
112.3425130421518
 30
0.0
 40
5.0
  1
¼ct¯
  7
SIMPLEX
100
AcDbText
  0
LINE
  5
7E6
330
20
100
AcDbEntity
  8
0
100
AcDbLine
 10
774.3821761682234
 20
140.8123789667301
 30
0.0
 11
774.3821761682234
 21
139.2123789667302
 31
0.0
  0
LINE
  5
7E7
330
20
100
AcDbEntity
  8
0
100
AcDbLine
 10
774.3821761682234
 20
158.4123789667301
 30
0.0
 11
774.3821761682234
 21
156.8123789667301
 31
0.0
  0
LINE
  5
7E8
330
20
100
AcDbEntity
  8
0
100
AcDbLine
 10
710.712706702375
 20
148.8123789667302
 30
0.0
 11
777.1379982659237
 21
148.8123789667301
 31
0.0
  0
ARC
  5
7E9
330
20
100
AcDbEntity
  8
0
100
AcDbCircle
 10
770.8821761682234
 20
155.1123789667301
 30
0.0
 40
0.5
100
AcDbArc
 50
90.0
 51
180.0
  0
ARC
  5
7EA
330
20
100
AcDbEntity
  8
0
100
AcDbCircle
 10
770.8821761682234
 20
142.5123789667301
 30
0.0
 40
0.5
100
AcDbArc
 50
180.0
 51
270.0000000000007
  0
CIRCLE
  5
7EB
330
20
100
AcDbEntity
  8
0
100
AcDbCircle
 10
663.7095639126734
 20
89.33492961744475
 30
0.0
 40
2.0
  0
LINE
  5
7EC
330
20
100
AcDbEntity
  8
0
100
AcDbLine
 10
733.3541761682234
 20
147.2123789667302
 30
0.0
 11
759.4821761682234
 21
147.2123789667302
 31
0.0
  0
LINE
  5
7ED
330
20
100
AcDbEntity
  8
0
100
AcDbLine
 10
733.3541761682234
 20
150.4123789667302
 30
0.0
 11
749.3821761682234
 21
150.4123789667302
 31
0.0
  0
LINE
  5
7EE
330
20
100
AcDbEntity
  8
0
100
AcDbLine
 10
733.3541761682234
 20
155.2123789667302
 30
0.0
 11
759.4821761682234
 21
155.2123789667301
 31
0.0
  0
LINE
  5
7EF
330
20
100
AcDbEntity
  8
0
100
AcDbLine
 10
733.3541761682234
 20
142.4123789667302
 30
0.0
 11
749.3821761682234
 21
142.4123789667302
 31
0.0
  0
LINE
  5
7F0
330
20
100
AcDbEntity
  8
0
100
AcDbLine
 10
759.4821761682234
 20
156.8123789667301
 30
0.0
 11
759.4821761682234
 21
148.8123789667301
 31
0.0
  0
LINE
  5
7F1
330
20
100
AcDbEntity
  8
0
100
AcDbLine
 10
759.4821761682232
 20
148.8123789667301
 30
0.0
 11
759.4821761682234
 21
140.8123789667301
 31
0.0
  0
LINE
  5
7F2
330
20
100
AcDbEntity
  8
0
100
AcDbLine
 10
773.1821761682233
 20
156.8123789667301
 30
0.0
 11
773.1821761682233
 21
155.6123789667301
 31
0.0
  0
LINE
  5
7F3
330
20
100
AcDbEntity
  8
0
100
AcDbLine
 10
773.1821761682233
 20
142.0123789667301
 30
0.0
 11
773.1821761682233
 21
140.8123789667301
 31
0.0
  0
LINE
  5
7F4
330
20
100
AcDbEntity
  8
T
100
AcDbLine
 10
759.4821761682232
 20
148.8123789667301
 30
0.0
 11
770.3821761682234
 21
148.8123789667301
 31
0.0
  0
LINE
  5
7F5
330
20
100
AcDbEntity
  8
0
100
AcDbLine
 10
749.3821761682234
 20
145.2123789667302
 30
0.0
 11
759.4821761682234
 21
145.2123789667302
 31
0.0
  0
LINE
  5
7F6
330
20
100
AcDbEntity
  8
0
100
AcDbLine
 10
749.3821761682234
 20
153.2123789667301
 30
0.0
 11
759.4821761682233
 21
153.2123789667301
 31
0.0
  0
LINE
  5
7F7
330
20
100
AcDbEntity
  8
0
100
AcDbLine
 10
729.3821761682234
 20
150.3123789667302
 30
0.0
 11
729.8821761682233
 21
150.3123789667302
 31
0.0
  0
LINE
  5
7F8
330
20
100
AcDbEntity
  8
0
100
AcDbLine
 10
729.3821761682234
 20
147.3123789667302
 30
0.0
 11
729.8821761682233
 21
147.3123789667302
 31
0.0
  0
LINE
  5
7F9
330
20
100
AcDbEntity
  8
0
100
AcDbLine
 10
775.3138949509559
 20
90.83600134723017
 30
0.0
 11
775.3138949509559
 21
110.6508360190915
 31
0.0
  0
LINE
  5
7FA
330
20
100
AcDbEntity
  8
0
100
AcDbLine
 10
782.313894950956
 20
86.58600134723021
 30
0.0
 11
782.313894950956
 21
110.6508360190915
 31
0.0
  0
LINE
  5
7FB
330
20
100
AcDbEntity
  8
0
100
AcDbLine
 10
768.3138949509559
 20
109.6508360190915
 30
0.0
 11
789.3138949509559
 21
109.6508360190915
 31
0.0
  0
INSERT
  5
7FC
330
20
100
AcDbEntity
  8
0
100
AcDbBlockReference
  2
SUG-AR01
 10
775.3138949509559
 20
109.6508360190915
 30
0.0
 41
0.5
 42
0.5
 43
0.5
 50
180.0
  0
INSERT
  5
7FD
330
20
100
AcDbEntity
  8
0
100
AcDbBlockReference
  2
SUG-AR01
 10
782.313894950956
 20
109.6508360190915
 30
0.0
 41
0.5
 42
0.5
 43
0.5
  0
TEXT
  5
7FE
330
20
100
AcDbEntity
  8
0
100
AcDbText
 10
774.1853235223845
 20
110.5508360190915
 30
0.0
 40
3.0
  1
7Èº
  7
SIMPLEX
 72
     1
 11
778.8138949509559
 21
110.5508360190915
 31
0.0
100
AcDbText
  0
LWPOLYLINE
  5
806
330
20
100
AcDbEntity
  8
0
100
AcDbPolyline
 90
        3
 70
     0
 43
0.0
 10
757.4364619417203
 20
83.58600134723022
 10
746.760494992789
 20
65.65083601909148
 10
738.760494992789
 20
65.65083601909148
  0
INSERT
  5
80B
330
20
100
AcDbEntity
  8
0
100
AcDbBlockReference
  2
SUG-AR01
 10
757.4364619417203
 20
83.58600134723022
 30
0.0
 41
0.5
 42
0.5
 43
0.5
 50
239.2366357944319
  0
TEXT
  5
80C
330
20
100
AcDbEntity
  8
0
100
AcDbText
 10
738.760494992789
 20
66.55083601909149
 30
0.0
 40
3.0
  1
·¢
  7
SIMPLEX
100
AcDbText
  0
LWPOLYLINE
  5
80D
330
20
100
AcDbEntity
  8
0
100
AcDbPolyline
 90
        3
 70
     0
 43
0.0
 10
757.4364619417203
 20
86.58600134723021
 10
746.760494992789
 20
101.6508360190915
 10
738.760494992789
 20
101.6508360190915
  0
INSERT
  5
812
330
20
100
AcDbEntity
  8
0
100
AcDbBlockReference
  2
SUG-AR01
 10
757.4364619417203
 20
86.58600134723021
 30
0.0
 41
0.5
 42
0.5
 43
0.5
 50
125.3239817220082
  0
TEXT
  5
813
330
20
100
AcDbEntity
  8
0
100
AcDbText
 10
738.760494992789
 20
102.5508360190915
 30
0.0
 40
3.0
  1
Z¢
  7
SIMPLEX
100
AcDbText
  0
TEXT
  5
814
330
20
100
AcDbEntity
  8
0
100
AcDbText
 10
738.760494992789
 20
98.5508360190915
 30
0.0
 40
3.0
  1
-
  7
SIMPLEX
100
AcDbText
  0
TEXT
  5
815
330
20
100
AcDbEntity
  8
0
100
AcDbText
 10
738.760494992789
 20
62.5508360190915
 30
0.0
 40
3.0
  1
+
  7
SIMPLEX
100
AcDbText
  0
LINE
  5
816
330
20
100
AcDbEntity
  8
0
100
AcDbLine
 10
739.8821761682234
 20
140.8123789667302
 30
0.0
 11
739.8821761682234
 21
142.4123789667302
 31
0.0
  0
LINE
  5
817
330
20
100
AcDbEntity
  8
0
100
AcDbLine
 10
744.8821761682234
 20
140.8123789667302
 30
0.0
 11
744.8821761682234
 21
142.4123789667301
 31
0.0
  0
LINE
  5
818
330
20
100
AcDbEntity
  8
T
100
AcDbLine
 10
742.3821761682233
 20
137.6123789667302
 30
0.0
 11
742.3821761682233
 21
160.0123789667302
 31
0.0
  0
LINE
  5
819
330
20
100
AcDbEntity
  8
0
100
AcDbLine
 10
739.8821761682234
 20
155.2123789667302
 30
0.0
 11
739.8821761682234
 21
156.8123789667302
 31
0.0
  0
LINE
  5
81A
330
20
100
AcDbEntity
  8
0
100
AcDbLine
 10
744.8821761682234
 20
155.2123789667302
 30
0.0
 11
744.8821761682234
 21
156.8123789667302
 31
0.0
  0
LINE
  5
81B
330
20
100
AcDbEntity
  8
0
100
AcDbLine
 10
729.3821761682234
 20
156.8123789667302
 30
0.0
 11
729.3821761682234
 21
140.8123789667302
 31
0.0
  0
LINE
  5
82C
330
20
100
AcDbEntity
  8
0
100
AcDbLine
 10
755.8321761682234
 20
153.1123789667302
 30
0.0
 11
755.8321761682234
 21
150.3123789667301
 31
0.0
  0
LINE
  5
82D
330
20
100
AcDbEntity
  8
0
100
AcDbLine
 10
749.3821761682234
 20
153.1123789667302
 30
0.0
 11
755.8321761682234
 21
153.1123789667302
 31
0.0
  0
LINE
  5
82E
330
20
100
AcDbEntity
  8
0
100
AcDbLine
 10
749.3821761682234
 20
152.9196823375167
 30
0.0
 11
755.8321761682234
 21
152.4123789667301
 31
0.0
  0
LINE
  5
82F
330
20
100
AcDbEntity
  8
0
100
AcDbLine
 10
749.3821761682234
 20
152.2196823375167
 30
0.0
 11
755.8321761682234
 21
151.7123789667301
 31
0.0
  0
LINE
  5
830
330
20
100
AcDbEntity
  8
0
100
AcDbLine
 10
755.8321761682234
 20
151.0123789667301
 30
0.0
 11
749.3821761682234
 21
151.5196823375167
 31
0.0
  0
LINE
  5
831
330
20
100
AcDbEntity
  8
0
100
AcDbLine
 10
749.3821761682234
 20
150.8196823375167
 30
0.0
 11
755.8321761682234
 21
150.3123789667301
 31
0.0
  0
LINE
  5
832
330
20
100
AcDbEntity
  8
0
100
AcDbLine
 10
729.8821761682233
 20
156.8123789667302
 30
0.0
 11
729.8821761682233
 21
140.8123789667302
 31
0.0
  0
LINE
  5
833
330
20
100
AcDbEntity
  8
0
100
AcDbLine
 10
733.3541761682234
 20
156.8123789667302
 30
0.0
 11
733.3541761682235
 21
148.8123789667302
 31
0.0
  0
LINE
  5
834
330
20
100
AcDbEntity
  8
0
100
AcDbLine
 10
733.3541761682233
 20
148.8123789667302
 30
0.0
 11
733.3541761682234
 21
140.8123789667302
 31
0.0
  0
LINE
  5
835
330
20
100
AcDbEntity
  8
0
100
AcDbLine
 10
733.3541761682234
 20
150.3123789667302
 30
0.0
 11
759.4821761682234
 21
150.3123789667301
 31
0.0
  0
LINE
  5
836
330
20
100
AcDbEntity
  8
0
100
AcDbLine
 10
733.3541761682234
 20
147.3123789667302
 30
0.0
 11
759.4821761682234
 21
147.3123789667301
 31
0.0
  0
LINE
  5
837
330
20
100
AcDbEntity
  8
0
100
AcDbLine
 10
729.8821761682233
 20
148.8123789667302
 30
0.0
 11
733.3541761682233
 21
148.8123789667302
 31
0.0
  0
LINE
  5
838
330
20
100
AcDbEntity
  8
0
100
AcDbLine
 10
757.3821761682234
 20
158.4123789667301
 30
0.0
 11
757.3821761682234
 21
156.8123789667301
 31
0.0
  0
LINE
  5
839
330
20
100
AcDbEntity
  8
0
100
AcDbLine
 10
749.3821761682234
 20
158.4123789667301
 30
0.0
 11
749.3821761682234
 21
156.8123789667301
 31
0.0
  0
LINE
  5
83A
330
20
100
AcDbEntity
  8
0
100
AcDbLine
 10
757.3821761682234
 20
140.8123789667301
 30
0.0
 11
757.3821761682234
 21
139.2123789667302
 31
0.0
  0
LINE
  5
83B
330
20
100
AcDbEntity
  8
0
100
AcDbLine
 10
749.3821761682234
 20
140.8123789667301
 30
0.0
 11
749.3821761682234
 21
139.2123789667302
 31
0.0
  0
LINE
  5
83C
330
20
100
AcDbEntity
  8
0
100
AcDbLine
 10
759.0821761682234
 20
145.2123789667302
 30
0.0
 11
759.0821761682234
 21
147.2123789667302
 31
0.0
  0
LINE
  5
83D
330
20
100
AcDbEntity
  8
0
100
AcDbLine
 10
759.0821761682234
 20
153.2123789667301
 30
0.0
 11
759.0821761682234
 21
155.2123789667301
 31
0.0
  0
LINE
  5
83E
330
20
100
AcDbEntity
  8
0
100
AcDbLine
 10
749.3821761682234
 20
155.2123789667301
 30
0.0
 11
749.3821761682234
 21
150.4123789667302
 31
0.0
  0
LINE
  5
83F
330
20
100
AcDbEntity
  8
0
100
AcDbLine
 10
749.3821761682234
 20
147.2123789667302
 30
0.0
 11
749.3821761682234
 21
142.4123789667302
 31
0.0
  0
LINE
  5
85A
330
20
100
AcDbEntity
  8
0
100
AcDbLine
 10
643.9095639126735
 20
95.33492961744483
 30
0.0
 11
643.9095639126735
 21
93.23492961744481
 31
0.0
  0
LINE
  5
85B
330
20
100
AcDbEntity
  8
0
100
AcDbLine
 10
643.8095639126735
 20
95.03492961744489
 30
0.0
 11
643.8095639126735
 21
93.53492961744487
 31
0.0
  0
LINE
  5
85C
330
20
100
AcDbEntity
  8
0
100
AcDbLine
 10
631.7095639126732
 20
93.53492961744509
 30
0.0
 11
631.7095639126733
 21
95.1349296174451
 31
0.0
  0
ARC
  5
85D
330
20
100
AcDbEntity
  8
0
100
AcDbCircle
 10
663.7095639126735
 20
89.33492961744429
 30
0.0
 40
21.8
100
AcDbArc
 50
314.523180008838
 51
329.7801918471998
  0
ARC
  5
85E
330
20
100
AcDbEntity
  8
0
100
AcDbCircle
 10
674.0787740828767
 20
83.29510507974877
 30
0.0
 40
9.8
100
AcDbArc
 50
329.7801918471998
 51
354.6436231559185
  0
CIRCLE
  5
85F
330
20
100
AcDbEntity
  8
0
100
AcDbCircle
 10
651.1095639126732
 20
96.53492961744468
 30
0.0
 40
3.0
  0
ARC
  5
860
330
20
100
AcDbEntity
  8
0
100
AcDbCircle
 10
663.7095639126727
 20
89.33492961744432
 30
0.0
 40
14.5
100
AcDbArc
 50
138.3846249889021
 51
148.7894357196623
  0
LINE
  5
861
330
20
100
AcDbEntity
  8
0
100
AcDbLine
 10
653.0606203030936
 20
95.48310007702069
 30
0.0
 11
651.4147479319437
 21
96.43334493355581
 31
0.0
  0
ARC
  5
862
330
20
100
AcDbEntity
  8
0
100
AcDbCircle
 10
663.7095639126727
 20
89.33492961744452
 30
0.0
 40
12.0
100
AcDbArc
 50
151.3975966282439
 51
157.380135051961
  0
ARC
  5
863
330
20
100
AcDbEntity
  8
0
100
AcDbCircle
 10
651.5647479319436
 20
96.69315255469115
 30
0.0
 40
0.3
100
AcDbArc
 50
148.7894357196609
 51
240.0000000000009
  0
ARC
  5
864
330
20
100
AcDbEntity
  8
0
100
AcDbCircle
 10
652.9106203030936
 20
95.22329245588531
 30
0.0
 40
0.3
100
AcDbArc
 50
331.3975966282431
 51
59.99999999999854
  0
ARC
  5
865
330
20
100
AcDbEntity
  8
0
100
AcDbCircle
 10
652.8997562915374
 20
95.18101297924616
 30
0.0
 40
0.3
100
AcDbArc
 50
329.9999999999995
 51
59.99999999999875
  0
ARC
  5
866
330
20
100
AcDbEntity
  8
0
100
AcDbCircle
 10
648.8082937234509
 20
96.7349296174447
 30
0.0
 40
1.0
100
AcDbArc
 50
59.99999999999875
 51
89.99999999999683
  0
LINE
  5
867
330
20
100
AcDbEntity
  8
0
100
AcDbLine
 10
653.0497562915374
 20
95.44082060038149
 30
0.0
 11
649.3082937234508
 21
97.60095502122922
 31
0.0
  0
LINE
  5
868
330
20
100
AcDbEntity
  8
0
100
AcDbLine
 10
652.4900861582584
 20
93.87144349406344
 30
0.0
 11
653.1595639126727
 21
95.03101297924613
 31
0.0
  0
LINE
  5
869
330
20
100
AcDbEntity
  8
0
100
AcDbLine
 10
648.3600184956998
 20
97.73492961744473
 30
0.0
 11
648.8082937234509
 21
97.73492961744469
 31
0.0
  0
INSERT
  5
995
330
20
100
AcDbEntity
  8
4
100
AcDbBlockReference
  2
SUG-AR06
 10
1479.53858375283
 20
671.3186089667634
 30
0.0
  0
LINE
  5
996
330
20
100
AcDbEntity
  8
0
100
AcDbLine
 10
840.8190426755441
 20
251.6757736291094
 30
0.0
 11
869.3982670888008
 21
251.6757736291094
 31
0.0
  0
LINE
  5
997
330
20
100
AcDbEntity
  8
0
100
AcDbLine
 10
860.4941871208513
 20
237.6102862073494
 30
0.0
 11
840.8190426755441
 21
251.6757736291094
 31
0.0
  0
LINE
  5
998
330
20
100
AcDbEntity
  8
0
100
AcDbLine
 10
892.1999795330409
 20
232.2663261815061
 30
0.0
 11
892.1999795330409
 21
204.8346482629583
 31
0.0
  0
LINE
  5
999
330
20
100
AcDbEntity
  8
0
100
AcDbLine
 10
900.0008401368173
 20
216.5819266116392
 30
0.0
 11
892.1999795330409
 21
216.5819266116392
 31
0.0
  0
LINE
  5
99A
330
20
100
AcDbEntity
  8
0
100
AcDbLine
 10
900.0008401368173
 20
218.2983069259383
 30
0.0
 11
900.0008401368173
 21
214.86554629734
 31
0.0
  0
LINE
  5
99B
330
20
100
AcDbEntity
  8
0
100
AcDbLine
 10
902.471201724688
 20
218.2477164339452
 30
0.0
 11
902.471201724688
 21
214.9161367893332
 31
0.0
  0
LINE
  5
99C
330
20
100
AcDbEntity
  8
0
100
AcDbLine
 10
900.0008401368173
 20
216.5819266116392
 30
0.0
 11
902.471201724688
 21
218.2477164339452
 31
0.0
  0
LINE
  5
99D
330
20
100
AcDbEntity
  8
0
100
AcDbLine
 10
900.0008401368173
 20
216.5819266116392
 30
0.0
 11
902.471201724688
 21
214.9161367893332
 31
0.0
  0
LINE
  5
99E
330
20
100
AcDbEntity
  8
0
100
AcDbLine
 10
909.6453630117716
 20
216.5819266116392
 30
0.0
 11
902.471201724688
 21
216.5819266116392
 31
0.0
  0
TEXT
  5
99F
330
20
100
AcDbEntity
  8
0
100
AcDbText
 10
891.6999292955791
 20
198.38742120651
 30
0.0
 40
3.0
  1
\mCh
  7
SIMPLEX
100
AcDbText
  0
TEXT
  5
9A0
330
20
100
AcDbEntity
  8
0
100
AcDbText
 10
846.8727438637648
 20
189.2776268582254
 30
0.0
 40
3.0
  1
{}Í{ùóÔð¦·B
  7
SIMPLEX
100
AcDbText
  0
INSERT
  5
9A1
330
20
100
AcDbEntity
  8
0
100
AcDbBlockReference
  2
SUG-AR01
 10
860.4941871208513
 20
237.6102862073494
 30
0.0
 41
0.5
 42
0.5
 43
0.5
 50
144.4395503093262
  0
LINE
  5
9A2
330
20
100
AcDbEntity
  8
0
100
AcDbLine
 10
865.5954895084009
 20
232.2663261815021
 30
0.0
 11
865.5954895084009
 21
204.8346482629583
 31
0.0
  0
LINE
  5
9A3
330
20
100
AcDbEntity
  8
0
100
AcDbLine
 10
879.1226949093038
 20
232.2663261815093
 30
0.0
 11
879.1226949093038
 21
216.5819266116392
 31
0.0
  0
LINE
  5
9A4
330
20
100
AcDbEntity
  8
0
100
AcDbLine
 10
886.4681195319272
 20
232.2663261815075
 30
0.0
 11
886.4681195319272
 21
204.8346482629583
 31
0.0
  0
LINE
  5
9A5
330
20
100
AcDbEntity
  8
0
100
AcDbLine
 10
909.6453630117716
 20
232.2663261815011
 30
0.0
 11
909.6453630117716
 21
204.8346482629583
 31
0.0
  0
LINE
  5
9A6
330
20
100
AcDbEntity
  8
0
100
AcDbLine
 10
865.5954895084009
 20
216.5819266116392
 30
0.0
 11
868.8471701791709
 21
216.5819266116392
 31
0.0
  0
LINE
  5
9A7
330
20
100
AcDbEntity
  8
0
100
AcDbLine
 10
862.1777619984737
 20
204.8346482629583
 30
0.0
 11
871.1960398535484
 21
204.8346482629583
 31
0.0
  0
LINE
  5
9A8
330
20
100
AcDbEntity
  8
0
100
AcDbLine
 10
892.1999795330409
 20
204.8346482629583
 30
0.0
 11
893.261004331161
 21
204.8346482629583
 31
0.0
  0
CIRCLE
  5
9A9
330
20
100
AcDbEntity
  8
0
100
AcDbCircle
 10
865.5954895084009
 20
233.2663261815057
 30
0.0
 40
1.0
  0
CIRCLE
  5
9AA
330
20
100
AcDbEntity
  8
0
100
AcDbCircle
 10
879.1226949093038
 20
233.2663261815057
 30
0.0
 40
1.0
  0
CIRCLE
  5
9AB
330
20
100
AcDbEntity
  8
0
100
AcDbCircle
 10
886.4681195319272
 20
233.2663261815057
 30
0.0
 40
1.0
  0
CIRCLE
  5
9AC
330
20
100
AcDbEntity
  8
0
100
AcDbCircle
 10
892.1999795330412
 20
233.2663261815057
 30
0.0
 40
1.0
  0
CIRCLE
  5
9AD
330
20
100
AcDbEntity
  8
0
100
AcDbCircle
 10
909.6453630117716
 20
233.2663261815057
 30
0.0
 40
1.0
  0
CIRCLE
  5
9AE
330
20
100
AcDbEntity
  8
0
100
AcDbCircle
 10
894.261004331161
 20
204.8346482629583
 30
0.0
 40
1.0
  0
CIRCLE
  5
9AF
330
20
100
AcDbEntity
  8
0
100
AcDbCircle
 10
907.4578176123759
 20
204.8346482629583
 30
0.0
 40
1.0
  0
LINE
  5
9B0
330
20
100
AcDbEntity
  8
0
100
AcDbLine
 10
855.5952411082623
 20
204.8344765753147
 30
0.0
 11
857.9885959050013
 21
204.8344765753147
 31
0.0
  0
CIRCLE
  5
9B1
330
20
100
AcDbEntity
  8
0
100
AcDbCircle
 10
872.1960398535484
 20
204.8346482629583
 30
0.0
 40
1.0
  0
CIRCLE
  5
9B2
330
20
100
AcDbEntity
  8
0
100
AcDbCircle
 10
877.1960398535483
 20
204.8346482629583
 30
0.0
 40
1.0
  0
CIRCLE
  5
9B3
330
20
100
AcDbEntity
  8
0
100
AcDbCircle
 10
869.8471701791708
 20
216.5819266116392
 30
0.0
 40
1.0
  0
CIRCLE
  5
9B4
330
20
100
AcDbEntity
  8
0
100
AcDbCircle
 10
874.8471701791709
 20
216.5819266116392
 30
0.0
 40
1.0
  0
LINE
  5
9B5
330
20
100
AcDbEntity
  8
0
100
AcDbLine
 10
875.8471701791709
 20
216.5819266116392
 30
0.0
 11
879.1226949093038
 21
216.5819266116392
 31
0.0
  0
LINE
  5
9B6
330
20
100
AcDbEntity
  8
0
100
AcDbLine
 10
878.1960398535485
 20
204.8346482629583
 30
0.0
 11
886.4681195319272
 21
204.8346482629583
 31
0.0
  0
LINE
  5
9B7
330
20
100
AcDbEntity
  8
0
100
AcDbLine
 10
870.8042947910021
 20
216.871603116428
 30
0.0
 11
874.7461025430117
 21
217.5768061686314
 31
0.0
  0
LINE
  5
9B8
330
20
100
AcDbEntity
  8
0
100
AcDbLine
 10
905.6072565382306
 20
204.8346482629583
 30
0.0
 11
906.457817612376
 21
204.8346482629583
 31
0.0
  0
LINE
  5
9B9
330
20
100
AcDbEntity
  8
0
100
AcDbLine
 10
908.4578176123759
 20
204.8346482629583
 30
0.0
 11
909.6453630117716
 21
204.8346482629583
 31
0.0
  0
LINE
  5
9BA
330
20
100
AcDbEntity
  8
0
100
AcDbLine
 10
895.261004331161
 20
204.8346482629583
 30
0.0
 11
896.177745680155
 21
204.8346482629583
 31
0.0
  0
CIRCLE
  5
9BB
330
20
100
AcDbEntity
  8
0
100
AcDbCircle
 10
855.5952411082623
 20
233.2663261815057
 30
0.0
 40
1.0
  0
LINE
  5
9BC
330
20
100
AcDbEntity
  8
0
100
AcDbLine
 10
855.5952411082623
 20
232.2663261815057
 30
0.0
 11
855.5952411082623
 21
204.8344765753147
 31
0.0
  0
LINE
  5
9BD
330
20
100
AcDbEntity
  8
0
100
AcDbLine
 10
873.1960398069572
 20
204.8349535202984
 30
0.0
 11
877.2568639045685
 21
205.9193089930868
 31
0.0
  0
TEXT
  5
9BE
330
20
100
AcDbEntity
  8
0
100
AcDbText
 10
869.5834452238086
 20
221.3636533519589
 30
0.0
 40
3.0
  1
àÂ
 41
0.7
  7
SIMPLEX
100
AcDbText
  0
TEXT
  5
9BF
330
20
100
AcDbEntity
  8
0
100
AcDbText
 10
869.1322924905357
 20
197.5367530208904
 30
0.0
 40
3.0
  1
bN{ù
 41
0.7
  7
SIMPLEX
100
AcDbText
  0
TEXT
  5
9C0
330
20
100
AcDbEntity
  8
0
100
AcDbText
 10
868.6693898246291
 20
218.0277266354721
 30
0.0
 40
2.0
  1
SW1
  7
SIMPLEX
100
AcDbText
  0
TEXT
  5
9C1
330
20
100
AcDbEntity
  8
0
100
AcDbText
 10
871.10712905141
 20
206.4861048691696
 30
0.0
 40
2.0
  1
SW2
  7
SIMPLEX
100
AcDbText
  0
TEXT
  5
9C2
330
20
100
AcDbEntity
  8
0
100
AcDbText
 10
867.1235064125244
 20
213.778311348788
 30
0.0
 40
2.0
  1
C
  7
SIMPLEX
100
AcDbText
  0
TEXT
  5
9C3
330
20
100
AcDbEntity
  8
0
100
AcDbText
 10
875.6853222334129
 20
213.778311348788
 30
0.0
 40
2.0
  1
NO
  7
SIMPLEX
100
AcDbText
  0
TEXT
  5
9C4
330
20
100
AcDbEntity
  8
0
100
AcDbText
 10
869.6801597479284
 20
201.607146577051
 30
0.0
 40
2.0
  1
C
  7
SIMPLEX
100
AcDbText
  0
TEXT
  5
9C5
330
20
100
AcDbEntity
  8
0
100
AcDbText
 10
877.7663191343231
 20
201.5546846599314
 30
0.0
 40
2.0
  1
NC
  7
SIMPLEX
100
AcDbText
  0
TEXT
  5
9C6
330
20
100
AcDbEntity
  8
0
100
AcDbText
 10
841.5301864680996
 20
252.0045815562937
 30
0.0
 40
3.0
  1
B6B-EH(JST)
  7
SIMPLEX
100
AcDbText
  0
LWPOLYLINE
  5
9C7
330
20
100
AcDbEntity
  8
0
100
AcDbPolyline
 90
       16
 70
     1
 43
0.0
 10
896.1477650780338
 20
204.8213194070637
 42
0.0554126108584769
 10
896.2272203678766
 20
204.1065785151959
 42
0.0692093214080953
 10
896.4301980568659
 20
203.5667035497053
 42
0.1058274332142485
 10
896.779417471416
 20
203.1593338814119
 42
0.1642628795780698
 10
897.1120515848243
 20
203.0470246460191
 42
0.1642628795780616
 10
897.4446856982321
 20
203.1593338814119
 42
0.1058274332142542
 10
897.7939051127822
 20
203.5667035497053
 42
0.0692093214081042
 10
897.9968828017714
 20
204.1065785151959
 42
0.0554126108584889
 10
898.0763380916146
 20
204.8213194070637
 42
0.0554126108584949
 10
897.9968828017714
 20
205.5360602989318
 42
0.0692093214081002
 10
897.7939051127822
 20
206.0759352644223
 42
0.1058274332142545
 10
897.4446856982321
 20
206.4833049327157
 42
0.1642628795780616
 10
897.1120515848243
 20
206.5956141681085
 42
0.1642628795780634
 10
896.7794174714162
 20
206.4833049327157
 42
0.1058274332142599
 10
896.4301980568659
 20
206.0759352644223
 42
0.0692093214081064
 10
896.2272203678766
 20
205.5360602989316
 42
0.0554126108584796
  0
LWPOLYLINE
  5
9D9
330
20
100
AcDbEntity
  8
0
100
AcDbPolyline
 90
       16
 70
     1
 43
0.0
 10
897.6972169009105
 20
204.8213194070637
 42
0.0554126108584769
 10
897.7766721907535
 20
204.1065785151959
 42
0.0692093214080953
 10
897.9796498797426
 20
203.5667035497053
 42
0.1058274332142485
 10
898.3288692942929
 20
203.1593338814119
 42
0.1642628795780698
 10
898.6615034077008
 20
203.0470246460191
 42
0.1642628795780616
 10
898.9941375211087
 20
203.1593338814119
 42
0.1058274332142542
 10
899.3433569356589
 20
203.5667035497053
 42
0.0692093214081042
 10
899.5463346246483
 20
204.1065785151959
 42
0.0554126108584889
 10
899.6257899144911
 20
204.8213194070637
 42
0.0554126108584949
 10
899.5463346246483
 20
205.5360602989318
 42
0.0692093214081002
 10
899.3433569356589
 20
206.0759352644223
 42
0.1058274332142545
 10
898.9941375211087
 20
206.4833049327157
 42
0.1642628795780616
 10
898.6615034077008
 20
206.5956141681085
 42
0.1642628795780634
 10
898.3288692942929
 20
206.4833049327157
 42
0.1058274332142599
 10
897.9796498797426
 20
206.0759352644223
 42
0.0692093214081064
 10
897.7766721907535
 20
205.5360602989316
 42
0.0554126108584796
  0
LWPOLYLINE
  5
9EB
330
20
100
AcDbEntity
  8
0
100
AcDbPolyline
 90
       16
 70
     1
 43
0.0
 10
899.2631522538179
 20
204.8213194070637
 42
0.0554126108584769
 10
899.3426075436609
 20
204.1065785151959
 42
0.0692093214080953
 10
899.5455852326502
 20
203.5667035497053
 42
0.1058274332142485
 10
899.8948046472003
 20
203.1593338814119
 42
0.1642628795780698
 10
900.2274387606082
 20
203.0470246460191
 42
0.1642628795780616
 10
900.5600728740162
 20
203.1593338814119
 42
0.1058274332142542
 10
900.9092922885665
 20
203.5667035497053
 42
0.0692093214081042
 10
901.1122699775555
 20
204.1065785151959
 42
0.0554126108584889
 10
901.1917252673987
 20
204.8213194070637
 42
0.0554126108584949
 10
901.1122699775555
 20
205.5360602989318
 42
0.0692093214081002
 10
900.9092922885665
 20
206.0759352644223
 42
0.1058274332142545
 10
900.5600728740162
 20
206.4833049327157
 42
0.1642628795780616
 10
900.2274387606082
 20
206.5956141681085
 42
0.1642628795780634
 10
899.8948046472003
 20
206.4833049327157
 42
0.1058274332142599
 10
899.5455852326502
 20
206.0759352644223
 42
0.0692093214081064
 10
899.3426075436609
 20
205.5360602989316
 42
0.0554126108584796
  0
LWPOLYLINE
  5
9FD
330
20
100
AcDbEntity
  8
0
100
AcDbPolyline
 90
       16
 70
     1
 43
0.0
 10
900.8785381968174
 20
204.8213194070637
 42
0.0554126108584769
 10
900.9579934866602
 20
204.1065785151959
 42
0.0692093214080953
 10
901.1609711756493
 20
203.5667035497053
 42
0.1058274332142485
 10
901.5101905901994
 20
203.1593338814119
 42
0.1642628795780698
 10
901.8428247036075
 20
203.0470246460191
 42
0.1642628795780616
 10
902.1754588170155
 20
203.1593338814119
 42
0.1058274332142542
 10
902.5246782315658
 20
203.5667035497053
 42
0.0692093214081042
 10
902.7276559205548
 20
204.1065785151959
 42
0.0554126108584889
 10
902.8071112103978
 20
204.8213194070637
 42
0.0554126108584949
 10
902.7276559205548
 20
205.5360602989318
 42
0.0692093214081002
 10
902.5246782315658
 20
206.0759352644223
 42
0.1058274332142545
 10
902.1754588170155
 20
206.4833049327157
 42
0.1642628795780616
 10
901.8428247036075
 20
206.5956141681085
 42
0.1642628795780634
 10
901.5101905901994
 20
206.4833049327157
 42
0.1058274332142599
 10
901.1609711756493
 20
206.0759352644223
 42
0.0692093214081064
 10
900.9579934866602
 20
205.5360602989316
 42
0.0554126108584796
  0
LWPOLYLINE
  5
A0F
330
20
100
AcDbEntity
  8
0
100
AcDbPolyline
 90
       16
 70
     1
 43
0.0
 10
902.4939241398165
 20
204.8213194070637
 42
0.0554126108584769
 10
902.5733794296593
 20
204.1065785151959
 42
0.0692093214080953
 10
902.7763571186484
 20
203.5667035497053
 42
0.1058274332142485
 10
903.1255765331987
 20
203.1593338814119
 42
0.1642628795780698
 10
903.4582106466066
 20
203.0470246460191
 42
0.1642628795780616
 10
903.7908447600148
 20
203.1593338814119
 42
0.1058274332142542
 10
904.1400641745649
 20
203.5667035497053
 42
0.0692093214081042
 10
904.3430418635539
 20
204.1065785151959
 42
0.0554126108584889
 10
904.4224971533969
 20
204.8213194070637
 42
0.0554126108584949
 10
904.3430418635539
 20
205.5360602989318
 42
0.0692093214081002
 10
904.1400641745649
 20
206.0759352644223
 42
0.1058274332142545
 10
903.7908447600148
 20
206.4833049327157
 42
0.1642628795780616
 10
903.4582106466066
 20
206.5956141681085
 42
0.1642628795780634
 10
903.1255765331987
 20
206.4833049327157
 42
0.1058274332142599
 10
902.7763571186484
 20
206.0759352644223
 42
0.0692093214081064
 10
902.5733794296593
 20
205.5360602989316
 42
0.0554126108584796
  0
LWPOLYLINE
  5
A21
330
20
100
AcDbEntity
  8
0
100
AcDbPolyline
 90
       16
 70
     1
 43
0.0
 10
903.7466724221422
 20
204.8213194070637
 42
0.0554126108584769
 10
903.8261277119852
 20
204.1065785151959
 42
0.0692093214080953
 10
904.0291054009744
 20
203.5667035497053
 42
0.1058274332142485
 10
904.3783248155246
 20
203.1593338814119
 42
0.1642628795780698
 10
904.7109589289325
 20
203.0470246460191
 42
0.1642628795780616
 10
905.0435930423404
 20
203.1593338814119
 42
0.1058274332142542
 10
905.3928124568907
 20
203.5667035497053
 42
0.0692093214081042
 10
905.59579014588
 20
204.1065785151959
 42
0.0554126108584889
 10
905.6752454357228
 20
204.8213194070637
 42
0.0554126108584949
 10
905.59579014588
 20
205.5360602989318
 42
0.0692093214081002
 10
905.3928124568907
 20
206.0759352644223
 42
0.1058274332142545
 10
905.0435930423404
 20
206.4833049327157
 42
0.1642628795780616
 10
904.7109589289325
 20
206.5956141681085
 42
0.1642628795780634
 10
904.3783248155246
 20
206.4833049327157
 42
0.1058274332142599
 10
904.0291054009744
 20
206.0759352644223
 42
0.0692093214081064
 10
903.8261277119852
 20
205.5360602989316
 42
0.0554126108584796
  0
TEXT
  5
A33
330
20
100
AcDbEntity
  8
0
100
AcDbText
 10
909.1061320268186
 20
234.7042294604151
 30
0.0
 40
2.0
  1
1
  7
SIMPLEX
100
AcDbText
  0
TEXT
  5
A34
330
20
100
AcDbEntity
  8
0
100
AcDbText
 10
891.3813250106498
 20
234.7892272051154
 30
0.0
 40
2.0
  1
2
  7
SIMPLEX
100
AcDbText
  0
TEXT
  5
A35
330
20
100
AcDbEntity
  8
0
100
AcDbText
 10
885.5051661628982
 20
234.6192317157147
 30
0.0
 40
2.0
  1
3
  7
SIMPLEX
100
AcDbText
  0
TEXT
  5
A36
330
20
100
AcDbEntity
  8
0
100
AcDbText
 10
878.2803806943512
 20
234.7892272051155
 30
0.0
 40
2.0
  1
4
  7
SIMPLEX
100
AcDbText
  0
TEXT
  5
A37
330
20
100
AcDbEntity
  8
0
100
AcDbText
 10
864.8904449593105
 20
234.7892272051154
 30
0.0
 40
2.0
  1
5
  7
SIMPLEX
100
AcDbText
  0
TEXT
  5
A38
330
20
100
AcDbEntity
  8
0
100
AcDbText
 10
854.9552559826791
 20
234.8742249498159
 30
0.0
 40
2.0
  1
6
  7
SIMPLEX
100
AcDbText
  0
LINE
  5
A39
330
20
100
AcDbEntity
  8
0
100
AcDbLine
 10
861.3183597491977
 20
204.8344765753147
 30
0.0
 11
858.847998161327
 21
206.5002663976208
 31
0.0
  0
LINE
  5
A3A
330
20
100
AcDbEntity
  8
0
100
AcDbLine
 10
861.3183597491977
 20
204.8344765753147
 30
0.0
 11
858.847998161327
 21
203.1686867530086
 31
0.0
  0
LINE
  5
A3B
330
20
100
AcDbEntity
  8
0
100
AcDbLine
 10
858.847998161327
 20
203.1686867530086
 30
0.0
 11
858.847998161327
 21
206.5002663976208
 31
0.0
  0
LINE
  5
A3C
330
20
100
AcDbEntity
  8
0
100
AcDbLine
 10
861.3183597491977
 20
203.1180962610155
 30
0.0
 11
861.3183597491977
 21
206.5508568896138
 31
0.0
  0
CIRCLE
  5
A3D
330
20
100
AcDbEntity
  8
0
100
AcDbCircle
 10
860.0831789552623
 20
204.8344765753147
 30
0.0
 40
2.094583050261007
  0
TEXT
  5
A3E
330
20
100
AcDbEntity
  8
0
100
AcDbText
 10
857.7479527936331
 20
198.5642937516822
 30
0.0
 40
3.0
  1
LED
 41
0.7
  7
SIMPLEX
100
AcDbText
  0
ARC
  5
A3F
330
20
100
AcDbEntity
  8
0
100
AcDbCircle
 10
654.7095639126739
 20
54.82234979936857
 30
0.0
 40
2.499999999999986
100
AcDbArc
 50
191.536959032781
 51
359.9999999999999
  0
LINE
  5
A40
330
20
100
AcDbEntity
  8
0
100
AcDbLine
 10
631.709563912674
 20
57.32234979936823
 30
0.0
 11
631.709563912674
 21
56.32234979936857
 31
0.0
  0
LINE
  5
A41
330
20
100
AcDbEntity
  8
0
100
AcDbLine
 10
652.2600741698831
 20
54.32234979936857
 30
0.0
 11
633.7095639126739
 21
54.32234979936857
 31
0.0
  0
ARC
  5
A42
330
20
100
AcDbEntity
  8
0
100
AcDbCircle
 10
633.7095639126739
 20
56.32234979936857
 30
0.0
 40
2.0
100
AcDbArc
 50
180.0
 51
270.0
  0
LINE
  5
A43
330
20
100
AcDbEntity
  8
0
  6
C5
100
AcDbLine
 10
850.7275255590434
 20
237.5543676463636
 30
0.0
 11
850.7275255590434
 21
229.8562481136176
 31
0.0
  0
LINE
  5
A44
330
20
100
AcDbEntity
  8
0
  6
C5
100
AcDbLine
 10
850.7275255590434
 20
229.8562481136176
 30
0.0
 11
914.0969517638323
 21
229.8562481136176
 31
0.0
  0
LINE
  5
A45
330
20
100
AcDbEntity
  8
0
  6
C5
100
AcDbLine
 10
914.0969517638323
 20
229.8562481136176
 30
0.0
 11
914.0969517638323
 21
237.5543676463636
 31
0.0
  0
LINE
  5
A46
330
20
100
AcDbEntity
  8
0
  6
C5
100
AcDbLine
 10
914.0969517638323
 20
237.5543676463636
 30
0.0
 11
850.7275255590434
 21
237.5543676463636
 31
0.0
  0
LINE
  5
B7B
330
20
100
AcDbEntity
  8
0
100
AcDbLine
 10
771.1812404441143
 20
195.7223923931679
 30
0.0
 11
773.260167599176
 21
193.7485061760528
 31
0.0
  0
LINE
  5
B7C
330
20
100
AcDbEntity
  8
0
100
AcDbLine
 10
773.0194881214615
 20
196.0836202154137
 30
0.0
 11
774.1564649988998
 21
194.5393568228679
 31
0.0
  0
LINE
  5
B7D
330
20
100
AcDbEntity
  8
0
100
AcDbLine
 10
806.6732968437847
 20
187.8836202154126
 30
0.0
 11
806.6732968437847
 21
189.0836202154126
 31
0.0
  0
LINE
  5
B7E
330
20
100
AcDbEntity
  8
0
100
AcDbLine
 10
763.6732968437846
 20
187.883620215414
 30
0.0
 11
763.6732968437847
 21
189.0836202154139
 31
0.0
  0
CIRCLE
  5
B7F
330
20
100
AcDbEntity
  8
0
100
AcDbCircle
 10
773.6732968437849
 20
194.1836202154135
 30
0.0
 40
0.6
  0
CIRCLE
  5
B80
330
20
100
AcDbEntity
  8
0
100
AcDbCircle
 10
779.1732968437849
 20
193.5836202154135
 30
0.0
 40
1.0
  0
ARC
  5
B81
330
20
100
AcDbEntity
  8
0
100
AcDbCircle
 10
773.6732968437848
 20
189.7836202154136
 30
0.0
 40
0.75
100
AcDbArc
 50
291.0394697813168
 51
248.960530218681
  0
LINE
  5
B82
330
20
100
AcDbEntity
  8
0
100
AcDbLine
 10
772.6732968437849
 20
195.0836202154136
 30
0.0
 11
772.6732968437848
 21
189.0836202154136
 31
0.0
  0
LINE
  5
B83
330
20
100
AcDbEntity
  8
0
100
AcDbLine
 10
780.6732968437849
 20
195.0836202154134
 30
0.0
 11
772.6732968437849
 21
195.0836202154136
 31
0.0
  0
LINE
  5
B84
330
20
100
AcDbEntity
  8
0
100
AcDbLine
 10
780.6732968437848
 20
189.0836202154134
 30
0.0
 11
780.6732968437849
 21
195.0836202154134
 31
0.0
  0
LINE
  5
B85
330
20
100
AcDbEntity
  8
0
100
AcDbLine
 10
778.2732968437852
 20
203.7836202154133
 30
0.0
 11
778.2732968437852
 21
203.8836202154133
 31
0.0
  0
LINE
  5
B86
330
20
100
AcDbEntity
  8
0
100
AcDbLine
 10
735.7732968437852
 20
207.0836202154149
 30
0.0
 11
735.773296843785
 21
202.0836202154149
 31
0.0
  0
LINE
  5
B87
330
20
100
AcDbEntity
  8
0
100
AcDbLine
 10
821.6732968437847
 20
186.4836202154139
 30
0.0
 11
821.6732968437847
 21
191.6836202154139
 31
0.0
  0
LINE
  5
B88
330
20
100
AcDbEntity
  8
0
100
AcDbLine
 10
821.6732968437845
 20
186.5836202154123
 30
0.0
 11
820.4732968437847
 21
186.5836202154124
 31
0.0
  0
LINE
  5
B89
330
20
100
AcDbEntity
  8
0
100
AcDbLine
 10
821.6732968437847
 20
191.5836202154123
 30
0.0
 11
820.4732968437848
 21
191.5836202154124
 31
0.0
  0
LINE
  5
B8A
330
20
100
AcDbEntity
  8
0
100
AcDbLine
 10
798.6732968437848
 20
195.383620215413
 30
0.0
 11
798.6732968437848
 21
196.583620215413
 31
0.0
  0
LINE
  5
B8B
330
20
100
AcDbEntity
  8
0
100
AcDbLine
 10
793.6732968437849
 20
195.3836202154132
 30
0.0
 11
793.6732968437849
 21
196.5836202154131
 31
0.0
  0
LINE
  5
B8C
330
20
100
AcDbEntity
  8
0
100
AcDbLine
 10
820.4732968437847
 20
186.4836202154139
 30
0.0
 11
820.4732968437848
 21
191.683620215414
 31
0.0
  0
CIRCLE
  5
B8D
330
20
100
AcDbEntity
  8
0
100
AcDbCircle
 10
741.6732968437846
 20
185.5836202154147
 30
0.0
 40
1.825
  0
ARC
  5
B8E
330
20
100
AcDbEntity
  8
0
100
AcDbCircle
 10
752.8816888654761
 20
195.0836202154141
 30
0.0
 40
0.3
100
AcDbArc
 50
9.594068226878274
 51
89.99999999999849
  0
ARC
  5
B8F
330
20
100
AcDbEntity
  8
0
100
AcDbCircle
 10
749.4649048220935
 20
195.0836202154142
 30
0.0
 40
0.3
100
AcDbArc
 50
89.99999999999849
 51
170.4059317731188
  0
ARC
  5
B90
330
20
100
AcDbEntity
  8
0
100
AcDbCircle
 10
749.4649048220936
 20
196.9836202154141
 30
0.0
 40
0.3
100
AcDbArc
 50
189.5940682268783
 51
269.9999999999985
  0
ARC
  5
B91
330
20
100
AcDbEntity
  8
0
100
AcDbCircle
 10
752.8816888654762
 20
196.9836202154141
 30
0.0
 40
0.3
100
AcDbArc
 50
269.9999999999985
 51
350.4059317731187
  0
ARC
  5
B92
330
20
100
AcDbEntity
  8
0
100
AcDbCircle
 10
753.4732968437849
 20
195.1836202154141
 30
0.0
 40
0.3
100
AcDbArc
 50
189.5940682268804
 51
269.9999999999985
  0
ARC
  5
B93
330
20
100
AcDbEntity
  8
0
100
AcDbCircle
 10
753.8732968437848
 20
195.1836202154141
 30
0.0
 40
0.3
100
AcDbArc
 50
269.9999999999985
 51
359.9999999999976
  0
ARC
  5
B94
330
20
100
AcDbEntity
  8
0
100
AcDbCircle
 10
753.8732968437849
 20
196.883620215414
 30
0.0
 40
0.3
100
AcDbArc
 50
359.9999999999978
 51
89.99999999999849
  0
ARC
  5
B95
330
20
100
AcDbEntity
  8
0
100
AcDbCircle
 10
753.4732968437849
 20
196.8836202154141
 30
0.0
 40
0.3
100
AcDbArc
 50
89.99999999999849
 51
170.4059317731192
  0
ARC
  5
B96
330
20
100
AcDbEntity
  8
0
100
AcDbCircle
 10
748.8732968437849
 20
196.8836202154142
 30
0.0
 40
0.3
100
AcDbArc
 50
9.594068226877713
 51
89.99999999999849
  0
ARC
  5
B97
330
20
100
AcDbEntity
  8
0
100
AcDbCircle
 10
748.8732968437848
 20
195.1836202154142
 30
0.0
 40
0.3
100
AcDbArc
 50
269.9999999999985
 51
350.4059317731166
  0
ARC
  5
B98
330
20
100
AcDbEntity
  8
0
100
AcDbCircle
 10
748.4732968437848
 20
195.1836202154142
 30
0.0
 40
0.3
100
AcDbArc
 50
179.9999999999985
 51
269.9999999999985
  0
ARC
  5
B99
330
20
100
AcDbEntity
  8
0
100
AcDbCircle
 10
748.473296843785
 20
196.8836202154142
 30
0.0
 40
0.3
100
AcDbArc
 50
89.99999999999849
 51
179.9999999999976
  0
LINE
  5
B9A
330
20
100
AcDbEntity
  8
0
100
AcDbLine
 10
748.8732968437849
 20
197.1836202154142
 30
0.0
 11
748.473296843785
 21
197.1836202154142
 31
0.0
  0
LINE
  5
B9B
330
20
100
AcDbEntity
  8
0
100
AcDbLine
 10
753.4732968437849
 20
194.8836202154142
 30
0.0
 11
753.8732968437849
 21
194.8836202154141
 31
0.0
  0
LINE
  5
B9C
330
20
100
AcDbEntity
  8
0
100
AcDbLine
 10
748.473296843785
 20
194.8836202154143
 30
0.0
 11
748.8732968437849
 21
194.8836202154143
 31
0.0
  0
LINE
  5
B9D
330
20
100
AcDbEntity
  8
0
100
AcDbLine
 10
753.8732968437849
 20
197.1836202154141
 30
0.0
 11
753.4732968437849
 21
197.1836202154141
 31
0.0
  0
ARC
  5
B9E
330
20
100
AcDbEntity
  8
0
100
AcDbCircle
 10
762.9816888654759
 20
187.583620215414
 30
0.0
 40
0.3
100
AcDbArc
 50
9.594068226878274
 51
89.99999999999849
  0
ARC
  5
B9F
330
20
100
AcDbEntity
  8
0
100
AcDbCircle
 10
759.3649048220994
 20
187.5836202154141
 30
0.0
 40
0.3
100
AcDbArc
 50
89.99999999999849
 51
170.405931773216
  0
ARC
  5
BA0
330
20
100
AcDbEntity
  8
0
100
AcDbCircle
 10
759.3649048220934
 20
189.483620215414
 30
0.0
 40
0.3
100
AcDbArc
 50
189.5940682268783
 51
269.9999999999985
  0
ARC
  5
BA1
330
20
100
AcDbEntity
  8
0
100
AcDbCircle
 10
762.981688865476
 20
189.483620215414
 30
0.0
 40
0.3
100
AcDbArc
 50
269.9999999999985
 51
350.4059317731187
  0
ARC
  5
BA2
330
20
100
AcDbEntity
  8
0
100
AcDbCircle
 10
763.9732968437844
 20
187.6836202154139
 30
0.0
 40
0.3
100
AcDbArc
 50
269.9999999999985
 51
359.9999999999985
  0
ARC
  5
BA3
330
20
100
AcDbEntity
  8
0
100
AcDbCircle
 10
763.5732968437846
 20
187.683620215414
 30
0.0
 40
0.3
100
AcDbArc
 50
189.5940682268777
 51
269.9999999999985
  0
ARC
  5
BA4
330
20
100
AcDbEntity
  8
0
100
AcDbCircle
 10
758.7732968437846
 20
187.6836202154141
 30
0.0
 40
0.3
100
AcDbArc
 50
269.9999999999985
 51
350.4059317732156
  0
ARC
  5
BA5
330
20
100
AcDbEntity
  8
0
100
AcDbCircle
 10
758.3732968437845
 20
187.6836202154141
 30
0.0
 40
0.3
100
AcDbArc
 50
179.9999999999985
 51
269.9999999999985
  0
ARC
  5
BA6
330
20
100
AcDbEntity
  8
0
100
AcDbCircle
 10
758.3732968437847
 20
189.383620215414
 30
0.0
 40
0.3
100
AcDbArc
 50
89.99999999999733
 51
179.9999999999985
  0
ARC
  5
BA7
330
20
100
AcDbEntity
  8
0
100
AcDbCircle
 10
758.7732968437847
 20
189.383620215414
 30
0.0
 40
0.3
100
AcDbArc
 50
9.594068226880462
 51
89.99999999999774
  0
ARC
  5
BA8
330
20
100
AcDbEntity
  8
0
100
AcDbCircle
 10
763.5732968437848
 20
189.3836202154139
 30
0.0
 40
0.3
100
AcDbArc
 50
89.99999999999971
 51
170.4059317731192
  0
ARC
  5
BA9
330
20
100
AcDbEntity
  8
0
100
AcDbCircle
 10
763.9732968437847
 20
189.3836202154139
 30
0.0
 40
0.3
100
AcDbArc
 50
359.9999999999985
 51
89.9999999999992
  0
LINE
  5
BAA
330
20
100
AcDbEntity
  8
0
100
AcDbLine
 10
763.5732968437846
 20
187.3836202154141
 30
0.0
 11
763.9732968437844
 21
187.383620215414
 31
0.0
  0
LINE
  5
BAB
330
20
100
AcDbEntity
  8
0
100
AcDbLine
 10
758.7732968437847
 20
189.683620215414
 30
0.0
 11
758.3732968437847
 21
189.683620215414
 31
0.0
  0
LINE
  5
BAC
330
20
100
AcDbEntity
  8
0
100
AcDbLine
 10
763.9732968437847
 20
189.683620215414
 30
0.0
 11
763.5732968437848
 21
189.6836202154139
 31
0.0
  0
LINE
  5
BAD
330
20
100
AcDbEntity
  8
0
100
AcDbLine
 10
758.3732968437845
 20
187.3836202154141
 30
0.0
 11
758.7732968437846
 21
187.3836202154141
 31
0.0
  0
ARC
  5
BAE
330
20
100
AcDbEntity
  8
0
100
AcDbCircle
 10
797.481688865473
 20
195.0836202154129
 30
0.0
 40
0.3
100
AcDbArc
 50
9.594068226833289
 51
89.99999999999849
  0
ARC
  5
BAF
330
20
100
AcDbEntity
  8
0
100
AcDbCircle
 10
794.8649048220935
 20
195.083620215413
 30
0.0
 40
0.3
100
AcDbArc
 50
89.99999999999849
 51
170.4059317731188
  0
ARC
  5
BB0
330
20
100
AcDbEntity
  8
0
100
AcDbCircle
 10
794.8649048220937
 20
196.9836202154129
 30
0.0
 40
0.3
100
AcDbArc
 50
189.5940682268783
 51
269.9999999999985
  0
ARC
  5
BB1
330
20
100
AcDbEntity
  8
0
100
AcDbCircle
 10
797.481688865473
 20
196.9836202154129
 30
0.0
 40
0.3
100
AcDbArc
 50
269.9999999999985
 51
350.4059317731665
  0
ARC
  5
BB2
330
20
100
AcDbEntity
  8
0
100
AcDbCircle
 10
798.0732968437848
 20
195.1836202154129
 30
0.0
 40
0.3
100
AcDbArc
 50
189.5940682268304
 51
269.9999999999985
  0
ARC
  5
BB3
330
20
100
AcDbEntity
  8
0
100
AcDbCircle
 10
794.2732968437848
 20
195.183620215413
 30
0.0
 40
0.3
100
AcDbArc
 50
269.9999999999985
 51
350.4059317731166
  0
ARC
  5
BB4
330
20
100
AcDbEntity
  8
0
100
AcDbCircle
 10
794.2732968437849
 20
196.8836202154129
 30
0.0
 40
0.3
100
AcDbArc
 50
9.594068226880462
 51
89.99999999999849
  0
ARC
  5
BB5
330
20
100
AcDbEntity
  8
0
100
AcDbCircle
 10
798.0732968437849
 20
196.8836202154129
 30
0.0
 40
0.3
100
AcDbArc
 50
89.99999999999849
 51
170.4059317731692
  0
LINE
  5
BB6
330
20
100
AcDbEntity
  8
0
100
AcDbLine
 10
794.2732968437849
 20
197.1836202154129
 30
0.0
 11
793.8732968437849
 21
197.1836202154129
 31
0.0
  0
LINE
  5
BB7
330
20
100
AcDbEntity
  8
0
100
AcDbLine
 10
798.0732968437849
 20
194.883620215413
 30
0.0
 11
798.473296843785
 21
194.8836202154129
 31
0.0
  0
ARC
  5
BB8
330
20
100
AcDbEntity
  8
0
100
AcDbCircle
 10
793.8732968437848
 20
195.183620215413
 30
0.0
 40
0.3
100
AcDbArc
 50
179.9999999999993
 51
269.9999999999985
  0
ARC
  5
BB9
330
20
100
AcDbEntity
  8
0
100
AcDbCircle
 10
793.8732968437849
 20
196.8836202154129
 30
0.0
 40
0.3
100
AcDbArc
 50
89.99999999999834
 51
179.9999999999985
  0
ARC
  5
BBA
330
20
100
AcDbEntity
  8
0
100
AcDbCircle
 10
798.473296843785
 20
196.8836202154128
 30
0.0
 40
0.3
100
AcDbArc
 50
0.0000000000001285
 51
89.99999999999849
  0
ARC
  5
BBB
330
20
100
AcDbEntity
  8
0
100
AcDbCircle
 10
798.4732968437848
 20
195.1836202154129
 30
0.0
 40
0.3
100
AcDbArc
 50
269.9999999999985
 51
0.0
  0
LINE
  5
BBC
330
20
100
AcDbEntity
  8
0
100
AcDbLine
 10
798.473296843785
 20
197.1836202154128
 30
0.0
 11
798.0732968437849
 21
197.1836202154128
 31
0.0
  0
LINE
  5
BBD
330
20
100
AcDbEntity
  8
0
100
AcDbLine
 10
793.8732968437849
 20
194.883620215413
 30
0.0
 11
794.2732968437849
 21
194.883620215413
 31
0.0
  0
ARC
  5
BBE
330
20
100
AcDbEntity
  8
0
100
AcDbCircle
 10
805.4816888654729
 20
187.5836202154128
 30
0.0
 40
0.3
100
AcDbArc
 50
9.59406822683054
 51
89.99999999999849
  0
ARC
  5
BBF
330
20
100
AcDbEntity
  8
0
100
AcDbCircle
 10
802.8649048220932
 20
187.5836202154129
 30
0.0
 40
0.3
100
AcDbArc
 50
89.99999999999849
 51
170.405931773116
  0
ARC
  5
BC0
330
20
100
AcDbEntity
  8
0
100
AcDbCircle
 10
802.8649048220934
 20
189.4836202154127
 30
0.0
 40
0.3
100
AcDbArc
 50
189.5940682268783
 51
269.9999999999985
  0
ARC
  5
BC1
330
20
100
AcDbEntity
  8
0
100
AcDbCircle
 10
805.4816888654729
 20
189.4836202154128
 30
0.0
 40
0.3
100
AcDbArc
 50
269.9999999999985
 51
350.4059317731638
  0
ARC
  5
BC2
330
20
100
AcDbEntity
  8
0
100
AcDbCircle
 10
806.0732968437847
 20
189.3836202154128
 30
0.0
 40
0.3
100
AcDbArc
 50
89.99999999999971
 51
170.4059317731666
  0
ARC
  5
BC3
330
20
100
AcDbEntity
  8
0
100
AcDbCircle
 10
806.0732968437847
 20
187.6836202154128
 30
0.0
 40
0.3
100
AcDbArc
 50
189.5940682268278
 51
269.9999999999973
  0
ARC
  5
BC4
330
20
100
AcDbEntity
  8
0
100
AcDbCircle
 10
802.2732968437846
 20
187.6836202154129
 30
0.0
 40
0.3
100
AcDbArc
 50
269.9999999999996
 51
350.4059317731166
  0
ARC
  5
BC5
330
20
100
AcDbEntity
  8
0
100
AcDbCircle
 10
802.2732968437846
 20
189.3836202154129
 30
0.0
 40
0.3
100
AcDbArc
 50
9.594068226877713
 51
89.99999999999733
  0
LINE
  5
BC6
330
20
100
AcDbEntity
  8
0
100
AcDbLine
 10
806.0732968437847
 20
187.3836202154129
 30
0.0
 11
806.4732968437844
 21
187.3836202154129
 31
0.0
  0
LINE
  5
BC7
330
20
100
AcDbEntity
  8
0
100
AcDbLine
 10
802.2732968437846
 20
189.6836202154128
 30
0.0
 11
801.8732968437847
 21
189.6836202154128
 31
0.0
  0
ARC
  5
BC8
330
20
100
AcDbEntity
  8
0
100
AcDbCircle
 10
806.4732968437844
 20
187.6836202154128
 30
0.0
 40
0.3
100
AcDbArc
 50
269.9999999999985
 51
359.9999999999985
  0
ARC
  5
BC9
330
20
100
AcDbEntity
  8
0
100
AcDbCircle
 10
806.4732968437848
 20
189.3836202154128
 30
0.0
 40
0.3
100
AcDbArc
 50
359.9999999999985
 51
89.99999999999849
  0
ARC
  5
BCA
330
20
100
AcDbEntity
  8
0
100
AcDbCircle
 10
801.8732968437845
 20
187.6836202154129
 30
0.0
 40
0.3
100
AcDbArc
 50
179.9999999999985
 51
269.9999999999985
  0
ARC
  5
BCB
330
20
100
AcDbEntity
  8
0
100
AcDbCircle
 10
801.8732968437847
 20
189.3836202154129
 30
0.0
 40
0.3
100
AcDbArc
 50
89.99999999999849
 51
179.9999999999985
  0
LINE
  5
BCC
330
20
100
AcDbEntity
  8
0
100
AcDbLine
 10
806.4732968437848
 20
189.6836202154127
 30
0.0
 11
806.0732968437847
 21
189.6836202154127
 31
0.0
  0
LINE
  5
BCD
330
20
100
AcDbEntity
  8
0
100
AcDbLine
 10
801.8732968437845
 20
187.383620215413
 30
0.0
 11
802.2732968437846
 21
187.383620215413
 31
0.0
  0
CIRCLE
  5
BCE
330
20
100
AcDbEntity
  8
0
100
AcDbCircle
 10
815.1732968437846
 20
185.5836202154125
 30
0.0
 40
1.825
  0
CIRCLE
  5
BCF
330
20
100
AcDbEntity
  8
0
100
AcDbCircle
 10
741.6732968437846
 20
185.5836202154147
 30
0.0
 40
2.0
  0
LINE
  5
BD0
330
20
100
AcDbEntity
  8
0
100
AcDbLine
 10
793.5732968437849
 20
196.8836202154131
 30
0.0
 11
793.5732968437848
 21
195.1836202154132
 31
0.0
  0
LINE
  5
BD1
330
20
100
AcDbEntity
  8
0
100
AcDbLine
 10
797.4816888654729
 20
196.6836202154128
 30
0.0
 11
794.8649048220935
 21
196.683620215413
 31
0.0
  0
LINE
  5
BD2
330
20
100
AcDbEntity
  8
0
100
AcDbLine
 10
798.7732968437849
 20
195.1836202154129
 30
0.0
 11
798.773296843785
 21
196.8836202154128
 31
0.0
  0
LINE
  5
BD3
330
20
100
AcDbEntity
  8
0
100
AcDbLine
 10
794.8649048220935
 20
195.383620215413
 30
0.0
 11
797.481688865473
 21
195.3836202154129
 31
0.0
  0
CIRCLE
  5
BD4
330
20
100
AcDbEntity
  8
0
100
AcDbCircle
 10
815.1732968437846
 20
185.5836202154125
 30
0.0
 40
2.0
  0
ARC
  5
BD5
330
20
100
AcDbEntity
  8
0
100
AcDbCircle
 10
797.673296843786
 20
241.0836202154131
 30
0.0
 40
0.5
100
AcDbArc
 50
359.9999999999985
 51
89.99999999999824
  0
ARC
  5
BD6
330
20
100
AcDbEntity
  8
0
100
AcDbCircle
 10
733.673296843786
 20
239.5836202154149
 30
0.0
 40
2.0
100
AcDbArc
 50
89.99999999999774
 51
179.9999999999985
  0
LINE
  5
BD7
330
20
100
AcDbEntity
  8
0
100
AcDbLine
 10
798.173296843786
 20
241.083620215413
 30
0.0
 11
798.1732968437861
 21
240.3336202154131
 31
0.0
  0
LINE
  5
BD8
330
20
100
AcDbEntity
  8
0
100
AcDbLine
 10
798.1732968437861
 20
240.3336202154131
 30
0.0
 11
802.8732968437859
 21
240.333620215413
 31
0.0
  0
LINE
  5
BD9
330
20
100
AcDbEntity
  8
0
100
AcDbLine
 10
748.1732968437849
 20
196.8836202154142
 30
0.0
 11
748.1732968437848
 21
195.1836202154142
 31
0.0
  0
LINE
  5
BDA
330
20
100
AcDbEntity
  8
0
100
AcDbLine
 10
752.8816888654761
 20
196.6836202154141
 30
0.0
 11
749.4649048220935
 21
196.6836202154142
 31
0.0
  0
LINE
  5
BDB
330
20
100
AcDbEntity
  8
0
100
AcDbLine
 10
754.1732968437847
 20
195.1836202154141
 30
0.0
 11
754.1732968437848
 21
196.8836202154141
 31
0.0
  0
LINE
  5
BDC
330
20
100
AcDbEntity
  8
0
100
AcDbLine
 10
749.4649048220935
 20
195.3836202154142
 30
0.0
 11
752.8816888654761
 21
195.3836202154142
 31
0.0
  0
LINE
  5
BDD
330
20
100
AcDbEntity
  8
0
100
AcDbLine
 10
758.0732968437846
 20
189.383620215414
 30
0.0
 11
758.0732968437845
 21
187.6836202154141
 31
0.0
  0
LINE
  5
BDE
330
20
100
AcDbEntity
  8
0
100
AcDbLine
 10
762.981688865476
 20
189.1836202154139
 30
0.0
 11
759.3649048220934
 21
189.1836202154141
 31
0.0
  0
LINE
  5
BDF
330
20
100
AcDbEntity
  8
0
100
AcDbLine
 10
764.2732968437845
 20
187.6836202154139
 30
0.0
 11
764.2732968437846
 21
189.3836202154139
 31
0.0
  0
LINE
  5
BE0
330
20
100
AcDbEntity
  8
0
100
AcDbLine
 10
759.3649048220994
 20
187.8836202154141
 30
0.0
 11
762.9816888654759
 21
187.8836202154141
 31
0.0
  0
LINE
  5
BE1
330
20
100
AcDbEntity
  8
0
100
AcDbLine
 10
801.5732968437847
 20
189.3836202154129
 30
0.0
 11
801.5732968437845
 21
187.6836202154129
 31
0.0
  0
LINE
  5
BE2
330
20
100
AcDbEntity
  8
0
100
AcDbLine
 10
805.4816888654729
 20
189.1836202154127
 30
0.0
 11
802.8649048220934
 21
189.1836202154128
 31
0.0
  0
LINE
  5
BE3
330
20
100
AcDbEntity
  8
0
100
AcDbLine
 10
806.7732968437846
 20
187.6836202154128
 30
0.0
 11
806.7732968437846
 21
189.3836202154127
 31
0.0
  0
LINE
  5
BE4
330
20
100
AcDbEntity
  8
0
100
AcDbLine
 10
802.8649048220932
 20
187.8836202154129
 30
0.0
 11
805.4816888654729
 21
187.8836202154129
 31
0.0
  0
LINE
  5
BE5
330
20
100
AcDbEntity
  8
0
100
AcDbLine
 10
731.6732968437845
 20
183.583620215415
 30
0.0
 11
731.673296843786
 21
239.583620215415
 31
0.0
  0
ARC
  5
BE6
330
20
100
AcDbEntity
  8
0
100
AcDbCircle
 10
733.6732968437845
 20
183.5836202154149
 30
0.0
 40
2.0
100
AcDbArc
 50
179.9999999999985
 51
269.9999999999983
  0
LINE
  5
BE7
330
20
100
AcDbEntity
  8
0
100
AcDbLine
 10
823.8935009466727
 20
181.5836202154121
 30
0.0
 11
733.6732968437844
 21
181.5836202154149
 31
0.0
  0
CIRCLE
  5
BE8
330
20
100
AcDbEntity
  8
0
100
AcDbCircle
 10
782.6732968437858
 20
227.1836202154132
 30
0.0
 40
2.0
  0
LINE
  5
BE9
330
20
100
AcDbEntity
  8
0
100
AcDbLine
 10
821.7732968437845
 20
187.7752281937226
 30
0.0
 11
821.7732968437847
 21
190.3920122371022
 31
0.0
  0
LINE
  5
BEA
330
20
100
AcDbEntity
  8
0
100
AcDbLine
 10
821.9732968437847
 20
191.6836202154139
 30
0.0
 11
820.2732968437848
 21
191.683620215414
 31
0.0
  0
LINE
  5
BEB
330
20
100
AcDbEntity
  8
0
100
AcDbLine
 10
820.4732968437847
 20
190.3920122371022
 30
0.0
 11
820.4732968437847
 21
187.7752281937227
 31
0.0
  0
LINE
  5
BEC
330
20
100
AcDbEntity
  8
0
100
AcDbLine
 10
820.2732968437846
 20
186.4836202154139
 30
0.0
 11
821.9732968437845
 21
186.4836202154139
 31
0.0
  0
LINE
  5
BED
330
20
100
AcDbEntity
  8
0
100
AcDbLine
 10
822.2732968437847
 20
186.7836202154139
 30
0.0
 11
822.2732968437847
 21
187.1836202154139
 31
0.0
  0
LINE
  5
BEE
330
20
100
AcDbEntity
  8
0
100
AcDbLine
 10
819.9732968437848
 20
191.383620215414
 30
0.0
 11
819.9732968437848
 21
190.983620215414
 31
0.0
  0
ARC
  5
BEF
330
20
100
AcDbEntity
  8
0
100
AcDbCircle
 10
820.2732968437848
 20
186.783620215414
 30
0.0
 40
0.3
100
AcDbArc
 50
179.9999999999985
 51
269.9999999999985
  0
ARC
  5
BF0
330
20
100
AcDbEntity
  8
0
100
AcDbCircle
 10
821.9732968437847
 20
186.7836202154139
 30
0.0
 40
0.3
100
AcDbArc
 50
269.9999999999985
 51
359.9999999999985
  0
ARC
  5
BF1
330
20
100
AcDbEntity
  8
0
100
AcDbCircle
 10
820.273296843785
 20
191.383620215414
 30
0.0
 40
0.3
100
AcDbArc
 50
89.99999999999849
 51
179.9999999999985
  0
ARC
  5
BF2
330
20
100
AcDbEntity
  8
0
100
AcDbCircle
 10
821.9732968437849
 20
191.3836202154138
 30
0.0
 40
0.3
100
AcDbArc
 50
359.9999999999985
 51
89.99999999999849
  0
LINE
  5
BF3
330
20
100
AcDbEntity
  8
0
100
AcDbLine
 10
819.9732968437848
 20
187.183620215414
 30
0.0
 11
819.9732968437848
 21
186.783620215414
 31
0.0
  0
LINE
  5
BF4
330
20
100
AcDbEntity
  8
0
100
AcDbLine
 10
822.2732968437847
 20
190.983620215414
 30
0.0
 11
822.2732968437847
 21
191.3836202154138
 31
0.0
  0
ARC
  5
BF5
330
20
100
AcDbEntity
  8
0
100
AcDbCircle
 10
820.2732968437848
 20
187.183620215414
 30
0.0
 40
0.3
100
AcDbArc
 50
99.59406822687771
 51
179.9999999999972
  0
ARC
  5
BF6
330
20
100
AcDbEntity
  8
0
100
AcDbCircle
 10
821.9732968437845
 20
187.1836202154139
 30
0.0
 40
0.3
100
AcDbArc
 50
359.9999999999996
 51
80.40593177311649
  0
ARC
  5
BF7
330
20
100
AcDbEntity
  8
0
100
AcDbCircle
 10
821.9732968437847
 20
190.983620215414
 30
0.0
 40
0.3
100
AcDbArc
 50
279.5940682268277
 51
359.9999999999973
  0
ARC
  5
BF8
330
20
100
AcDbEntity
  8
0
100
AcDbCircle
 10
820.2732968437848
 20
190.983620215414
 30
0.0
 40
0.3
100
AcDbArc
 50
179.9999999999996
 51
260.4059317731665
  0
ARC
  5
BF9
330
20
100
AcDbEntity
  8
0
100
AcDbCircle
 10
820.1732968437848
 20
190.3920122371022
 30
0.0
 40
0.3
100
AcDbArc
 50
359.9999999999985
 51
80.40593177316376
  0
ARC
  5
BFA
330
20
100
AcDbEntity
  8
0
100
AcDbCircle
 10
820.1732968437847
 20
187.7752281937227
 30
0.0
 40
0.3
100
AcDbArc
 50
279.5940682268782
 51
359.9999999999985
  0
ARC
  5
BFB
330
20
100
AcDbEntity
  8
0
100
AcDbCircle
 10
822.0732968437845
 20
187.7752281937226
 30
0.0
 40
0.3
100
AcDbArc
 50
179.9999999999985
 51
260.405931773116
  0
ARC
  5
BFC
330
20
100
AcDbEntity
  8
0
100
AcDbCircle
 10
822.0732968437847
 20
190.3920122371022
 30
0.0
 40
0.3
100
AcDbArc
 50
99.59406822683066
 51
179.9999999999985
  0
LINE
  5
BFD
330
20
100
AcDbEntity
  8
0
100
AcDbLine
 10
797.673296843786
 20
241.5836202154129
 30
0.0
 11
733.673296843786
 21
241.5836202154154
 31
0.0
  0
CIRCLE
  5
BFE
330
20
100
AcDbEntity
  8
0
100
AcDbCircle
 10
774.6732968437858
 20
236.5836202154138
 30
0.0
 40
2.0
  0
CIRCLE
  5
BFF
330
20
100
AcDbEntity
  8
0
100
AcDbCircle
 10
774.6732968437858
 20
236.5836202154138
 30
0.0
 40
1.825
  0
LINE
  5
C00
330
20
100
AcDbEntity
  8
0
100
AcDbLine
 10
781.6732968437851
 20
196.0836202154134
 30
0.0
 11
771.673296843785
 21
196.0836202154138
 31
0.0
  0
LINE
  5
C01
330
20
100
AcDbEntity
  8
0
100
AcDbLine
 10
771.173296843785
 20
195.5836202154138
 30
0.0
 11
771.1732968437849
 21
186.5836202154136
 31
0.0
  0
LINE
  5
C02
330
20
100
AcDbEntity
  8
0
100
AcDbLine
 10
771.6732968437849
 20
186.0836202154136
 30
0.0
 11
781.6732968437849
 21
186.0836202154134
 31
0.0
  0
LINE
  5
C03
330
20
100
AcDbEntity
  8
0
100
AcDbLine
 10
782.1732968437848
 20
186.5836202154134
 30
0.0
 11
782.1732968437851
 21
195.5836202154134
 31
0.0
  0
ARC
  5
C04
330
20
100
AcDbEntity
  8
0
100
AcDbCircle
 10
781.6732968437851
 20
195.5836202154134
 30
0.0
 40
0.5
100
AcDbArc
 50
359.9999999999985
 51
89.99999999999809
  0
ARC
  5
C05
330
20
100
AcDbEntity
  8
0
100
AcDbCircle
 10
771.673296843785
 20
195.5836202154138
 30
0.0
 40
0.5
100
AcDbArc
 50
89.99999999999809
 51
179.9999999999986
  0
ARC
  5
C06
330
20
100
AcDbEntity
  8
0
100
AcDbCircle
 10
771.6732968437849
 20
186.5836202154136
 30
0.0
 40
0.5
100
AcDbArc
 50
179.9999999999986
 51
269.9999999999982
  0
ARC
  5
C07
330
20
100
AcDbEntity
  8
0
100
AcDbCircle
 10
781.6732968437849
 20
186.5836202154134
 30
0.0
 40
0.5
100
AcDbArc
 50
269.9999999999982
 51
359.9999999999985
  0
LINE
  5
C08
330
20
100
AcDbEntity
  8
0
100
AcDbLine
 10
734.673296843785
 20
202.0836202154149
 30
0.0
 11
738.673296843785
 21
202.0836202154148
 31
0.0
  0
LINE
  5
C09
330
20
100
AcDbEntity
  8
0
100
AcDbLine
 10
739.173296843785
 20
202.5836202154148
 30
0.0
 11
739.173296843785
 21
206.5836202154148
 31
0.0
  0
LINE
  5
C0A
330
20
100
AcDbEntity
  8
0
100
AcDbLine
 10
738.6732968437851
 20
207.0836202154148
 30
0.0
 11
734.6732968437851
 21
207.0836202154149
 31
0.0
  0
LINE
  5
C0B
330
20
100
AcDbEntity
  8
0
100
AcDbLine
 10
734.1732968437851
 20
206.5836202154149
 30
0.0
 11
734.1732968437851
 21
202.5836202154149
 31
0.0
  0
ARC
  5
C0C
330
20
100
AcDbEntity
  8
0
100
AcDbCircle
 10
734.6732968437851
 20
202.5836202154149
 30
0.0
 40
0.5
100
AcDbArc
 50
179.9999999999985
 51
269.9999999999985
  0
ARC
  5
C0D
330
20
100
AcDbEntity
  8
0
100
AcDbCircle
 10
734.6732968437851
 20
206.5836202154149
 30
0.0
 40
0.5
100
AcDbArc
 50
89.99999999999849
 51
179.9999999999985
  0
ARC
  5
C0E
330
20
100
AcDbEntity
  8
0
100
AcDbCircle
 10
738.6732968437851
 20
206.5836202154148
 30
0.0
 40
0.5
100
AcDbArc
 50
359.9999999999985
 51
89.99999999999849
  0
ARC
  5
C0F
330
20
100
AcDbEntity
  8
0
100
AcDbCircle
 10
738.6732968437851
 20
202.5836202154148
 30
0.0
 40
0.5
100
AcDbArc
 50
269.9999999999985
 51
359.9999999999985
  0
ARC
  5
C10
330
20
100
AcDbEntity
  8
0
100
AcDbCircle
 10
785.5816888654737
 20
203.4836202154131
 30
0.0
 40
0.3
100
AcDbArc
 50
9.594068226830744
 51
89.99999999999774
  0
ARC
  5
C11
330
20
100
AcDbEntity
  8
0
100
AcDbCircle
 10
785.5816888654767
 20
205.7836202154131
 30
0.0
 40
0.3
100
AcDbArc
 50
269.9999999999978
 51
350.4059317731188
  0
ARC
  5
C12
330
20
100
AcDbEntity
  8
0
100
AcDbCircle
 10
786.5732968437854
 20
203.5836202154132
 30
0.0
 40
0.3
100
AcDbArc
 50
269.9999999999986
 51
359.9999999999986
  0
ARC
  5
C13
330
20
100
AcDbEntity
  8
0
100
AcDbCircle
 10
786.1732968437855
 20
203.5836202154132
 30
0.0
 40
0.3
100
AcDbArc
 50
189.5940682268278
 51
269.9999999999986
  0
ARC
  5
C14
330
20
100
AcDbEntity
  8
0
100
AcDbCircle
 10
786.1732968437855
 20
205.6836202154131
 30
0.0
 40
0.3
100
AcDbArc
 50
89.99999999999626
 51
170.4059317731193
  0
ARC
  5
C15
330
20
100
AcDbEntity
  8
0
100
AcDbCircle
 10
786.5732968437855
 20
205.6836202154131
 30
0.0
 40
0.3
100
AcDbArc
 50
359.9999999999992
 51
89.99999999999777
  0
LINE
  5
C16
330
20
100
AcDbEntity
  8
0
100
AcDbLine
 10
786.1732968437855
 20
203.2836202154132
 30
0.0
 11
786.5732968437854
 21
203.2836202154133
 31
0.0
  0
LINE
  5
C17
330
20
100
AcDbEntity
  8
0
100
AcDbLine
 10
786.5732968437855
 20
205.9836202154132
 30
0.0
 11
786.1732968437855
 21
205.9836202154131
 31
0.0
  0
LINE
  5
C18
330
20
100
AcDbEntity
  8
0
100
AcDbLine
 10
785.5816888654767
 20
205.4836202154131
 30
0.0
 11
774.5649048220943
 21
205.4836202154134
 31
0.0
  0
LINE
  5
C19
330
20
100
AcDbEntity
  8
0
100
AcDbLine
 10
774.5649048220972
 20
203.7836202154134
 30
0.0
 11
785.5816888654737
 21
203.7836202154132
 31
0.0
  0
LINE
  5
C1A
330
20
100
AcDbEntity
  8
0
100
AcDbLine
 10
773.2732968437853
 20
203.5836202154135
 30
0.0
 11
773.2732968437854
 21
205.6836202154135
 31
0.0
  0
LINE
  5
C1B
330
20
100
AcDbEntity
  8
0
100
AcDbLine
 10
773.5732968437855
 20
205.9836202154135
 30
0.0
 11
773.9732968437855
 21
205.9836202154134
 31
0.0
  0
LINE
  5
C1C
330
20
100
AcDbEntity
  8
0
100
AcDbLine
 10
773.9732968437854
 20
203.2836202154135
 30
0.0
 11
773.5732968437854
 21
203.2836202154136
 31
0.0
  0
ARC
  5
C1D
330
20
100
AcDbEntity
  8
0
100
AcDbCircle
 10
773.5732968437855
 20
205.6836202154134
 30
0.0
 40
0.3
100
AcDbArc
 50
89.99999999999936
 51
179.9999999999979
  0
ARC
  5
C1E
330
20
100
AcDbEntity
  8
0
100
AcDbCircle
 10
773.9732968437855
 20
205.6836202154133
 30
0.0
 40
0.3
100
AcDbArc
 50
9.594068226877867
 51
90.0000000000009
  0
ARC
  5
C1F
330
20
100
AcDbEntity
  8
0
100
AcDbCircle
 10
773.9732968437854
 20
203.5836202154134
 30
0.0
 40
0.3
100
AcDbArc
 50
269.9999999999986
 51
350.4059317731692
  0
ARC
  5
C20
330
20
100
AcDbEntity
  8
0
100
AcDbCircle
 10
773.5732968437854
 20
203.5836202154135
 30
0.0
 40
0.3
100
AcDbArc
 50
179.9999999999986
 51
269.9999999999986
  0
ARC
  5
C21
330
20
100
AcDbEntity
  8
0
100
AcDbCircle
 10
774.5649048220943
 20
205.7836202154134
 30
0.0
 40
0.3
100
AcDbArc
 50
189.5940682268783
 51
269.9999999999986
  0
ARC
  5
C22
330
20
100
AcDbEntity
  8
0
100
AcDbCircle
 10
774.5649048220972
 20
203.4836202154134
 30
0.0
 40
0.3
100
AcDbArc
 50
89.99999999999859
 51
170.4059317731664
  0
ARC
  5
C23
330
20
100
AcDbEntity
  8
0
100
AcDbCircle
 10
800.7560012403382
 20
219.8500522253683
 30
0.0
 40
10.0
100
AcDbArc
 50
4.999999999997935
 51
22.47813644742659
  0
LINE
  5
C24
330
20
100
AcDbEntity
  8
0
100
AcDbLine
 10
810.9297797629867
 20
218.3003640514826
 30
0.0
 11
810.7179482212558
 21
220.7216096528446
 31
0.0
  0
LINE
  5
C25
330
20
100
AcDbEntity
  8
0
100
AcDbLine
 10
817.4050453005831
 20
218.8668763793421
 30
0.0
 11
816.9486393544083
 21
224.0836202154124
 31
0.0
  0
ARC
  5
C26
330
20
100
AcDbEntity
  8
0
100
AcDbCircle
 10
814.167412531785
 20
218.5836202154124
 30
0.0
 40
3.25
100
AcDbArc
 50
332.5135737496176
 51
4.999999999998393
  0
LINE
  5
C27
330
20
100
AcDbEntity
  8
0
100
AcDbLine
 10
802.8732968437859
 20
240.3836202154126
 30
0.0
 11
798.1732968437861
 21
240.3836202154128
 31
0.0
  0
LINE
  5
C28
330
20
100
AcDbEntity
  8
0
100
AcDbLine
 10
798.6732968437863
 20
240.3836202154128
 30
0.0
 11
798.6732968437861
 21
241.5836202154127
 31
0.0
  0
ARC
  5
C29
330
20
100
AcDbEntity
  8
0
100
AcDbCircle
 10
785.4643539911758
 20
205.6836202154131
 30
0.0
 40
1.0
100
AcDbArc
 50
191.5369590328091
 51
201.5101882668888
  0
LINE
  5
C2A
330
20
100
AcDbEntity
  8
0
100
AcDbLine
 10
780.6732968437852
 20
205.3836202154133
 30
0.0
 11
780.6732968437853
 21
205.4836202154133
 31
0.0
  0
ARC
  5
C2B
330
20
100
AcDbEntity
  8
0
100
AcDbCircle
 10
782.6732968437852
 20
204.583620215413
 30
0.0
 40
2.0
100
AcDbArc
 50
336.4218215218068
 51
339.5126848852815
  0
LINE
  5
C2C
330
20
100
AcDbEntity
  8
0
100
AcDbLine
 10
777.2732968437851
 20
205.3836202154133
 30
0.0
 11
777.2732968437851
 21
203.8836202154133
 31
0.0
  0
LINE
  5
C2D
330
20
100
AcDbEntity
  8
0
100
AcDbLine
 10
773.2732968437854
 20
205.3836202154135
 30
0.0
 11
786.8732968437853
 21
205.3836202154131
 31
0.0
  0
LINE
  5
C2E
330
20
100
AcDbEntity
  8
0
100
AcDbLine
 10
774.6732968437852
 20
203.8836202154134
 30
0.0
 11
786.8732968437854
 21
203.8836202154131
 31
0.0
  0
LINE
  5
C2F
330
20
100
AcDbEntity
  8
T
100
AcDbLine
 10
771.0232968437857
 20
236.5836202154139
 30
0.0
 11
778.3232968437858
 21
236.5836202154137
 31
0.0
  0
LINE
  5
C30
330
20
100
AcDbEntity
  8
T
100
AcDbLine
 10
774.6732968437858
 20
232.9336202154137
 30
0.0
 11
774.673296843786
 21
240.2336202154139
 31
0.0
  0
LINE
  5
C31
330
20
100
AcDbEntity
  8
T
100
AcDbLine
 10
811.5232968437846
 20
185.5836202154125
 30
0.0
 11
818.8232968437848
 21
185.5836202154123
 31
0.0
  0
LINE
  5
C32
330
20
100
AcDbEntity
  8
0
100
AcDbLine
 10
815.1732968437844
 20
181.9336202154124
 30
0.0
 11
815.1732968437846
 21
189.2336202154126
 31
0.0
  0
LINE
  5
C33
330
20
100
AcDbEntity
  8
T
100
AcDbLine
 10
738.0232968437846
 20
185.5836202154148
 30
0.0
 11
745.3232968437846
 21
185.5836202154146
 31
0.0
  0
LINE
  5
C34
330
20
100
AcDbEntity
  8
T
100
AcDbLine
 10
741.6732968437844
 20
181.9336202154146
 30
0.0
 11
741.6732968437846
 21
189.2336202154148
 31
0.0
  0
ARC
  5
C35
330
20
100
AcDbEntity
  8
0
100
AcDbCircle
 10
782.6732968437852
 20
204.583620215413
 30
0.0
 40
2.0
100
AcDbArc
 50
200.4873151147158
 51
203.5781784781916
  0
ARC
  5
C36
330
20
100
AcDbEntity
  8
0
100
AcDbCircle
 10
814.167412531785
 20
218.5836202154124
 30
0.0
 40
3.25
100
AcDbArc
 50
184.9999999999979
 51
207.4864262503823
  0
LINE
  5
C37
330
20
100
AcDbEntity
  8
0
100
AcDbLine
 10
758.6732968437846
 20
187.8836202154141
 30
0.0
 11
764.2732968437845
 21
187.883620215414
 31
0.0
  0
LINE
  5
C38
330
20
100
AcDbEntity
  8
0
100
AcDbLine
 10
806.7732968437846
 20
189.0836202154126
 30
0.0
 11
801.5732968437847
 21
189.0836202154127
 31
0.0
  0
LINE
  5
C39
330
20
100
AcDbEntity
  8
0
100
AcDbLine
 10
758.6732968437847
 20
189.0836202154142
 30
0.0
 11
758.6732968437846
 21
187.8836202154141
 31
0.0
  0
LINE
  5
C3A
330
20
100
AcDbEntity
  8
0
100
AcDbLine
 10
801.6732968437846
 20
189.0836202154127
 30
0.0
 11
801.6732968437846
 21
187.8836202154128
 31
0.0
  0
LINE
  5
C3B
330
20
100
AcDbEntity
  8
0
100
AcDbLine
 10
771.1732968437849
 20
187.8836202154137
 30
0.0
 11
782.1732968437848
 21
187.8836202154134
 31
0.0
  0
LINE
  5
C3C
330
20
100
AcDbEntity
  8
0
100
AcDbLine
 10
764.2732968437846
 20
189.0836202154139
 30
0.0
 11
758.6732968437847
 21
189.0836202154142
 31
0.0
  0
LINE
  5
C3D
330
20
100
AcDbEntity
  8
0
100
AcDbLine
 10
801.5732968437845
 20
187.8836202154128
 30
0.0
 11
806.7732968437846
 21
187.8836202154125
 31
0.0
  0
LINE
  5
C3E
330
20
100
AcDbEntity
  8
0
100
AcDbLine
 10
782.173296843785
 20
189.0836202154133
 30
0.0
 11
771.173296843785
 21
189.0836202154137
 31
0.0
  0
LINE
  5
C3F
330
20
100
AcDbEntity
  8
0
100
AcDbLine
 10
800.1732968437861
 20
244.0836202154128
 30
0.0
 11
800.1732968437861
 21
241.5836202154128
 31
0.0
  0
LINE
  5
C40
330
20
100
AcDbEntity
  8
0
100
AcDbLine
 10
802.8935009466728
 20
241.5836202154127
 30
0.0
 11
797.673296843786
 21
241.5836202154129
 31
0.0
  0
LINE
  5
C41
330
20
100
AcDbEntity
  8
0
100
AcDbLine
 10
778.2732968437851
 20
205.3836202154133
 30
0.0
 11
778.2732968437852
 21
205.4836202154133
 31
0.0
  0
LINE
  5
C42
330
20
100
AcDbEntity
  8
0
100
AcDbLine
 10
742.1732968437847
 20
192.0836202154143
 30
0.0
 11
741.6732968437848
 21
194.3836202154144
 31
0.0
  0
LINE
  5
C43
330
20
100
AcDbEntity
  8
0
100
AcDbLine
 10
744.4732968437847
 20
191.5836202154143
 30
0.0
 11
742.1732968437847
 21
192.0836202154143
 31
0.0
  0
LINE
  5
C44
330
20
100
AcDbEntity
  8
0
100
AcDbLine
 10
742.1732968437847
 20
191.0836202154143
 30
0.0
 11
744.4732968437847
 21
191.5836202154143
 31
0.0
  0
LINE
  5
C45
330
20
100
AcDbEntity
  8
0
100
AcDbLine
 10
741.6732968437846
 20
188.7836202154144
 30
0.0
 11
742.1732968437847
 21
191.0836202154143
 31
0.0
  0
LINE
  5
C46
330
20
100
AcDbEntity
  8
0
100
AcDbLine
 10
741.1732968437847
 20
191.0836202154144
 30
0.0
 11
741.6732968437846
 21
188.7836202154144
 31
0.0
  0
LINE
  5
C47
330
20
100
AcDbEntity
  8
0
100
AcDbLine
 10
738.8732968437848
 20
191.5836202154145
 30
0.0
 11
741.1732968437847
 21
191.0836202154144
 31
0.0
  0
LINE
  5
C48
330
20
100
AcDbEntity
  8
0
100
AcDbLine
 10
741.1732968437847
 20
192.0836202154144
 30
0.0
 11
738.8732968437848
 21
191.5836202154145
 31
0.0
  0
LINE
  5
C49
330
20
100
AcDbEntity
  8
0
100
AcDbLine
 10
741.6732968437848
 20
194.3836202154144
 30
0.0
 11
741.1732968437847
 21
192.0836202154144
 31
0.0
  0
CIRCLE
  5
C4A
330
20
100
AcDbEntity
  8
0
100
AcDbCircle
 10
741.6732968437847
 20
191.5836202154144
 30
0.0
 40
2.799999999999999
  0
CIRCLE
  5
C4B
330
20
100
AcDbEntity
  8
0
100
AcDbCircle
 10
815.1732968437848
 20
191.5836202154125
 30
0.0
 40
2.799999999999999
  0
LINE
  5
C4C
330
20
100
AcDbEntity
  8
0
100
AcDbLine
 10
815.1732968437849
 20
194.3836202154125
 30
0.0
 11
814.6732968437847
 21
192.0836202154125
 31
0.0
  0
LINE
  5
C4D
330
20
100
AcDbEntity
  8
0
100
AcDbLine
 10
814.6732968437847
 20
192.0836202154125
 30
0.0
 11
812.3732968437847
 21
191.5836202154126
 31
0.0
  0
LINE
  5
C4E
330
20
100
AcDbEntity
  8
0
100
AcDbLine
 10
812.3732968437847
 20
191.5836202154126
 30
0.0
 11
814.6732968437847
 21
191.0836202154125
 31
0.0
  0
LINE
  5
C4F
330
20
100
AcDbEntity
  8
0
100
AcDbLine
 10
814.6732968437847
 20
191.0836202154125
 30
0.0
 11
815.1732968437846
 21
188.7836202154124
 31
0.0
  0
LINE
  5
C50
330
20
100
AcDbEntity
  8
0
100
AcDbLine
 10
815.1732968437846
 20
188.7836202154124
 30
0.0
 11
815.6732968437847
 21
191.0836202154125
 31
0.0
  0
LINE
  5
C51
330
20
100
AcDbEntity
  8
0
100
AcDbLine
 10
815.6732968437847
 20
191.0836202154125
 30
0.0
 11
817.9732968437846
 21
191.5836202154124
 31
0.0
  0
LINE
  5
C52
330
20
100
AcDbEntity
  8
0
100
AcDbLine
 10
817.9732968437846
 20
191.5836202154124
 30
0.0
 11
815.6732968437847
 21
192.0836202154124
 31
0.0
  0
LINE
  5
C53
330
20
100
AcDbEntity
  8
0
100
AcDbLine
 10
815.6732968437847
 20
192.0836202154124
 30
0.0
 11
815.1732968437849
 21
194.3836202154125
 31
0.0
  0
LINE
  5
C54
330
20
100
AcDbEntity
  8
T
100
AcDbLine
 10
815.1732968437844
 20
181.9336202154128
 30
0.0
 11
815.1732968437846
 21
189.2336202154129
 31
0.0
  0
CIRCLE
  5
C55
330
20
100
AcDbEntity
  8
0
100
AcDbCircle
 10
810.6732968437858
 20
236.5836202154124
 30
0.0
 40
2.799999999999999
  0
LINE
  5
C56
330
20
100
AcDbEntity
  8
0
100
AcDbLine
 10
810.673296843786
 20
239.3836202154123
 30
0.0
 11
810.1732968437859
 21
237.0836202154124
 31
0.0
  0
LINE
  5
C57
330
20
100
AcDbEntity
  8
0
100
AcDbLine
 10
810.1732968437859
 20
237.0836202154124
 30
0.0
 11
807.873296843786
 21
236.5836202154125
 31
0.0
  0
LINE
  5
C58
330
20
100
AcDbEntity
  8
0
100
AcDbLine
 10
807.873296843786
 20
236.5836202154125
 30
0.0
 11
810.1732968437859
 21
236.0836202154124
 31
0.0
  0
LINE
  5
C59
330
20
100
AcDbEntity
  8
0
100
AcDbLine
 10
810.1732968437859
 20
236.0836202154124
 30
0.0
 11
810.6732968437858
 21
233.7836202154123
 31
0.0
  0
LINE
  5
C5A
330
20
100
AcDbEntity
  8
0
100
AcDbLine
 10
810.6732968437858
 20
233.7836202154123
 30
0.0
 11
811.1732968437859
 21
236.0836202154123
 31
0.0
  0
LINE
  5
C5B
330
20
100
AcDbEntity
  8
0
100
AcDbLine
 10
811.1732968437859
 20
236.0836202154123
 30
0.0
 11
813.4732968437859
 21
236.5836202154123
 31
0.0
  0
LINE
  5
C5C
330
20
100
AcDbEntity
  8
0
100
AcDbLine
 10
813.4732968437859
 20
236.5836202154123
 30
0.0
 11
811.1732968437859
 21
237.0836202154123
 31
0.0
  0
LINE
  5
C5D
330
20
100
AcDbEntity
  8
0
100
AcDbLine
 10
811.1732968437859
 20
237.0836202154123
 30
0.0
 11
810.673296843786
 21
239.3836202154123
 31
0.0
  0
LINE
  5
C5E
330
20
100
AcDbEntity
  8
0
100
AcDbLine
 10
736.9732968437853
 20
207.0836202154148
 30
0.0
 11
736.973296843785
 21
202.0836202154148
 31
0.0
  0
LINE
  5
C5F
330
20
100
AcDbEntity
  8
0
100
AcDbLine
 10
809.6732968437855
 20
218.5836202154126
 30
0.0
 11
809.6732968437855
 21
222.5836202154124
 31
0.0
  0
ARC
  5
C60
330
20
100
AcDbEntity
  8
0
100
AcDbCircle
 10
811.6732968437855
 20
222.5836202154123
 30
0.0
 40
2.0
100
AcDbArc
 50
132.7959236606999
 51
179.9999999999985
  0
ARC
  5
C61
330
20
100
AcDbEntity
  8
0
100
AcDbCircle
 10
811.6732968437855
 20
218.5836202154125
 30
0.0
 40
2.0
100
AcDbArc
 50
179.9999999999985
 51
227.2040763393082
  0
LINE
  5
C62
330
20
100
AcDbEntity
  8
0
100
AcDbLine
 10
786.8732968437853
 20
203.5836202154132
 30
0.0
 11
786.8732968437854
 21
205.6836202154132
 31
0.0
  0
LINE
  5
C63
330
20
100
AcDbEntity
  8
0
100
AcDbLine
 10
786.7732968437853
 20
203.8836202154131
 30
0.0
 11
786.7732968437853
 21
205.3836202154131
 31
0.0
  0
LINE
  5
C64
330
20
100
AcDbEntity
  8
0
100
AcDbLine
 10
774.6732968437851
 20
205.3836202154134
 30
0.0
 11
774.6732968437852
 21
203.7836202154134
 31
0.0
  0
ARC
  5
C65
330
20
100
AcDbEntity
  8
0
100
AcDbCircle
 10
806.6732968437856
 20
209.5836202154129
 30
0.0
 40
21.8
100
AcDbArc
 50
30.21980815279796
 51
41.69288368136151
  0
ARC
  5
C66
330
20
100
AcDbEntity
  8
0
100
AcDbCircle
 10
817.042507013989
 20
215.623444753108
 30
0.0
 40
9.8
100
AcDbArc
 50
5.356376844079235
 51
30.21980815279796
  0
CIRCLE
  5
C67
330
20
100
AcDbEntity
  8
0
100
AcDbCircle
 10
794.073296843785
 20
202.383620215413
 30
0.0
 40
3.0
  0
ARC
  5
C68
330
20
100
AcDbEntity
  8
0
100
AcDbCircle
 10
806.6732968437847
 20
209.5836202154129
 30
0.0
 40
14.5
100
AcDbArc
 50
211.2105642803355
 51
221.6153750110957
  0
LINE
  5
C69
330
20
100
AcDbEntity
  8
0
100
AcDbLine
 10
796.0243532342055
 20
203.4354497558369
 30
0.0
 11
794.3784808630555
 21
202.4852048993019
 31
0.0
  0
ARC
  5
C6A
330
20
100
AcDbEntity
  8
0
100
AcDbCircle
 10
806.6732968437847
 20
209.5836202154127
 30
0.0
 40
12.0
100
AcDbArc
 50
202.6198649480363
 51
208.6024033717538
  0
ARC
  5
C6B
330
20
100
AcDbEntity
  8
0
100
AcDbCircle
 10
794.5284808630554
 20
202.2253972781665
 30
0.0
 40
0.3
100
AcDbArc
 50
119.9999999999967
 51
211.2105642803368
  0
ARC
  5
C6C
330
20
100
AcDbEntity
  8
0
100
AcDbCircle
 10
795.8743532342055
 20
203.6952573769723
 30
0.0
 40
0.3
100
AcDbArc
 50
299.9999999999992
 51
28.60240337175462
  0
ARC
  5
C6D
330
20
100
AcDbEntity
  8
0
100
AcDbCircle
 10
795.8634892226492
 20
203.7375368536115
 30
0.0
 40
0.3
100
AcDbArc
 50
299.9999999999989
 51
29.99999999999828
  0
ARC
  5
C6E
330
20
100
AcDbEntity
  8
0
100
AcDbCircle
 10
791.7720266545626
 20
202.1836202154131
 30
0.0
 40
1.0
100
AcDbArc
 50
270.0000000000009
 51
299.9999999999989
  0
LINE
  5
C6F
330
20
100
AcDbEntity
  8
0
100
AcDbLine
 10
796.0134892226492
 20
203.4777292324761
 30
0.0
 11
792.2720266545626
 21
201.3175948116286
 31
0.0
  0
LINE
  5
C70
330
20
100
AcDbEntity
  8
0
100
AcDbLine
 10
795.4538190893702
 20
205.0471063387942
 30
0.0
 11
796.1232968437846
 21
203.8875368536114
 31
0.0
  0
LINE
  5
C71
330
20
100
AcDbEntity
  8
0
100
AcDbLine
 10
791.3237514268115
 20
201.1836202154131
 30
0.0
 11
791.7720266545626
 21
201.1836202154131
 31
0.0
  0
ARC
  5
C72
330
20
100
AcDbEntity
  8
0
100
AcDbCircle
 10
797.6732968437874
 20
244.096200033489
 30
0.0
 40
2.499999999999986
100
AcDbArc
 50
359.9999999999978
 51
168.4630409672167
  0
LINE
  5
C73
330
20
100
AcDbEntity
  8
0
100
AcDbLine
 10
774.6732968437872
 20
241.5962000334903
 30
0.0
 11
774.6732968437872
 21
242.5962000334899
 31
0.0
  0
LINE
  5
C74
330
20
100
AcDbEntity
  8
0
100
AcDbLine
 10
795.2238071009966
 20
244.5962000334891
 30
0.0
 11
776.6732968437874
 21
244.5962000334898
 31
0.0
  0
ARC
  5
C75
330
20
100
AcDbEntity
  8
0
100
AcDbCircle
 10
776.6732968437873
 20
242.5962000334898
 30
0.0
 40
2.0
100
AcDbArc
 50
89.99999999999774
 51
179.9999999999977
  0
LINE
  5
C76
330
20
100
AcDbEntity
  8
0
100
AcDbLine
 10
830.6732968437859
 20
168.7836202154123
 30
0.0
 11
830.6732968437859
 21
217.0836202154124
 31
0.0
  0
LINE
  5
C77
330
20
100
AcDbEntity
  8
0
100
AcDbLine
 10
823.873296843786
 20
199.7836202154123
 30
0.0
 11
803.8732968437859
 21
199.7836202154123
 31
0.0
  0
LINE
  5
C78
330
20
100
AcDbEntity
  8
0
100
AcDbLine
 10
830.6732968437859
 20
180.7836202154123
 30
0.0
 11
824.873296843786
 21
180.7836202154123
 31
0.0
  0
LINE
  5
C79
330
20
100
AcDbEntity
  8
0
100
AcDbLine
 10
830.6732968437859
 20
168.7836202154123
 30
0.0
 11
829.673296843786
 21
168.7836202154123
 31
0.0
  0
LINE
  5
C7A
330
20
100
AcDbEntity
  8
0
100
AcDbLine
 10
808.6732968437859
 20
219.0836202154123
 30
0.0
 11
808.6732968437859
 21
222.0836202154124
 31
0.0
  0
LINE
  5
C7B
330
20
100
AcDbEntity
  8
0
100
AcDbLine
 10
802.8732968437859
 20
200.7836202154123
 30
0.0
 11
802.8732968437859
 21
241.3836202154123
 31
0.0
  0
LINE
  5
C7C
330
20
100
AcDbEntity
  8
0
100
AcDbLine
 10
830.6732968437859
 20
242.3836202154123
 30
0.0
 11
803.8732968437859
 21
242.3836202154123
 31
0.0
  0
LINE
  5
C7D
330
20
100
AcDbEntity
  8
0
100
AcDbLine
 10
830.6732968437859
 20
247.3836202154123
 30
0.0
 11
829.673296843786
 21
247.3836202154123
 31
0.0
  0
LINE
  5
C7E
330
20
100
AcDbEntity
  8
0
100
AcDbLine
 10
823.873296843786
 20
181.7836202154123
 30
0.0
 11
823.873296843786
 21
199.7836202154123
 31
0.0
  0
LINE
  5
C7F
330
20
100
AcDbEntity
  8
0
100
AcDbLine
 10
829.673296843786
 20
168.7836202154123
 30
0.0
 11
829.673296843786
 21
180.7836202154123
 31
0.0
  0
LINE
  5
C80
330
20
100
AcDbEntity
  8
0
100
AcDbLine
 10
830.6732968437859
 20
224.0836202154124
 30
0.0
 11
810.6732968437858
 21
224.0836202154124
 31
0.0
  0
LINE
  5
C81
330
20
100
AcDbEntity
  8
0
100
AcDbLine
 10
830.6732968437859
 20
217.0836202154124
 30
0.0
 11
810.6732968437858
 21
217.0836202154123
 31
0.0
  0
LINE
  5
C82
330
20
100
AcDbEntity
  8
0
100
AcDbLine
 10
829.673296843786
 20
217.0836202154124
 30
0.0
 11
829.673296843786
 21
224.0836202154124
 31
0.0
  0
LINE
  5
C83
330
20
100
AcDbEntity
  8
0
  6
H6
100
AcDbLine
 10
829.673296843786
 20
224.0836202154124
 30
0.0
 11
829.673296843786
 21
242.3836202154123
 31
0.0
  0
LINE
  5
C84
330
20
100
AcDbEntity
  8
0
100
AcDbLine
 10
829.673296843786
 20
242.3836202154123
 30
0.0
 11
829.673296843786
 21
247.3836202154123
 31
0.0
  0
LINE
  5
C85
330
20
100
AcDbEntity
  8
0
  6
H6
100
AcDbLine
 10
829.673296843786
 20
180.7836202154123
 30
0.0
 11
829.673296843786
 21
217.0836202154124
 31
0.0
  0
ARC
  5
C86
330
20
100
AcDbEntity
  8
0
100
AcDbCircle
 10
803.8732968437859
 20
241.3836202154123
 30
0.0
 40
1.0
100
AcDbArc
 50
90.0
 51
180.0
  0
ARC
  5
C87
330
20
100
AcDbEntity
  8
0
100
AcDbCircle
 10
803.8732968437859
 20
200.7836202154123
 30
0.0
 40
1.0
100
AcDbArc
 50
180.0
 51
270.0
  0
ARC
  5
C88
330
20
100
AcDbEntity
  8
0
100
AcDbCircle
 10
824.873296843786
 20
181.7836202154123
 30
0.0
 40
1.0
100
AcDbArc
 50
180.0
 51
270.0
  0
CIRCLE
  5
C89
330
20
100
AcDbEntity
  8
0
100
AcDbCircle
 10
815.1732968437858
 20
206.5836202154124
 30
0.0
 40
2.9
  0
LINE
  5
C8A
330
20
100
AcDbEntity
  8
0
100
AcDbLine
 10
830.6732968437859
 20
224.0836202154124
 30
0.0
 11
830.6732968437859
 21
247.3836202154123
 31
0.0
  0
LINE
  5
C8B
330
20
100
AcDbEntity
  8
0
100
AcDbLine
 10
823.873296843786
 20
222.977648735615
 30
0.0
 11
823.873296843786
 21
224.0836202154124
 31
0.0
  0
ARC
  5
C8C
330
20
100
AcDbEntity
  8
0
100
AcDbCircle
 10
810.6732968437858
 20
222.0836202154124
 30
0.0
 40
2.0
100
AcDbArc
 50
90.0
 51
180.0
  0
ARC
  5
C8D
330
20
100
AcDbEntity
  8
0
100
AcDbCircle
 10
810.6732968437858
 20
219.0836202154123
 30
0.0
 40
2.0
100
AcDbArc
 50
180.0
 51
270.0
  0
TEXT
  5
CA5
330
20
100
AcDbEntity
  8
0
100
AcDbText
 10
726.9043632605681
 20
256.9485856164252
 30
0.0
 40
4.0
  1
%%UMF36N-76
  7
SIMPLEX
100
AcDbText
  0
ENDSEC
  0
SECTION
  2
OBJECTS
  0
DICTIONARY
  5
C
330
0
100
AcDbDictionary
281
     1
  3
ACAD_COLOR
350
1B
  3
ACAD_GROUP
350
D
  3
ACAD_LAYOUT
350
19
  3
ACAD_MATERIAL
350
1A
  3
ACAD_MLINESTYLE
350
16
  3
ACAD_PLOTSETTINGS
350
18
  3
ACAD_PLOTSTYLENAME
350
E
  3
ACDBHEADERROUNDTRIPXREC
350
CDA
  3
AcDbVariableDictionary
350
CD5
  0
DICTIONARY
  5
1B
102
{ACAD_REACTORS
330
C
102
}
330
C
100
AcDbDictionary
281
     1
  0
DICTIONARY
  5
D
102
{ACAD_REACTORS
330
C
102
}
330
C
100
AcDbDictionary
281
     1
  0
DICTIONARY
  5
19
102
{ACAD_REACTORS
330
C
102
}
330
C
100
AcDbDictionary
281
     1
  3
Model
350
23
  3
CAEg1
350
1F
  0
DICTIONARY
  5
1A
102
{ACAD_REACTORS
330
C
102
}
330
C
100
AcDbDictionary
281
     1
  0
DICTIONARY
  5
16
102
{ACAD_REACTORS
330
C
102
}
330
C
100
AcDbDictionary
281
     1
  3
Standard
350
17
  0
DICTIONARY
  5
18
102
{ACAD_REACTORS
330
C
102
}
330
C
100
AcDbDictionary
281
     1
  0
ACDBDICTIONARYWDFLT
  5
E
102
{ACAD_REACTORS
330
C
102
}
330
C
100
AcDbDictionary
281
     1
  3
Normal
350
F
100
AcDbDictionaryWithDefault
340
F
  0
DICTIONARY
  5
CDA
102
{ACAD_REACTORS
330
C
102
}
330
C
100
AcDbDictionary
281
     1
  3
COLORDICT
350
CDC
  3
MATERIALDICT
350
CDB
  0
DICTIONARY
  5
CD5
102
{ACAD_REACTORS
330
C
102
}
330
C
100
AcDbDictionary
281
     1
  3
DIMASSOC
350
CD7
  3
HIDETEXT
350
CD6
  3
PROJECTNAME
350
CD8
  0
LAYOUT
  5
23
102
{ACAD_XDICTIONARY
360
CDF
102
}
102
{ACAD_REACTORS
330
19
102
}
330
19
100
AcDbPlotSettings
  1

  2
Adobe PDF
  4
A4
  6
VIEW1
 40
3.174999952316284
 41
3.174999952316284
 42
3.175003051757812
 43
3.17498779296875
 44
209.9098358154297
 45
297.0318298339844
 46
0.0
 47
0.0
 48
551.5509520631076
 49
4.260509198452155
140
935.8428936533524
141
274.3190145050521
142
1.0
143
1.32667875374446
 70
 11952
 72
     1
 73
     1
 74
     4
  7

 75
     0
147
0.7537619767992576
148
-551.5509520631076
149
-4.260509198452155
100
AcDbLayout
  1
Model
 70
     1
 71
     0
 10
0.0
 20
0.0
 11
12.0
 21
9.0
 12
0.0
 22
0.0
 32
0.0
 14
0.0
 24
0.0
 34
0.0
 15
0.0
 25
0.0
 35
0.0
146
0.0
 13
0.0
 23
0.0
 33
0.0
 16
1.0
 26
0.0
 36
0.0
 17
0.0
 27
1.0
 37
0.0
 76
     0
330
20
  0
LAYOUT
  5
1F
102
{ACAD_XDICTIONARY
360
CDD
102
}
102
{ACAD_REACTORS
330
19
102
}
330
19
100
AcDbPlotSettings
  1

  2
Canon iR C3220 LIPS
  4

  6

 40
0.0
 41
0.0
 42
0.0
 43
0.0
 44
0.0
 45
0.0
 46
0.0
 47
0.0
 48
0.0
 49
0.0
140
0.0
141
0.0
142
1.0
143
1.0
 70
   688
 72
     0
 73
     0
 74
     5
  7

 75
    16
147
1.0
148
0.0
149
0.0
100
AcDbLayout
  1
CAEg1
 70
     0
 71
     1
 10
0.0
 20
0.0
 11
12.0
 21
9.0
 12
0.0
 22
0.0
 32
0.0
 14
1.000000000000000E+20
 24
1.000000000000000E+20
 34
1.000000000000000E+20
 15
-1.000000000000000E+20
 25
-1.000000000000000E+20
 35
-1.000000000000000E+20
146
0.0
 13
0.0
 23
0.0
 33
0.0
 16
1.0
 26
0.0
 36
0.0
 17
0.0
 27
1.0
 37
0.0
 76
     0
330
1C
  0
MLINESTYLE
  5
17
102
{ACAD_REACTORS
330
16
102
}
330
16
100
AcDbMlineStyle
  2
STANDARD
 70
     0
  3

 62
   256
 51
90.0
 52
90.0
 71
     2
 49
0.5
 62
   256
  6
BYLAYER
 49
-0.5
 62
   256
  6
BYLAYER
  0
ACDBPLACEHOLDER
  5
F
102
{ACAD_REACTORS
330
E
102
}
330
E
  0
XRECORD
  5
CDC
102
{ACAD_REACTORS
330
CDA
102
}
330
CDA
100
AcDbXrecord
280
     1
340
1B
  0
XRECORD
  5
CDB
102
{ACAD_REACTORS
330
CDA
102
}
330
CDA
100
AcDbXrecord
280
     1
340
1A
  0
DICTIONARYVAR
  5
CD7
102
{ACAD_REACTORS
330
CD5
102
}
330
CD5
100
DictionaryVariables
280
     0
  1
2
  0
DICTIONARYVAR
  5
CD6
102
{ACAD_REACTORS
330
CD5
102
}
330
CD5
100
DictionaryVariables
280
     0
  1
1
  0
DICTIONARYVAR
  5
CD8
102
{ACAD_REACTORS
330
CD5
102
}
330
CD5
100
DictionaryVariables
280
     0
  1

  0
DICTIONARY
  5
CDF
330
23
100
AcDbDictionary
280
     1
281
     1
  3
ACAD_XREC_ROUNDTRIP
360
CE0
  0
DICTIONARY
  5
CDD
330
1F
100
AcDbDictionary
280
     1
281
     1
  3
ACAD_XREC_ROUNDTRIP
360
CDE
  0
XRECORD
  5
CE0
102
{ACAD_REACTORS
330
CDF
102
}
330
CDF
100
AcDbXrecord
280
     1
102
SHADEPLOT
 70
     0
102
SHADEPLOTRESLEVEL
 70
     2
102
SHADEPLOTCUSTOMDPI
 70
   300
  0
XRECORD
  5
CDE
102
{ACAD_REACTORS
330
CDD
102
}
330
CDD
100
AcDbXrecord
280
     1
102
SHADEPLOT
 70
     0
102
SHADEPLOTRESLEVEL
 70
     2
102
SHADEPLOTCUSTOMDPI
 70
   300
  0
ENDSEC
  0
EOF
