  0
SECTION
  2
HEADER
  9
$ACADVER
  1
AC1015
  9
$ACADMAINTVER
 70
    20
  9
$DWGCODEPAGE
  3
ANSI_932
  9
$INSBASE
 10
0.0
 20
0.0
 30
0.0
  9
$EXTMIN
 10
-16.1627586695196
 20
-13.87335872028505
 30
0.0
  9
$EXTMAX
 10
397.5874936504322
 20
284.6457413789151
 30
0.0
  9
$LIMMIN
 10
0.0
 20
0.0
  9
$LIMMAX
 10
12.0
 20
9.0
  9
$ORTHOMODE
 70
     0
  9
$REGENMODE
 70
     0
  9
$FILLMODE
 70
     1
  9
$QTEXTMODE
 70
     0
  9
$MIRRTEXT
 70
     1
  9
$LTSCALE
 40
1.0
  9
$ATTMODE
 70
     1
  9
$TEXTSIZE
 40
2.0
  9
$TRACEWID
 40
0.05
  9
$TEXTSTYLE
  7
SIMPLEX
  9
$CLAYER
  8
4
  9
$CELTYPE
  6
ByLayer
  9
$CECOLOR
 62
   256
  9
$CELTSCALE
 40
1.0
  9
$DISPSILH
 70
     0
  9
$DIMSCALE
 40
1.0
  9
$DIMASZ
 40
0.18
  9
$DIMEXO
 40
0.0625
  9
$DIMDLI
 40
0.3799999999999999
  9
$DIMRND
 40
0.0
  9
$DIMDLE
 40
0.0
  9
$DIMEXE
 40
0.18
  9
$DIMTP
 40
0.0
  9
$DIMTM
 40
0.0
  9
$DIMTXT
 40
0.18
  9
$DIMCEN
 40
0.09
  9
$DIMTSZ
 40
0.0
  9
$DIMTOL
 70
     0
  9
$DIMLIM
 70
     0
  9
$DIMTIH
 70
     1
  9
$DIMTOH
 70
     1
  9
$DIMSE1
 70
     0
  9
$DIMSE2
 70
     0
  9
$DIMTAD
 70
     0
  9
$DIMZIN
 70
     0
  9
$DIMBLK
  1

  9
$DIMASO
 70
     1
  9
$DIMSHO
 70
     0
  9
$DIMPOST
  1

  9
$DIMAPOST
  1

  9
$DIMALT
 70
     0
  9
$DIMALTD
 70
     2
  9
$DIMALTF
 40
25.4
  9
$DIMLFAC
 40
1.0
  9
$DIMTOFL
 70
     0
  9
$DIMTVP
 40
0.0
  9
$DIMTIX
 70
     0
  9
$DIMSOXD
 70
     0
  9
$DIMSAH
 70
     0
  9
$DIMBLK1
  1

  9
$DIMBLK2
  1

  9
$DIMSTYLE
  2
Standard
  9
$DIMCLRD
 70
     0
  9
$DIMCLRE
 70
     0
  9
$DIMCLRT
 70
     0
  9
$DIMTFAC
 40
1.0
  9
$DIMGAP
 40
0.09
  9
$DIMJUST
 70
     0
  9
$DIMSD1
 70
     0
  9
$DIMSD2
 70
     0
  9
$DIMTOLJ
 70
     1
  9
$DIMTZIN
 70
     0
  9
$DIMALTZ
 70
     0
  9
$DIMALTTZ
 70
     0
  9
$DIMUPT
 70
     0
  9
$DIMDEC
 70
     3
  9
$DIMTDEC
 70
     3
  9
$DIMALTU
 70
     2
  9
$DIMALTTD
 70
     2
  9
$DIMTXSTY
  7
STANDARD
  9
$DIMAUNIT
 70
     0
  9
$DIMADEC
 70
     0
  9
$DIMALTRND
 40
0.0
  9
$DIMAZIN
 70
     0
  9
$DIMDSEP
 70
    46
  9
$DIMATFIT
 70
     3
  9
$DIMFRAC
 70
     0
  9
$DIMLDRBLK
  1

  9
$DIMLUNIT
 70
     2
  9
$DIMLWD
 70
    -2
  9
$DIMLWE
 70
    -2
  9
$DIMTMOVE
 70
     2
  9
$LUNITS
 70
     2
  9
$LUPREC
 70
     3
  9
$SKETCHINC
 40
0.1
  9
$FILLETRAD
 40
0.0
  9
$AUNITS
 70
     0
  9
$AUPREC
 70
     0
  9
$MENU
  1
Z:SANPOU-1
  9
$ELEVATION
 40
0.0
  9
$PELEVATION
 40
0.0
  9
$THICKNESS
 40
0.0
  9
$LIMCHECK
 70
     0
  9
$CHAMFERA
 40
0.0
  9
$CHAMFERB
 40
0.0
  9
$CHAMFERC
 40
0.0
  9
$CHAMFERD
 40
0.0
  9
$SKPOLY
 70
     0
  9
$TDCREATE
 40
2451274.476261574
  9
$TDUCREATE
 40
2451274.101261574
  9
$TDUPDATE
 40
2455127.560646702
  9
$TDUUPDATE
 40
2455127.185646702
  9
$TDINDWG
 40
0.0514387963
  9
$TDUSRTIMER
 40
0.0514382639
  9
$USRTIMER
 70
     1
  9
$ANGBASE
 50
0.0
  9
$ANGDIR
 70
     0
  9
$PDMODE
 70
     0
  9
$PDSIZE
 40
0.0
  9
$PLINEWID
 40
0.0
  9
$SPLFRAME
 70
     0
  9
$SPLINETYPE
 70
     6
  9
$SPLINESEGS
 70
     8
  9
$HANDSEED
  5
A7F
  9
$SURFTAB1
 70
     6
  9
$SURFTAB2
 70
     6
  9
$SURFTYPE
 70
     6
  9
$SURFU
 70
     6
  9
$SURFV
 70
     6
  9
$UCSBASE
  2

  9
$UCSNAME
  2

  9
$UCSORG
 10
0.0
 20
0.0
 30
0.0
  9
$UCSXDIR
 10
1.0
 20
0.0
 30
0.0
  9
$UCSYDIR
 10
0.0
 20
1.0
 30
0.0
  9
$UCSORTHOREF
  2

  9
$UCSORTHOVIEW
 70
     0
  9
$UCSORGTOP
 10
0.0
 20
0.0
 30
0.0
  9
$UCSORGBOTTOM
 10
0.0
 20
0.0
 30
0.0
  9
$UCSORGLEFT
 10
0.0
 20
0.0
 30
0.0
  9
$UCSORGRIGHT
 10
0.0
 20
0.0
 30
0.0
  9
$UCSORGFRONT
 10
0.0
 20
0.0
 30
0.0
  9
$UCSORGBACK
 10
0.0
 20
0.0
 30
0.0
  9
$PUCSBASE
  2

  9
$PUCSNAME
  2

  9
$PUCSORG
 10
0.0
 20
0.0
 30
0.0
  9
$PUCSXDIR
 10
1.0
 20
0.0
 30
0.0
  9
$PUCSYDIR
 10
0.0
 20
1.0
 30
0.0
  9
$PUCSORTHOREF
  2

  9
$PUCSORTHOVIEW
 70
     0
  9
$PUCSORGTOP
 10
0.0
 20
0.0
 30
0.0
  9
$PUCSORGBOTTOM
 10
0.0
 20
0.0
 30
0.0
  9
$PUCSORGLEFT
 10
0.0
 20
0.0
 30
0.0
  9
$PUCSORGRIGHT
 10
0.0
 20
0.0
 30
0.0
  9
$PUCSORGFRONT
 10
0.0
 20
0.0
 30
0.0
  9
$PUCSORGBACK
 10
0.0
 20
0.0
 30
0.0
  9
$USERI1
 70
     0
  9
$USERI2
 70
     0
  9
$USERI3
 70
     0
  9
$USERI4
 70
     0
  9
$USERI5
 70
     0
  9
$USERR1
 40
0.0
  9
$USERR2
 40
0.0
  9
$USERR3
 40
0.0
  9
$USERR4
 40
0.0
  9
$USERR5
 40
0.0
  9
$WORLDVIEW
 70
     1
  9
$SHADEDGE
 70
     3
  9
$SHADEDIF
 70
    70
  9
$TILEMODE
 70
     1
  9
$MAXACTVP
 70
    16
  9
$PINSBASE
 10
0.0
 20
0.0
 30
0.0
  9
$PLIMCHECK
 70
     0
  9
$PEXTMIN
 10
1.000000000000000E+20
 20
1.000000000000000E+20
 30
1.000000000000000E+20
  9
$PEXTMAX
 10
-1.000000000000000E+20
 20
-1.000000000000000E+20
 30
-1.000000000000000E+20
  9
$PLIMMIN
 10
0.0
 20
0.0
  9
$PLIMMAX
 10
12.0
 20
9.0
  9
$UNITMODE
 70
     0
  9
$VISRETAIN
 70
     0
  9
$PLINEGEN
 70
     0
  9
$PSLTSCALE
 70
     0
  9
$TREEDEPTH
 70
  3020
  9
$CMLSTYLE
  2
Standard
  9
$CMLJUST
 70
     0
  9
$CMLSCALE
 40
1.0
  9
$PROXYGRAPHICS
 70
     1
  9
$MEASUREMENT
 70
     0
  9
$CELWEIGHT
370
    -1
  9
$ENDCAPS
280
     0
  9
$JOINSTYLE
280
     0
  9
$LWDISPLAY
290
     0
  9
$INSUNITS
 70
     0
  9
$HYPERLINKBASE
  1

  9
$STYLESHEET
  1

  9
$XEDIT
290
     1
  9
$CEPSNTYPE
380
     0
  9
$PSTYLEMODE
290
     1
  9
$FINGERPRINTGUID
  2
{E469E615-79C4-4C23-86DC-BBA48C27B388}
  9
$VERSIONGUID
  2
{26DEA602-020B-448A-9E8B-7D154C02B0C9}
  9
$EXTNAMES
290
     1
  9
$PSVPSCALE
 40
0.0
  9
$OLESTARTUP
290
     0
  0
ENDSEC
  0
SECTION
  2
CLASSES
  0
CLASS
  1
ACDBDICTIONARYWDFLT
  2
AcDbDictionaryWithDefault
  3
ObjectDBX Classes
 90
        0
280
     0
281
     0
  0
CLASS
  1
DICTIONARYVAR
  2
AcDbDictionaryVar
  3
ObjectDBX Classes
 90
        0
280
     0
281
     0
  0
CLASS
  1
ACDBPLACEHOLDER
  2
AcDbPlaceHolder
  3
ObjectDBX Classes
 90
        0
280
     0
281
     0
  0
CLASS
  1
LAYOUT
  2
AcDbLayout
  3
ObjectDBX Classes
 90
        0
280
     0
281
     0
  0
ENDSEC
  0
SECTION
  2
TABLES
  0
TABLE
  2
VPORT
  5
8
330
0
100
AcDbSymbolTable
 70
    18
  0
VPORT
  5
39
330
8
100
AcDbSymbolTableRecord
100
AcDbViewportTableRecord
  2
T1B1
 70
     0
 10
0.0
 20
0.5
 11
1.0
 21
1.0
 12
35.73668128064837
 22
0.4154770227836197
 13
0.0
 23
0.0
 14
1.0
 24
1.0
 15
0.0
 25
0.0
 16
0.0
 26
0.0
 36
1.0
 17
0.0
 27
0.0
 37
0.0
 40
288.369767168941
 41
3.029288025889967
 42
50.0
 43
0.0
 44
0.0
 50
0.0
 51
0.0
 71
     0
 72
   500
 73
     1
 74
     0
 75
     0
 76
     0
 77
     0
 78
     0
281
     0
 65
     1
110
0.0
120
0.0
130
0.0
111
1.0
121
0.0
131
0.0
112
0.0
122
1.0
132
0.0
 79
     0
146
0.0
  0
VPORT
  5
3A
330
8
100
AcDbSymbolTableRecord
100
AcDbViewportTableRecord
  2
T1B1
 70
     0
 10
0.0
 20
0.0
 11
1.0
 21
0.5
 12
37.15479018115741
 22
0.4154770227836197
 13
0.0
 23
0.0
 14
1.0
 24
1.0
 15
0.0
 25
0.0
 16
0.0
 26
0.0
 36
1.0
 17
0.0
 27
0.0
 37
0.0
 40
288.369767168941
 41
3.039123376623376
 42
50.0
 43
0.0
 44
0.0
 50
0.0
 51
0.0
 71
     0
 72
   500
 73
     1
 74
     0
 75
     0
 76
     0
 77
     0
 78
     0
281
     0
 65
     1
110
0.0
120
0.0
130
0.0
111
1.0
121
0.0
131
0.0
112
0.0
122
1.0
132
0.0
 79
     0
146
0.0
  0
VPORT
  5
3B
330
8
100
AcDbSymbolTableRecord
100
AcDbViewportTableRecord
  2
T3B1
 70
     0
 10
0.0
 20
0.0
 11
1.0
 21
0.6666666666666669
 12
0.794902912621332
 22
0.0
 13
0.0
 23
0.0
 14
1.0
 24
1.0
 15
0.0
 25
0.0
 16
0.0
 26
0.0
 36
1.0
 17
0.0
 27
0.0
 37
0.0
 40
300.0
 41
2.271966019417475
 42
50.0
 43
0.0
 44
0.0
 50
0.0
 51
0.0
 71
     0
 72
   500
 73
     1
 74
     0
 75
     0
 76
     0
 77
     0
 78
     0
281
     0
 65
     1
110
0.0
120
0.0
130
0.0
111
1.0
121
0.0
131
0.0
112
0.0
122
1.0
132
0.0
 79
     0
146
0.0
  0
VPORT
  5
3C
330
8
100
AcDbSymbolTableRecord
100
AcDbViewportTableRecord
  2
T3B1
 70
     0
 10
0.6666666666666669
 20
0.6666666666666669
 11
1.0
 21
1.0
 12
26.65731707317072
 22
0.0
 13
0.0
 23
0.0
 14
1.0
 24
1.0
 15
0.0
 25
0.0
 16
0.0
 26
0.0
 36
1.0
 17
0.0
 27
0.0
 37
0.0
 40
300.0
 41
1.511048780487803
 42
50.0
 43
0.0
 44
0.0
 50
0.0
 51
0.0
 71
     0
 72
   500
 73
     1
 74
     0
 75
     0
 76
     0
 77
     0
 78
     0
281
     0
 65
     1
110
0.0
120
0.0
130
0.0
111
1.0
121
0.0
131
0.0
112
0.0
122
1.0
132
0.0
 79
     0
146
0.0
  0
VPORT
  5
3D
330
8
100
AcDbSymbolTableRecord
100
AcDbViewportTableRecord
  2
T3B1
 70
     0
 10
0.3333333333333333
 20
0.6666666666666669
 11
0.6666666666666669
 21
1.0
 12
26.65731707317072
 22
0.0
 13
0.0
 23
0.0
 14
1.0
 24
1.0
 15
0.0
 25
0.0
 16
0.0
 26
0.0
 36
1.0
 17
0.0
 27
0.0
 37
0.0
 40
300.0
 41
1.511048780487803
 42
50.0
 43
0.0
 44
0.0
 50
0.0
 51
0.0
 71
     0
 72
   500
 73
     1
 74
     0
 75
     0
 76
     0
 77
     0
 78
     0
281
     0
 65
     1
110
0.0
120
0.0
130
0.0
111
1.0
121
0.0
131
0.0
112
0.0
122
1.0
132
0.0
 79
     0
146
0.0
  0
VPORT
  5
3E
330
8
100
AcDbSymbolTableRecord
100
AcDbViewportTableRecord
  2
T3B1
 70
     0
 10
0.0
 20
0.6666666666666669
 11
0.3333333333333333
 21
1.0
 12
25.95121951219509
 22
0.0
 13
0.0
 23
0.0
 14
1.0
 24
1.0
 15
0.0
 25
0.0
 16
0.0
 26
0.0
 36
1.0
 17
0.0
 27
0.0
 37
0.0
 40
300.0
 41
1.506341463414632
 42
50.0
 43
0.0
 44
0.0
 50
0.0
 51
0.0
 71
     0
 72
   500
 73
     1
 74
     0
 75
     0
 76
     0
 77
     0
 78
     0
281
     0
 65
     1
110
0.0
120
0.0
130
0.0
111
1.0
121
0.0
131
0.0
112
0.0
122
1.0
132
0.0
 79
     0
146
0.0
  0
VPORT
  5
3F
330
8
100
AcDbSymbolTableRecord
100
AcDbViewportTableRecord
  2
L1R3
 70
     0
 10
0.0
 20
0.0
 11
0.6666666666666669
 21
1.0
 12
0.3442028985507162
 22
0.0
 13
0.0
 23
0.0
 14
1.0
 24
1.0
 15
0.0
 25
0.0
 16
0.0
 26
0.0
 36
1.0
 17
0.0
 27
0.0
 37
0.0
 40
300.0
 41
1.002294685990338
 42
50.0
 43
0.0
 44
0.0
 50
0.0
 51
0.0
 71
     0
 72
   500
 73
     1
 74
     0
 75
     0
 76
     0
 77
     0
 78
     0
281
     0
 65
     1
110
0.0
120
0.0
130
0.0
111
1.0
121
0.0
131
0.0
112
0.0
122
1.0
132
0.0
 79
     0
146
0.0
  0
VPORT
  5
40
330
8
100
AcDbSymbolTableRecord
100
AcDbViewportTableRecord
  2
L1R3
 70
     0
 10
0.6666666666666669
 20
0.0
 11
1.0
 21
0.3333333333333333
 12
27.76838235294116
 22
0.0
 13
0.0
 23
0.0
 14
1.0
 24
1.0
 15
0.0
 25
0.0
 16
0.0
 26
0.0
 36
1.0
 17
0.0
 27
0.0
 37
0.0
 40
300.0
 41
1.518455882352941
 42
50.0
 43
0.0
 44
0.0
 50
0.0
 51
0.0
 71
     0
 72
   500
 73
     1
 74
     0
 75
     0
 76
     0
 77
     0
 78
     0
281
     0
 65
     1
110
0.0
120
0.0
130
0.0
111
1.0
121
0.0
131
0.0
112
0.0
122
1.0
132
0.0
 79
     0
146
0.0
  0
VPORT
  5
41
330
8
100
AcDbSymbolTableRecord
100
AcDbViewportTableRecord
  2
L1R3
 70
     0
 10
0.6666666666666669
 20
0.3333333333333333
 11
1.0
 21
0.6666666666666669
 12
27.76838235294116
 22
0.0
 13
0.0
 23
0.0
 14
1.0
 24
1.0
 15
0.0
 25
0.0
 16
0.0
 26
0.0
 36
1.0
 17
0.0
 27
0.0
 37
0.0
 40
300.0
 41
1.518455882352941
 42
50.0
 43
0.0
 44
0.0
 50
0.0
 51
0.0
 71
     0
 72
   500
 73
     1
 74
     0
 75
     0
 76
     0
 77
     0
 78
     0
281
     0
 65
     1
110
0.0
120
0.0
130
0.0
111
1.0
121
0.0
131
0.0
112
0.0
122
1.0
132
0.0
 79
     0
146
0.0
  0
VPORT
  5
42
330
8
100
AcDbSymbolTableRecord
100
AcDbViewportTableRecord
  2
L1R3
 70
     0
 10
0.6666666666666669
 20
0.6666666666666669
 11
1.0
 21
1.0
 12
26.65731707317072
 22
0.0
 13
0.0
 23
0.0
 14
1.0
 24
1.0
 15
0.0
 25
0.0
 16
0.0
 26
0.0
 36
1.0
 17
0.0
 27
0.0
 37
0.0
 40
300.0
 41
1.511048780487803
 42
50.0
 43
0.0
 44
0.0
 50
0.0
 51
0.0
 71
     0
 72
   500
 73
     1
 74
     0
 75
     0
 76
     0
 77
     0
 78
     0
281
     0
 65
     1
110
0.0
120
0.0
130
0.0
111
1.0
121
0.0
131
0.0
112
0.0
122
1.0
132
0.0
 79
     0
146
0.0
  0
VPORT
  5
43
330
8
100
AcDbSymbolTableRecord
100
AcDbViewportTableRecord
  2
L1R1
 70
     0
 10
0.5
 20
0.0
 11
1.0
 21
1.0
 12
0.1111111111111063
 22
0.0
 13
0.0
 23
0.0
 14
1.0
 24
1.0
 15
0.0
 25
0.0
 16
0.0
 26
0.0
 36
1.0
 17
0.0
 27
0.0
 37
0.0
 40
400.0
 41
0.7505555555555558
 42
50.0
 43
0.0
 44
0.0
 50
0.0
 51
0.0
 71
     0
 72
   500
 73
     1
 74
     0
 75
     0
 76
     0
 77
     0
 78
     0
281
     0
 65
     1
110
0.0
120
0.0
130
0.0
111
1.0
121
0.0
131
0.0
112
0.0
122
1.0
132
0.0
 79
     0
146
0.0
  0
VPORT
  5
44
330
8
100
AcDbSymbolTableRecord
100
AcDbViewportTableRecord
  2
L1R1
 70
     0
 10
0.0
 20
0.0
 11
0.5
 21
1.0
 12
0.1111111111111063
 22
0.0
 13
0.0
 23
0.0
 14
1.0
 24
1.0
 15
0.0
 25
0.0
 16
0.0
 26
0.0
 36
1.0
 17
0.0
 27
0.0
 37
0.0
 40
400.0
 41
0.7505555555555558
 42
50.0
 43
0.0
 44
0.0
 50
0.0
 51
0.0
 71
     0
 72
   500
 73
     1
 74
     0
 75
     0
 76
     0
 77
     0
 78
     0
281
     0
 65
     1
110
0.0
120
0.0
130
0.0
111
1.0
121
0.0
131
0.0
112
0.0
122
1.0
132
0.0
 79
     0
146
0.0
  0
VPORT
  5
45
330
8
100
AcDbSymbolTableRecord
100
AcDbViewportTableRecord
  2
T2B2
 70
     0
 10
0.0
 20
0.5
 11
0.5
 21
1.0
 12
26.25970873786406
 22
0.0
 13
0.0
 23
0.0
 14
1.0
 24
1.0
 15
0.0
 25
0.0
 16
0.0
 26
0.0
 36
1.0
 17
0.0
 27
0.0
 37
0.0
 40
300.0
 41
1.508398058252426
 42
50.0
 43
0.0
 44
0.0
 50
0.0
 51
0.0
 71
     0
 72
   500
 73
     1
 74
     1
 75
     0
 76
     0
 77
     0
 78
     0
281
     0
 65
     1
110
0.0
120
0.0
130
0.0
111
1.0
121
0.0
131
0.0
112
0.0
122
1.0
132
0.0
 79
     0
146
0.0
  0
VPORT
  5
46
330
8
100
AcDbSymbolTableRecord
100
AcDbViewportTableRecord
  2
T2B2
 70
     0
 10
0.5
 20
0.5
 11
1.0
 21
1.0
 12
-0.5824626736963322
 22
6.922468745874091
 13
0.0
 23
0.0
 14
1.0
 24
1.0
 15
0.0
 25
0.0
 16
-2.317249190938509
 26
-2.854368932038834
 36
1.923443756299422
 17
0.0
 27
0.0
 37
0.0
 40
186.5087732354043
 41
1.508398058252426
 42
50.0
 43
0.0
 44
0.0
 50
0.0
 51
0.0
 71
     0
 72
   500
 73
     1
 74
     0
 75
     0
 76
     0
 77
     0
 78
     0
281
     0
 65
     1
110
0.0
120
0.0
130
0.0
111
1.0
121
0.0
131
0.0
112
0.0
122
1.0
132
0.0
 79
     0
146
0.0
  0
VPORT
  5
47
330
8
100
AcDbSymbolTableRecord
100
AcDbViewportTableRecord
  2
T2B2
 70
     0
 10
0.5
 20
0.0
 11
1.0
 21
0.5
 12
26.99431818181817
 22
0.0
 13
0.0
 23
0.0
 14
1.0
 24
1.0
 15
0.0
 25
0.0
 16
1.0
 26
0.0
 36
0.0
 17
0.0
 27
0.0
 37
0.0
 40
300.0
 41
1.513295454545453
 42
50.0
 43
0.0
 44
0.0
 50
0.0
 51
0.0
 71
     0
 72
   500
 73
     1
 74
     1
 75
     0
 76
     0
 77
     0
 78
     0
281
     0
 65
     1
110
0.0
120
0.0
130
0.0
111
1.0
121
0.0
131
0.0
112
0.0
122
1.0
132
0.0
 79
     0
146
0.0
  0
VPORT
  5
48
330
8
100
AcDbSymbolTableRecord
100
AcDbViewportTableRecord
  2
T2B2
 70
     0
 10
0.0
 20
0.0
 11
0.5
 21
0.5
 12
26.99431818181817
 22
0.0
 13
0.0
 23
0.0
 14
1.0
 24
1.0
 15
0.0
 25
0.0
 16
0.0
 26
-1.0
 36
0.0
 17
0.0
 27
0.0
 37
0.0
 40
300.0
 41
1.513295454545453
 42
50.0
 43
0.0
 44
0.0
 50
0.0
 51
0.0
 71
     0
 72
   500
 73
     1
 74
     1
 75
     0
 76
     0
 77
     0
 78
     0
281
     0
 65
     1
110
0.0
120
0.0
130
0.0
111
1.0
121
0.0
131
0.0
112
0.0
122
1.0
132
0.0
 79
     0
146
0.0
  0
VPORT
  5
A77
330
8
100
AcDbSymbolTableRecord
100
AcDbViewportTableRecord
  2
*Active
 70
     0
 10
0.0
 20
0.0
 11
1.0
 21
1.0
 12
153.9809688320055
 22
182.4171025815113
 13
0.0
 23
0.0
 14
1.0
 24
1.0
 15
0.0
 25
0.0
 16
0.0
 26
0.0
 36
1.0
 17
0.0
 27
0.0
 37
0.0
 40
74.73110106189881
 41
1.884920634920635
 42
50.0
 43
0.0
 44
0.0
 50
0.0
 51
0.0
 71
     0
 72
 20000
 73
     1
 74
     0
 75
     0
 76
     0
 77
     0
 78
     0
281
     0
 65
     1
110
0.0
120
0.0
130
0.0
111
1.0
121
0.0
131
0.0
112
0.0
122
1.0
132
0.0
 79
     0
146
0.0
  0
ENDTAB
  0
TABLE
  2
LTYPE
  5
5
330
0
100
AcDbSymbolTable
 70
     7
  0
LTYPE
  5
13
330
5
100
AcDbSymbolTableRecord
100
AcDbLinetypeTableRecord
  2
ByBlock
 70
     0
  3

 72
    65
 73
     0
 40
0.0
  0
LTYPE
  5
14
330
5
100
AcDbSymbolTableRecord
100
AcDbLinetypeTableRecord
  2
ByLayer
 70
     0
  3

 72
    65
 73
     0
 40
0.0
  0
LTYPE
  5
15
330
5
100
AcDbSymbolTableRecord
100
AcDbLinetypeTableRecord
  2
CONTINUOUS
 70
     0
  3
Àü
 72
    65
 73
     0
 40
0.0
  0
LTYPE
  5
32
330
5
100
AcDbSymbolTableRecord
100
AcDbLinetypeTableRecord
  2
CENTER
 70
     0
  3
¢¢¢  ¥  ¢¢¢  ¥  ¢¢¢  ¥  ¢¢¢  ¥  ¢
 72
    65
 73
     4
 40
5.049999999999998
 49
4.0
 74
     0
 49
-0.35
 74
     0
 49
0.35
 74
     0
 49
-0.35
 74
     0
  0
LTYPE
  5
33
330
5
100
AcDbSymbolTableRecord
100
AcDbLinetypeTableRecord
  2
C5
 70
     0
  3
\\\\\  ¥  \\\\\  ¥  \\\\\  ¥  \
 72
    65
 73
     4
 40
16.64
 49
12.8
 74
     0
 49
-1.28
 74
     0
 49
1.28
 74
     0
 49
-1.28
 74
     0
  0
LTYPE
  5
34
330
5
100
AcDbSymbolTableRecord
100
AcDbLinetypeTableRecord
  2
H4
 70
     0
  3
\\\\@@\\\\@@\\\\@@\\\\@

 72
    65
 73
     2
 40
2.7
 49
1.6
 74
     0
 49
-1.1
 74
     0
  0
LTYPE
  5
35
330
5
100
AcDbSymbolTableRecord
100
AcDbLinetypeTableRecord
  2
H5
 70
     0
  3
\\\\\@@@\\\\\@@@\\\\\@@

 72
    65
 73
     2
 40
3.799999999999999
 49
2.2
 74
     0
 49
-1.6
 74
     0
  0
LTYPE
  5
36
330
5
100
AcDbSymbolTableRecord
100
AcDbLinetypeTableRecord
  2
H3
 70
     0
  3
\\\@@\\\@@\\\@@\\\@@\\\

 72
    65
 73
     2
 40
1.9
 49
1.1
 74
     0
 49
-0.8
 74
     0
  0
LTYPE
  5
37
330
5
100
AcDbSymbolTableRecord
100
AcDbLinetypeTableRecord
  2
H2
 70
     0
  3
\\@\\@\\@\\@\\@\\@\\@\\

 72
    65
 73
     2
 40
1.36
 49
0.8
 74
     0
 49
-0.5600000000000001
 74
     0
  0
ENDTAB
  0
TABLE
  2
LAYER
  5
2
330
0
100
AcDbSymbolTable
 70
   150
  0
LAYER
  5
10
330
2
100
AcDbSymbolTableRecord
100
AcDbLayerTableRecord
  2
0
 70
     0
 62
     7
  6
CONTINUOUS
370
    -3
390
F
  0
LAYER
  5
4B
330
2
100
AcDbSymbolTableRecord
100
AcDbLayerTableRecord
  2
A0
 70
     0
 62
     7
  6
CONTINUOUS
370
    -3
390
F
  0
LAYER
  5
4C
330
2
100
AcDbSymbolTableRecord
100
AcDbLayerTableRecord
  2
B0
 70
     0
 62
     7
  6
CONTINUOUS
370
    -3
390
F
  0
LAYER
  5
4D
330
2
100
AcDbSymbolTableRecord
100
AcDbLayerTableRecord
  2
C0
 70
     0
 62
     7
  6
CONTINUOUS
370
    -3
390
F
  0
LAYER
  5
4E
330
2
100
AcDbSymbolTableRecord
100
AcDbLayerTableRecord
  2
D0
 70
     0
 62
     7
  6
CONTINUOUS
370
    -3
390
F
  0
LAYER
  5
4F
330
2
100
AcDbSymbolTableRecord
100
AcDbLayerTableRecord
  2
E0
 70
     0
 62
     7
  6
CONTINUOUS
370
    -3
390
F
  0
LAYER
  5
50
330
2
100
AcDbSymbolTableRecord
100
AcDbLayerTableRecord
  2
F0
 70
     0
 62
     7
  6
CONTINUOUS
370
    -3
390
F
  0
LAYER
  5
51
330
2
100
AcDbSymbolTableRecord
100
AcDbLayerTableRecord
  2
G0
 70
     0
 62
     7
  6
CONTINUOUS
370
    -3
390
F
  0
LAYER
  5
52
330
2
100
AcDbSymbolTableRecord
100
AcDbLayerTableRecord
  2
H0
 70
     0
 62
     7
  6
CONTINUOUS
370
    -3
390
F
  0
LAYER
  5
53
330
2
100
AcDbSymbolTableRecord
100
AcDbLayerTableRecord
  2
I0
 70
     0
 62
     7
  6
CONTINUOUS
370
    -3
390
F
  0
LAYER
  5
54
330
2
100
AcDbSymbolTableRecord
100
AcDbLayerTableRecord
  2
1
 70
     0
 62
     1
  6
CONTINUOUS
370
    -3
390
F
  0
LAYER
  5
55
330
2
100
AcDbSymbolTableRecord
100
AcDbLayerTableRecord
  2
A1
 70
     0
 62
     1
  6
CONTINUOUS
370
    -3
390
F
  0
LAYER
  5
56
330
2
100
AcDbSymbolTableRecord
100
AcDbLayerTableRecord
  2
B1
 70
     0
 62
     1
  6
CONTINUOUS
370
    -3
390
F
  0
LAYER
  5
57
330
2
100
AcDbSymbolTableRecord
100
AcDbLayerTableRecord
  2
C1
 70
     0
 62
     1
  6
CONTINUOUS
370
    -3
390
F
  0
LAYER
  5
58
330
2
100
AcDbSymbolTableRecord
100
AcDbLayerTableRecord
  2
D1
 70
     0
 62
     1
  6
CONTINUOUS
370
    -3
390
F
  0
LAYER
  5
59
330
2
100
AcDbSymbolTableRecord
100
AcDbLayerTableRecord
  2
E1
 70
     0
 62
     1
  6
CONTINUOUS
370
    -3
390
F
  0
LAYER
  5
5A
330
2
100
AcDbSymbolTableRecord
100
AcDbLayerTableRecord
  2
F1
 70
     0
 62
     1
  6
CONTINUOUS
370
    -3
390
F
  0
LAYER
  5
5B
330
2
100
AcDbSymbolTableRecord
100
AcDbLayerTableRecord
  2
G1
 70
     0
 62
     1
  6
CONTINUOUS
370
    -3
390
F
  0
LAYER
  5
5C
330
2
100
AcDbSymbolTableRecord
100
AcDbLayerTableRecord
  2
H1
 70
     0
 62
     1
  6
CONTINUOUS
370
    -3
390
F
  0
LAYER
  5
5D
330
2
100
AcDbSymbolTableRecord
100
AcDbLayerTableRecord
  2
I1
 70
     0
 62
     1
  6
CONTINUOUS
370
    -3
390
F
  0
LAYER
  5
5E
330
2
100
AcDbSymbolTableRecord
100
AcDbLayerTableRecord
  2
2
 70
     0
 62
     2
  6
CONTINUOUS
370
    -3
390
F
  0
LAYER
  5
5F
330
2
100
AcDbSymbolTableRecord
100
AcDbLayerTableRecord
  2
A2
 70
     0
 62
     2
  6
CONTINUOUS
370
    -3
390
F
  0
LAYER
  5
60
330
2
100
AcDbSymbolTableRecord
100
AcDbLayerTableRecord
  2
B2
 70
     0
 62
     2
  6
CONTINUOUS
370
    -3
390
F
  0
LAYER
  5
61
330
2
100
AcDbSymbolTableRecord
100
AcDbLayerTableRecord
  2
C2
 70
     0
 62
     2
  6
CONTINUOUS
370
    -3
390
F
  0
LAYER
  5
62
330
2
100
AcDbSymbolTableRecord
100
AcDbLayerTableRecord
  2
D2
 70
     0
 62
     2
  6
CONTINUOUS
370
    -3
390
F
  0
LAYER
  5
63
330
2
100
AcDbSymbolTableRecord
100
AcDbLayerTableRecord
  2
E2
 70
     0
 62
     2
  6
CONTINUOUS
370
    -3
390
F
  0
LAYER
  5
64
330
2
100
AcDbSymbolTableRecord
100
AcDbLayerTableRecord
  2
F2
 70
     0
 62
     2
  6
CONTINUOUS
370
    -3
390
F
  0
LAYER
  5
65
330
2
100
AcDbSymbolTableRecord
100
AcDbLayerTableRecord
  2
G2
 70
     0
 62
     2
  6
CONTINUOUS
370
    -3
390
F
  0
LAYER
  5
66
330
2
100
AcDbSymbolTableRecord
100
AcDbLayerTableRecord
  2
H2
 70
     0
 62
     2
  6
CONTINUOUS
370
    -3
390
F
  0
LAYER
  5
67
330
2
100
AcDbSymbolTableRecord
100
AcDbLayerTableRecord
  2
I2
 70
     0
 62
     2
  6
CONTINUOUS
370
    -3
390
F
  0
LAYER
  5
68
330
2
100
AcDbSymbolTableRecord
100
AcDbLayerTableRecord
  2
3
 70
     0
 62
     3
  6
CONTINUOUS
370
    -3
390
F
  0
LAYER
  5
69
330
2
100
AcDbSymbolTableRecord
100
AcDbLayerTableRecord
  2
A3
 70
     0
 62
     3
  6
CONTINUOUS
370
    -3
390
F
  0
LAYER
  5
6A
330
2
100
AcDbSymbolTableRecord
100
AcDbLayerTableRecord
  2
B3
 70
     0
 62
     3
  6
CONTINUOUS
370
    -3
390
F
  0
LAYER
  5
6B
330
2
100
AcDbSymbolTableRecord
100
AcDbLayerTableRecord
  2
C3
 70
     0
 62
     3
  6
CONTINUOUS
370
    -3
390
F
  0
LAYER
  5
6C
330
2
100
AcDbSymbolTableRecord
100
AcDbLayerTableRecord
  2
D3
 70
     0
 62
     3
  6
CONTINUOUS
370
    -3
390
F
  0
LAYER
  5
6D
330
2
100
AcDbSymbolTableRecord
100
AcDbLayerTableRecord
  2
E3
 70
     0
 62
     3
  6
CONTINUOUS
370
    -3
390
F
  0
LAYER
  5
6E
330
2
100
AcDbSymbolTableRecord
100
AcDbLayerTableRecord
  2
F3
 70
     0
 62
     3
  6
CONTINUOUS
370
    -3
390
F
  0
LAYER
  5
6F
330
2
100
AcDbSymbolTableRecord
100
AcDbLayerTableRecord
  2
G3
 70
     0
 62
     3
  6
CONTINUOUS
370
    -3
390
F
  0
LAYER
  5
70
330
2
100
AcDbSymbolTableRecord
100
AcDbLayerTableRecord
  2
H3
 70
     0
 62
     3
  6
CONTINUOUS
370
    -3
390
F
  0
LAYER
  5
71
330
2
100
AcDbSymbolTableRecord
100
AcDbLayerTableRecord
  2
I3
 70
     0
 62
     3
  6
CONTINUOUS
370
    -3
390
F
  0
LAYER
  5
72
330
2
100
AcDbSymbolTableRecord
100
AcDbLayerTableRecord
  2
4
 70
     0
 62
     4
  6
CONTINUOUS
370
    -3
390
F
  0
LAYER
  5
73
330
2
100
AcDbSymbolTableRecord
100
AcDbLayerTableRecord
  2
A4
 70
     0
 62
     4
  6
CONTINUOUS
370
    -3
390
F
  0
LAYER
  5
74
330
2
100
AcDbSymbolTableRecord
100
AcDbLayerTableRecord
  2
B4
 70
     0
 62
     4
  6
CONTINUOUS
370
    -3
390
F
  0
LAYER
  5
75
330
2
100
AcDbSymbolTableRecord
100
AcDbLayerTableRecord
  2
C4
 70
     0
 62
     4
  6
CONTINUOUS
370
    -3
390
F
  0
LAYER
  5
76
330
2
100
AcDbSymbolTableRecord
100
AcDbLayerTableRecord
  2
D4
 70
     0
 62
     4
  6
CONTINUOUS
370
    -3
390
F
  0
LAYER
  5
77
330
2
100
AcDbSymbolTableRecord
100
AcDbLayerTableRecord
  2
E4
 70
     0
 62
     4
  6
CONTINUOUS
370
    -3
390
F
  0
LAYER
  5
78
330
2
100
AcDbSymbolTableRecord
100
AcDbLayerTableRecord
  2
F4
 70
     0
 62
     4
  6
CONTINUOUS
370
    -3
390
F
  0
LAYER
  5
79
330
2
100
AcDbSymbolTableRecord
100
AcDbLayerTableRecord
  2
G4
 70
     0
 62
     4
  6
CONTINUOUS
370
    -3
390
F
  0
LAYER
  5
7A
330
2
100
AcDbSymbolTableRecord
100
AcDbLayerTableRecord
  2
H4
 70
     0
 62
     4
  6
CONTINUOUS
370
    -3
390
F
  0
LAYER
  5
7B
330
2
100
AcDbSymbolTableRecord
100
AcDbLayerTableRecord
  2
I4
 70
     0
 62
     4
  6
CONTINUOUS
370
    -3
390
F
  0
LAYER
  5
7C
330
2
100
AcDbSymbolTableRecord
100
AcDbLayerTableRecord
  2
5
 70
     0
 62
     5
  6
CONTINUOUS
370
    -3
390
F
  0
LAYER
  5
7D
330
2
100
AcDbSymbolTableRecord
100
AcDbLayerTableRecord
  2
A5
 70
     0
 62
     5
  6
CONTINUOUS
370
    -3
390
F
  0
LAYER
  5
7E
330
2
100
AcDbSymbolTableRecord
100
AcDbLayerTableRecord
  2
B5
 70
     0
 62
     5
  6
CONTINUOUS
370
    -3
390
F
  0
LAYER
  5
7F
330
2
100
AcDbSymbolTableRecord
100
AcDbLayerTableRecord
  2
C5
 70
     0
 62
     5
  6
CONTINUOUS
370
    -3
390
F
  0
LAYER
  5
80
330
2
100
AcDbSymbolTableRecord
100
AcDbLayerTableRecord
  2
D5
 70
     0
 62
     5
  6
CONTINUOUS
370
    -3
390
F
  0
LAYER
  5
81
330
2
100
AcDbSymbolTableRecord
100
AcDbLayerTableRecord
  2
E5
 70
     0
 62
     5
  6
CONTINUOUS
370
    -3
390
F
  0
LAYER
  5
82
330
2
100
AcDbSymbolTableRecord
100
AcDbLayerTableRecord
  2
F5
 70
     0
 62
     5
  6
CONTINUOUS
370
    -3
390
F
  0
LAYER
  5
83
330
2
100
AcDbSymbolTableRecord
100
AcDbLayerTableRecord
  2
G5
 70
     0
 62
     5
  6
CONTINUOUS
370
    -3
390
F
  0
LAYER
  5
84
330
2
100
AcDbSymbolTableRecord
100
AcDbLayerTableRecord
  2
H5
 70
     0
 62
     5
  6
CONTINUOUS
370
    -3
390
F
  0
LAYER
  5
85
330
2
100
AcDbSymbolTableRecord
100
AcDbLayerTableRecord
  2
I5
 70
     0
 62
     5
  6
CONTINUOUS
370
    -3
390
F
  0
LAYER
  5
86
330
2
100
AcDbSymbolTableRecord
100
AcDbLayerTableRecord
  2
6
 70
     0
 62
     6
  6
CONTINUOUS
370
    -3
390
F
  0
LAYER
  5
87
330
2
100
AcDbSymbolTableRecord
100
AcDbLayerTableRecord
  2
A6
 70
     0
 62
     6
  6
CONTINUOUS
370
    -3
390
F
  0
LAYER
  5
88
330
2
100
AcDbSymbolTableRecord
100
AcDbLayerTableRecord
  2
B6
 70
     0
 62
     6
  6
CONTINUOUS
370
    -3
390
F
  0
LAYER
  5
89
330
2
100
AcDbSymbolTableRecord
100
AcDbLayerTableRecord
  2
C6
 70
     0
 62
     6
  6
CONTINUOUS
370
    -3
390
F
  0
LAYER
  5
8A
330
2
100
AcDbSymbolTableRecord
100
AcDbLayerTableRecord
  2
D6
 70
     0
 62
     6
  6
CONTINUOUS
370
    -3
390
F
  0
LAYER
  5
8B
330
2
100
AcDbSymbolTableRecord
100
AcDbLayerTableRecord
  2
E6
 70
     0
 62
     6
  6
CONTINUOUS
370
    -3
390
F
  0
LAYER
  5
8C
330
2
100
AcDbSymbolTableRecord
100
AcDbLayerTableRecord
  2
F6
 70
     0
 62
     6
  6
CONTINUOUS
370
    -3
390
F
  0
LAYER
  5
8D
330
2
100
AcDbSymbolTableRecord
100
AcDbLayerTableRecord
  2
G6
 70
     0
 62
     6
  6
CONTINUOUS
370
    -3
390
F
  0
LAYER
  5
8E
330
2
100
AcDbSymbolTableRecord
100
AcDbLayerTableRecord
  2
H6
 70
     0
 62
     6
  6
CONTINUOUS
370
    -3
390
F
  0
LAYER
  5
8F
330
2
100
AcDbSymbolTableRecord
100
AcDbLayerTableRecord
  2
I6
 70
     0
 62
     6
  6
CONTINUOUS
370
    -3
390
F
  0
LAYER
  5
90
330
2
100
AcDbSymbolTableRecord
100
AcDbLayerTableRecord
  2
7
 70
     0
 62
     7
  6
CONTINUOUS
370
    -3
390
F
  0
LAYER
  5
91
330
2
100
AcDbSymbolTableRecord
100
AcDbLayerTableRecord
  2
A7
 70
     0
 62
    10
  6
CONTINUOUS
370
    -3
390
F
  0
LAYER
  5
92
330
2
100
AcDbSymbolTableRecord
100
AcDbLayerTableRecord
  2
B7
 70
     0
 62
    10
  6
CONTINUOUS
370
    -3
390
F
  0
LAYER
  5
93
330
2
100
AcDbSymbolTableRecord
100
AcDbLayerTableRecord
  2
C7
 70
     0
 62
    10
  6
CONTINUOUS
370
    -3
390
F
  0
LAYER
  5
94
330
2
100
AcDbSymbolTableRecord
100
AcDbLayerTableRecord
  2
D7
 70
     0
 62
    10
  6
CONTINUOUS
370
    -3
390
F
  0
LAYER
  5
95
330
2
100
AcDbSymbolTableRecord
100
AcDbLayerTableRecord
  2
E7
 70
     0
 62
    10
  6
CONTINUOUS
370
    -3
390
F
  0
LAYER
  5
96
330
2
100
AcDbSymbolTableRecord
100
AcDbLayerTableRecord
  2
F7
 70
     0
 62
    10
  6
CONTINUOUS
370
    -3
390
F
  0
LAYER
  5
97
330
2
100
AcDbSymbolTableRecord
100
AcDbLayerTableRecord
  2
G7
 70
     0
 62
    10
  6
CONTINUOUS
370
    -3
390
F
  0
LAYER
  5
98
330
2
100
AcDbSymbolTableRecord
100
AcDbLayerTableRecord
  2
H7
 70
     0
 62
    10
  6
CONTINUOUS
370
    -3
390
F
  0
LAYER
  5
99
330
2
100
AcDbSymbolTableRecord
100
AcDbLayerTableRecord
  2
I7
 70
     0
 62
    10
  6
CONTINUOUS
370
    -3
390
F
  0
LAYER
  5
9A
330
2
100
AcDbSymbolTableRecord
100
AcDbLayerTableRecord
  2
8
 70
     0
 62
    12
  6
CONTINUOUS
370
    -3
390
F
  0
LAYER
  5
9B
330
2
100
AcDbSymbolTableRecord
100
AcDbLayerTableRecord
  2
A8
 70
     0
 62
    12
  6
CONTINUOUS
370
    -3
390
F
  0
LAYER
  5
9C
330
2
100
AcDbSymbolTableRecord
100
AcDbLayerTableRecord
  2
B8
 70
     0
 62
    12
  6
CONTINUOUS
370
    -3
390
F
  0
LAYER
  5
9D
330
2
100
AcDbSymbolTableRecord
100
AcDbLayerTableRecord
  2
C8
 70
     0
 62
    12
  6
CONTINUOUS
370
    -3
390
F
  0
LAYER
  5
9E
330
2
100
AcDbSymbolTableRecord
100
AcDbLayerTableRecord
  2
D8
 70
     0
 62
    12
  6
CONTINUOUS
370
    -3
390
F
  0
LAYER
  5
9F
330
2
100
AcDbSymbolTableRecord
100
AcDbLayerTableRecord
  2
E8
 70
     0
 62
    12
  6
CONTINUOUS
370
    -3
390
F
  0
LAYER
  5
A0
330
2
100
AcDbSymbolTableRecord
100
AcDbLayerTableRecord
  2
F8
 70
     0
 62
    12
  6
CONTINUOUS
370
    -3
390
F
  0
LAYER
  5
A1
330
2
100
AcDbSymbolTableRecord
100
AcDbLayerTableRecord
  2
G8
 70
     0
 62
    12
  6
CONTINUOUS
370
    -3
390
F
  0
LAYER
  5
A2
330
2
100
AcDbSymbolTableRecord
100
AcDbLayerTableRecord
  2
H8
 70
     0
 62
    12
  6
CONTINUOUS
370
    -3
390
F
  0
LAYER
  5
A3
330
2
100
AcDbSymbolTableRecord
100
AcDbLayerTableRecord
  2
I8
 70
     0
 62
    12
  6
CONTINUOUS
370
    -3
390
F
  0
LAYER
  5
A4
330
2
100
AcDbSymbolTableRecord
100
AcDbLayerTableRecord
  2
9
 70
     0
 62
    13
  6
CONTINUOUS
370
    -3
390
F
  0
LAYER
  5
A5
330
2
100
AcDbSymbolTableRecord
100
AcDbLayerTableRecord
  2
A9
 70
     0
 62
    13
  6
CONTINUOUS
370
    -3
390
F
  0
LAYER
  5
A6
330
2
100
AcDbSymbolTableRecord
100
AcDbLayerTableRecord
  2
B9
 70
     0
 62
    13
  6
CONTINUOUS
370
    -3
390
F
  0
LAYER
  5
A7
330
2
100
AcDbSymbolTableRecord
100
AcDbLayerTableRecord
  2
C9
 70
     0
 62
    13
  6
CONTINUOUS
370
    -3
390
F
  0
LAYER
  5
A8
330
2
100
AcDbSymbolTableRecord
100
AcDbLayerTableRecord
  2
D9
 70
     0
 62
    13
  6
CONTINUOUS
370
    -3
390
F
  0
LAYER
  5
A9
330
2
100
AcDbSymbolTableRecord
100
AcDbLayerTableRecord
  2
E9
 70
     0
 62
    13
  6
CONTINUOUS
370
    -3
390
F
  0
LAYER
  5
AA
330
2
100
AcDbSymbolTableRecord
100
AcDbLayerTableRecord
  2
F9
 70
     0
 62
    13
  6
CONTINUOUS
370
    -3
390
F
  0
LAYER
  5
AB
330
2
100
AcDbSymbolTableRecord
100
AcDbLayerTableRecord
  2
G9
 70
     0
 62
    13
  6
CONTINUOUS
370
    -3
390
F
  0
LAYER
  5
AC
330
2
100
AcDbSymbolTableRecord
100
AcDbLayerTableRecord
  2
H9
 70
     0
 62
    13
  6
CONTINUOUS
370
    -3
390
F
  0
LAYER
  5
AD
330
2
100
AcDbSymbolTableRecord
100
AcDbLayerTableRecord
  2
I9
 70
     0
 62
    13
  6
CONTINUOUS
370
    -3
390
F
  0
LAYER
  5
AE
330
2
100
AcDbSymbolTableRecord
100
AcDbLayerTableRecord
  2
S
 70
     0
 62
     6
  6
CONTINUOUS
370
    -3
390
F
  0
LAYER
  5
AF
330
2
100
AcDbSymbolTableRecord
100
AcDbLayerTableRecord
  2
AS
 70
     0
 62
     6
  6
CENTER
370
    -3
390
F
  0
LAYER
  5
B0
330
2
100
AcDbSymbolTableRecord
100
AcDbLayerTableRecord
  2
BS
 70
     0
 62
     6
  6
CENTER
370
    -3
390
F
  0
LAYER
  5
B1
330
2
100
AcDbSymbolTableRecord
100
AcDbLayerTableRecord
  2
CS
 70
     0
 62
     6
  6
CENTER
370
    -3
390
F
  0
LAYER
  5
B2
330
2
100
AcDbSymbolTableRecord
100
AcDbLayerTableRecord
  2
DS
 70
     0
 62
     6
  6
CENTER
370
    -3
390
F
  0
LAYER
  5
B3
330
2
100
AcDbSymbolTableRecord
100
AcDbLayerTableRecord
  2
ES
 70
     0
 62
     6
  6
CENTER
370
    -3
390
F
  0
LAYER
  5
B4
330
2
100
AcDbSymbolTableRecord
100
AcDbLayerTableRecord
  2
FS
 70
     0
 62
     6
  6
CENTER
370
    -3
390
F
  0
LAYER
  5
B5
330
2
100
AcDbSymbolTableRecord
100
AcDbLayerTableRecord
  2
GS
 70
     0
 62
     6
  6
CENTER
370
    -3
390
F
  0
LAYER
  5
B6
330
2
100
AcDbSymbolTableRecord
100
AcDbLayerTableRecord
  2
HS
 70
     0
 62
     6
  6
CENTER
370
    -3
390
F
  0
LAYER
  5
B7
330
2
100
AcDbSymbolTableRecord
100
AcDbLayerTableRecord
  2
IS
 70
     0
 62
     6
  6
CENTER
370
    -3
390
F
  0
LAYER
  5
B8
330
2
100
AcDbSymbolTableRecord
100
AcDbLayerTableRecord
  2
T
 70
     0
 62
     5
  6
C5
370
    -3
390
F
  0
LAYER
  5
B9
330
2
100
AcDbSymbolTableRecord
100
AcDbLayerTableRecord
  2
AT
 70
     0
 62
     5
  6
CONTINUOUS
370
    -3
390
F
  0
LAYER
  5
BA
330
2
100
AcDbSymbolTableRecord
100
AcDbLayerTableRecord
  2
BT
 70
     0
 62
     5
  6
CONTINUOUS
370
    -3
390
F
  0
LAYER
  5
BB
330
2
100
AcDbSymbolTableRecord
100
AcDbLayerTableRecord
  2
CT
 70
     0
 62
     5
  6
CONTINUOUS
370
    -3
390
F
  0
LAYER
  5
BC
330
2
100
AcDbSymbolTableRecord
100
AcDbLayerTableRecord
  2
DT
 70
     0
 62
     5
  6
CONTINUOUS
370
    -3
390
F
  0
LAYER
  5
BD
330
2
100
AcDbSymbolTableRecord
100
AcDbLayerTableRecord
  2
ET
 70
     0
 62
     5
  6
CONTINUOUS
370
    -3
390
F
  0
LAYER
  5
BE
330
2
100
AcDbSymbolTableRecord
100
AcDbLayerTableRecord
  2
FT
 70
     0
 62
     5
  6
CONTINUOUS
370
    -3
390
F
  0
LAYER
  5
BF
330
2
100
AcDbSymbolTableRecord
100
AcDbLayerTableRecord
  2
GT
 70
     0
 62
     5
  6
CONTINUOUS
370
    -3
390
F
  0
LAYER
  5
C0
330
2
100
AcDbSymbolTableRecord
100
AcDbLayerTableRecord
  2
HT
 70
     0
 62
     5
  6
CONTINUOUS
370
    -3
390
F
  0
LAYER
  5
C1
330
2
100
AcDbSymbolTableRecord
100
AcDbLayerTableRecord
  2
IT
 70
     0
 62
     5
  6
CONTINUOUS
370
    -3
390
F
  0
LAYER
  5
C2
330
2
100
AcDbSymbolTableRecord
100
AcDbLayerTableRecord
  2
U
 70
     0
 62
     3
  6
CONTINUOUS
370
    -3
390
F
  0
LAYER
  5
C3
330
2
100
AcDbSymbolTableRecord
100
AcDbLayerTableRecord
  2
AU
 70
     0
 62
     3
  6
CONTINUOUS
370
    -3
390
F
  0
LAYER
  5
C4
330
2
100
AcDbSymbolTableRecord
100
AcDbLayerTableRecord
  2
BU
 70
     0
 62
     3
  6
CONTINUOUS
370
    -3
390
F
  0
LAYER
  5
C5
330
2
100
AcDbSymbolTableRecord
100
AcDbLayerTableRecord
  2
CU
 70
     0
 62
     3
  6
CONTINUOUS
370
    -3
390
F
  0
LAYER
  5
C6
330
2
100
AcDbSymbolTableRecord
100
AcDbLayerTableRecord
  2
DU
 70
     0
 62
     3
  6
CONTINUOUS
370
    -3
390
F
  0
LAYER
  5
C7
330
2
100
AcDbSymbolTableRecord
100
AcDbLayerTableRecord
  2
EU
 70
     0
 62
     3
  6
CONTINUOUS
370
    -3
390
F
  0
LAYER
  5
C8
330
2
100
AcDbSymbolTableRecord
100
AcDbLayerTableRecord
  2
FU
 70
     0
 62
     3
  6
CONTINUOUS
370
    -3
390
F
  0
LAYER
  5
C9
330
2
100
AcDbSymbolTableRecord
100
AcDbLayerTableRecord
  2
GU
 70
     0
 62
     3
  6
CONTINUOUS
370
    -3
390
F
  0
LAYER
  5
CA
330
2
100
AcDbSymbolTableRecord
100
AcDbLayerTableRecord
  2
HU
 70
     0
 62
     3
  6
CONTINUOUS
370
    -3
390
F
  0
LAYER
  5
CB
330
2
100
AcDbSymbolTableRecord
100
AcDbLayerTableRecord
  2
IU
 70
     0
 62
     3
  6
CONTINUOUS
370
    -3
390
F
  0
LAYER
  5
CC
330
2
100
AcDbSymbolTableRecord
100
AcDbLayerTableRecord
  2
V
 70
     0
 62
     4
  6
CONTINUOUS
370
    -3
390
F
  0
LAYER
  5
CD
330
2
100
AcDbSymbolTableRecord
100
AcDbLayerTableRecord
  2
AV
 70
     0
 62
     4
  6
CONTINUOUS
370
    -3
390
F
  0
LAYER
  5
CE
330
2
100
AcDbSymbolTableRecord
100
AcDbLayerTableRecord
  2
BV
 70
     0
 62
     4
  6
CONTINUOUS
370
    -3
390
F
  0
LAYER
  5
CF
330
2
100
AcDbSymbolTableRecord
100
AcDbLayerTableRecord
  2
CV
 70
     0
 62
     4
  6
CONTINUOUS
370
    -3
390
F
  0
LAYER
  5
D0
330
2
100
AcDbSymbolTableRecord
100
AcDbLayerTableRecord
  2
DV
 70
     0
 62
     4
  6
CONTINUOUS
370
    -3
390
F
  0
LAYER
  5
D1
330
2
100
AcDbSymbolTableRecord
100
AcDbLayerTableRecord
  2
EV
 70
     0
 62
     4
  6
CONTINUOUS
370
    -3
390
F
  0
LAYER
  5
D2
330
2
100
AcDbSymbolTableRecord
100
AcDbLayerTableRecord
  2
FV
 70
     0
 62
     4
  6
CONTINUOUS
370
    -3
390
F
  0
LAYER
  5
D3
330
2
100
AcDbSymbolTableRecord
100
AcDbLayerTableRecord
  2
GV
 70
     0
 62
     4
  6
CONTINUOUS
370
    -3
390
F
  0
LAYER
  5
D4
330
2
100
AcDbSymbolTableRecord
100
AcDbLayerTableRecord
  2
HV
 70
     0
 62
     4
  6
CONTINUOUS
370
    -3
390
F
  0
LAYER
  5
D5
330
2
100
AcDbSymbolTableRecord
100
AcDbLayerTableRecord
  2
IV
 70
     0
 62
     4
  6
CONTINUOUS
370
    -3
390
F
  0
LAYER
  5
D6
330
2
100
AcDbSymbolTableRecord
100
AcDbLayerTableRecord
  2
W
 70
     0
 62
     7
  6
CONTINUOUS
370
    -3
390
F
  0
LAYER
  5
D7
330
2
100
AcDbSymbolTableRecord
100
AcDbLayerTableRecord
  2
AW
 70
     0
 62
     7
  6
CONTINUOUS
370
    -3
390
F
  0
LAYER
  5
D8
330
2
100
AcDbSymbolTableRecord
100
AcDbLayerTableRecord
  2
BW
 70
     0
 62
     7
  6
CONTINUOUS
370
    -3
390
F
  0
LAYER
  5
D9
330
2
100
AcDbSymbolTableRecord
100
AcDbLayerTableRecord
  2
CW
 70
     0
 62
     7
  6
CONTINUOUS
370
    -3
390
F
  0
LAYER
  5
DA
330
2
100
AcDbSymbolTableRecord
100
AcDbLayerTableRecord
  2
DW
 70
     0
 62
     7
  6
CONTINUOUS
370
    -3
390
F
  0
LAYER
  5
DB
330
2
100
AcDbSymbolTableRecord
100
AcDbLayerTableRecord
  2
EW
 70
     0
 62
     7
  6
CONTINUOUS
370
    -3
390
F
  0
LAYER
  5
DC
330
2
100
AcDbSymbolTableRecord
100
AcDbLayerTableRecord
  2
FW
 70
     0
 62
     7
  6
CONTINUOUS
370
    -3
390
F
  0
LAYER
  5
DD
330
2
100
AcDbSymbolTableRecord
100
AcDbLayerTableRecord
  2
GW
 70
     0
 62
     7
  6
CONTINUOUS
370
    -3
390
F
  0
LAYER
  5
DE
330
2
100
AcDbSymbolTableRecord
100
AcDbLayerTableRecord
  2
HW
 70
     0
 62
     7
  6
CONTINUOUS
370
    -3
390
F
  0
LAYER
  5
DF
330
2
100
AcDbSymbolTableRecord
100
AcDbLayerTableRecord
  2
IW
 70
     0
 62
     7
  6
CONTINUOUS
370
    -3
390
F
  0
ENDTAB
  0
TABLE
  2
STYLE
  5
3
330
0
100
AcDbSymbolTable
 70
     9
  0
STYLE
  5
11
330
3
100
AcDbSymbolTableRecord
100
AcDbTextStyleTableRecord
  2
STANDARD
 70
     0
 40
0.0
 41
1.0
 50
0.0
 71
     0
 42
0.2
  3
T:TXT
  4
T:SUG-BIG1
  0
STYLE
  5
2A
330
3
100
AcDbSymbolTableRecord
100
AcDbTextStyleTableRecord
  2
COMPLEX
 70
     0
 40
0.0
 41
1.0
 50
0.0
 71
     0
 42
0.2
  3
T:COMPLEX
  4
T:SUG-BIG1
  0
STYLE
  5
2B
330
3
100
AcDbSymbolTableRecord
100
AcDbTextStyleTableRecord
  2
ITALIC
 70
     0
 40
0.0
 41
1.0
 50
0.0
 71
     0
 42
0.2
  3
T:ITALIC
  4
T:SUG-BIG1
  0
STYLE
  5
2C
330
3
100
AcDbSymbolTableRecord
100
AcDbTextStyleTableRecord
  2
SIMPLEX
 70
     0
 40
0.0
 41
1.0
 50
0.0
 71
     0
 42
2.0
  3
T:SIMPLEX
  4
T:SUG-BIG1
  0
STYLE
  5
2D
330
3
100
AcDbSymbolTableRecord
100
AcDbTextStyleTableRecord
  2
SIMPLEX-T
 70
     4
 40
0.0
 41
1.0
 50
0.0
 71
     0
 42
0.2
  3
T:TXT
  4
T:SUG-BIG1
  0
STYLE
  5
2E
330
3
100
AcDbSymbolTableRecord
100
AcDbTextStyleTableRecord
  2
SIMPLEX-07
 70
     0
 40
0.0
 41
0.7
 50
0.0
 71
     0
 42
0.2
  3
T:SIMPLEX
  4
T:SUG-BIG1
  0
STYLE
  5
2F
330
3
100
AcDbSymbolTableRecord
100
AcDbTextStyleTableRecord
  2
TXT
 70
     0
 40
0.0
 41
1.0
 50
0.0
 71
     0
 42
4.0
  3
T:TXT
  4
T:SUG-BIG1
  0
STYLE
  5
30
330
3
100
AcDbSymbolTableRecord
100
AcDbTextStyleTableRecord
  2
HANKAKU
 70
     0
 40
0.0
 41
1.0
 50
0.0
 71
     0
 42
4.0
  3
T:SUG-HAN1
  4
T:SUG-BIG1
  0
STYLE
  5
31
330
3
100
AcDbSymbolTableRecord
100
AcDbTextStyleTableRecord
  2
TATEGAKI
 70
     4
 40
0.0
 41
1.0
 50
0.0
 71
     0
 42
4.0
  3
Z:SUG-TAT2
  4
Z:SUG-TAT1
  0
ENDTAB
  0
TABLE
  2
VIEW
  5
6
330
0
100
AcDbSymbolTable
 70
     1
  0
VIEW
  5
38
330
6
100
AcDbSymbolTableRecord
100
AcDbViewTableRecord
  2
VIEW1
 70
     0
 40
296.0186981134472
 10
197.488587314841
 20
136.8811449392715
 41
411.9571578358113
 11
0.0
 21
0.0
 31
1.0
 12
0.0
 22
0.0
 32
0.0
 42
50.0
 43
0.0
 44
0.0
 50
0.0
 71
     0
281
     0
 72
     0
  0
ENDTAB
  0
TABLE
  2
UCS
  5
7
330
0
100
AcDbSymbolTable
 70
     0
  0
ENDTAB
  0
TABLE
  2
APPID
  5
9
330
0
100
AcDbSymbolTable
 70
     1
  0
APPID
  5
12
330
9
100
AcDbSymbolTableRecord
100
AcDbRegAppTableRecord
  2
ACAD
 70
     0
  0
ENDTAB
  0
TABLE
  2
DIMSTYLE
  5
A
330
0
100
AcDbSymbolTable
 70
     1
100
AcDbDimStyleTable
 71
     0
  0
DIMSTYLE
105
A5E
330
A
100
AcDbSymbolTableRecord
100
AcDbDimStyleTableRecord
  2
Standard
 70
     0
340
11
  0
ENDTAB
  0
TABLE
  2
BLOCK_RECORD
  5
1
330
0
100
AcDbSymbolTable
 70
     6
  0
BLOCK_RECORD
  5
20
330
1
100
AcDbSymbolTableRecord
100
AcDbBlockTableRecord
  2
*Model_Space
340
23
  0
BLOCK_RECORD
  5
1C
330
1
100
AcDbSymbolTableRecord
100
AcDbBlockTableRecord
  2
*Paper_Space
340
1F
  0
BLOCK_RECORD
  5
24
330
1
100
AcDbSymbolTableRecord
100
AcDbBlockTableRecord
  2
SUG-AR01
340
0
102
{BLKREFS
331
226
331
83C
102
}
  0
BLOCK_RECORD
  5
25
330
1
100
AcDbSymbolTableRecord
100
AcDbBlockTableRecord
  2
SUG-AR06
340
0
102
{BLKREFS
331
F3
331
100
331
113
331
135
331
A3D
102
}
  0
BLOCK_RECORD
  5
26
330
1
100
AcDbSymbolTableRecord
100
AcDbBlockTableRecord
  2
*X2
340
0
102
{BLKREFS
331
9D3
102
}
  0
BLOCK_RECORD
  5
27
330
1
100
AcDbSymbolTableRecord
100
AcDbBlockTableRecord
  2
TEXT-A18
340
0
  0
BLOCK_RECORD
  5
28
330
1
100
AcDbSymbolTableRecord
100
AcDbBlockTableRecord
  2
TEXT-B04
340
0
  0
BLOCK_RECORD
  5
29
330
1
100
AcDbSymbolTableRecord
100
AcDbBlockTableRecord
  2
TEXT-B06
340
0
  0
ENDTAB
  0
ENDSEC
  0
SECTION
  2
BLOCKS
  0
BLOCK
  5
E2
330
20
100
AcDbEntity
  8
0
100
AcDbBlockBegin
  2
*Model_Space
 70
     0
 10
0.0
 20
0.0
 30
0.0
  3
*Model_Space
  1

  0
ENDBLK
  5
E3
330
20
100
AcDbEntity
  8
0
100
AcDbBlockEnd
  0
BLOCK
  5
E0
330
1C
100
AcDbEntity
 67
     1
  8
0
100
AcDbBlockBegin
  2
*Paper_Space
 70
     0
 10
0.0
 20
0.0
 30
0.0
  3
*Paper_Space
  1

  0
ENDBLK
  5
E1
330
1C
100
AcDbEntity
 67
     1
  8
0
100
AcDbBlockEnd
  0
BLOCK
  5
E4
330
24
100
AcDbEntity
  8
0
100
AcDbBlockBegin
  2
SUG-AR01
 70
     0
 10
0.0
 20
0.0
 30
0.0
  3
SUG-AR01
  1

  0
LINE
  5
E5
330
24
100
AcDbEntity
  8
0
100
AcDbLine
 10
0.0
 20
0.0
 30
0.0
 11
5.0
 21
1.339745962155659
 31
0.0
  0
LINE
  5
E6
330
24
100
AcDbEntity
  8
0
100
AcDbLine
 10
5.0
 20
-1.339745962155659
 30
0.0
 11
5.0
 21
1.339745962155659
 31
0.0
  0
LINE
  5
E7
330
24
100
AcDbEntity
  8
0
100
AcDbLine
 10
0.0
 20
0.0
 30
0.0
 11
5.0
 21
-1.339745962155659
 31
0.0
  0
ENDBLK
  5
E8
330
24
100
AcDbEntity
  8
0
100
AcDbBlockEnd
  0
BLOCK
  5
E9
330
25
100
AcDbEntity
  8
0
100
AcDbBlockBegin
  2
SUG-AR06
 70
     0
 10
0.0
 20
0.0
 30
0.0
  3
SUG-AR06
  1

  0
ENDBLK
  5
EA
330
25
100
AcDbEntity
  8
0
100
AcDbBlockEnd
  0
BLOCK
  5
EB
330
26
100
AcDbEntity
  8
0
100
AcDbBlockBegin
  2
*X2
 70
     1
 10
0.0
 20
0.0
 30
0.0
  3
*X2
  1

  0
LINE
  5
EC
330
26
100
AcDbEntity
  8
0
 62
     0
100
AcDbLine
 10
-119.6477110674839
 20
-19.23854813899415
 30
0.0
 11
-116.1643344606472
 21
-15.75517153215743
 31
0.0
  0
LINE
  5
ED
330
26
100
AcDbEntity
  8
0
 62
     0
100
AcDbLine
 10
-120.3339764942086
 20
-18.5106000033458
 30
0.0
 11
-116.8922825962955
 21
-15.06890610543267
 31
0.0
  0
LINE
  5
EE
330
26
100
AcDbEntity
  8
0
 62
     0
100
AcDbLine
 10
-120.6946999662653
 20
-17.45710991302935
 30
0.0
 11
-117.9457726866119
 21
-14.70818263337602
 31
0.0
  0
LINE
  5
EF
330
26
100
AcDbEntity
  8
0
 62
     0
100
AcDbLine
 10
-118.649999051071
 20
-19.6550496849544
 30
0.0
 11
-115.7478329146869
 21
-16.75288354857027
 31
0.0
  0
LINE
  5
F0
330
26
100
AcDbEntity
  8
0
 62
     0
100
AcDbLine
 10
-116.9134796836151
 20
-19.33274387987155
 30
0.0
 11
-116.0701387197698
 21
-18.48940291602623
 31
0.0
  0
ENDBLK
  5
F1
330
26
100
AcDbEntity
  8
0
100
AcDbBlockEnd
  0
BLOCK
  5
F2
330
27
100
AcDbEntity
  8
0
100
AcDbBlockBegin
  2
TEXT-A18
 70
     0
 10
0.0
 20
0.0
 30
0.0
  3
TEXT-A18
  1

  0
INSERT
  5
F3
330
27
100
AcDbEntity
  8
4
100
AcDbBlockReference
  2
SUG-AR06
 10
0.0
 20
0.0
 30
0.0
  0
TEXT
  5
F4
330
27
100
AcDbEntity
  8
S
 62
     6
100
AcDbText
 10
0.6885369569813218
 20
5.13598983472538
 30
0.0
 40
2.5
  1
M.
 50
15.0
 41
0.6
 51
28.31501710730194
  7
SIMPLEX
100
AcDbText
  0
LINE
  5
F7
330
27
100
AcDbEntity
  8
6
100
AcDbLine
 10
0.7533145663546379
 20
2.23860501913901
 30
0.0
 11
7.455387342598732
 21
4.034785927095938
 31
0.0
  0
LWPOLYLINE
  5
F8
330
27
100
AcDbEntity
  8
6
100
AcDbPolyline
 90
        3
 70
     0
 43
0.0
 10
7.455387342598732
 20
4.034785927095938
 42
-1.142717597553142
 10
7.695432929140427
 20
3.390872016696286
 42
0.4734800742622324
 10
7.58981287106208
 20
3.179058230380609
 42
-1.207147990886749
  0
TEXT
  5
FD
330
27
100
AcDbEntity
  8
S
 62
     6
100
AcDbText
 10
0.6885369569813218
 20
2.445209739497442
 30
0.0
 40
2.5
  1
Sekiguchi
 50
15.0
 41
0.4
 51
28.31501710730194
  7
SIMPLEX
100
AcDbText
  0
ENDBLK
  5
FE
330
27
100
AcDbEntity
  8
0
100
AcDbBlockEnd
  0
BLOCK
  5
FF
330
28
100
AcDbEntity
  8
0
100
AcDbBlockBegin
  2
TEXT-B04
 70
     0
 10
0.0
 20
0.0
 30
0.0
  3
TEXT-B04
  1

  0
INSERT
  5
100
330
28
100
AcDbEntity
  8
4
100
AcDbBlockReference
  2
SUG-AR06
 10
0.0
 20
0.0
 30
0.0
  0
LINE
  5
101
330
28
100
AcDbEntity
  8
5
100
AcDbLine
 10
27.99999999999999
 20
5.0
 30
0.0
 11
36.00000000000001
 21
5.0
 31
0.0
  0
LINE
  5
102
330
28
100
AcDbEntity
  8
4
100
AcDbLine
 10
0.0
 20
10.0
 30
0.0
 11
36.00000000000001
 21
10.0
 31
0.0
  0
LINE
  5
103
330
28
100
AcDbEntity
  8
5
100
AcDbLine
 10
28.0
 20
0.0
 30
0.0
 11
28.0
 21
10.0
 31
0.0
  0
LINE
  5
104
330
28
100
AcDbEntity
  8
4
100
AcDbLine
 10
0.0
 20
14.0
 30
0.0
 11
0.0
 21
1.0
 31
0.0
  0
LINE
  5
105
330
28
100
AcDbEntity
  8
4
100
AcDbLine
 10
1.0
 20
0.0000000000000002
 30
0.0
 11
35.0
 21
0.0
 31
0.0
  0
LINE
  5
106
330
28
100
AcDbEntity
  8
4
100
AcDbLine
 10
36.0
 20
1.0
 30
0.0
 11
36.0
 21
13.99999999999999
 31
0.0
  0
LINE
  5
107
330
28
100
AcDbEntity
  8
4
100
AcDbLine
 10
35.0
 20
14.99999999999999
 30
0.0
 11
1.0
 21
15.0
 31
0.0
  0
TEXT
  5
108
330
28
100
AcDbEntity
  8
S
 62
     6
100
AcDbText
 10
28.69999999999999
 20
6.0
 30
0.0
 40
3.0
  1
px
  7
SIMPLEX
 72
     4
 11
31.99999999999999
 21
7.499999999999999
 31
0.0
100
AcDbText
  0
TEXT
  5
109
330
28
100
AcDbEntity
  8
S
 62
     6
100
AcDbText
 10
30.78095238095237
 20
1.5
 30
0.0
 40
2.0
  1
2
  7
SIMPLEX
 72
     4
 11
31.99999999999999
 21
2.5
 31
0.0
100
AcDbText
  0
TEXT
  5
10A
330
28
100
AcDbEntity
  8
S
 62
     6
100
AcDbText
 10
2.011214057584227
 20
10.74882595787393
 30
0.0
 40
3.0
  1
»ìêÊö· i}j
  7
SIMPLEX
 72
     4
 11
17.91121405758423
 21
12.24882595787393
 31
0.0
100
AcDbText
  0
ARC
  5
10B
330
28
100
AcDbEntity
  8
4
100
AcDbCircle
 10
1.0
 20
1.0
 30
0.0
 40
1.0
100
AcDbArc
 50
180.0
 51
270.0
  0
ARC
  5
10C
330
28
100
AcDbEntity
  8
4
100
AcDbCircle
 10
1.0
 20
14.0
 30
0.0
 40
1.0
100
AcDbArc
 50
90.0
 51
180.0
  0
ARC
  5
10D
330
28
100
AcDbEntity
  8
4
100
AcDbCircle
 10
35.0
 20
13.99999999999999
 30
0.0
 40
1.0
100
AcDbArc
 50
0.0
 51
90.0
  0
ARC
  5
10E
330
28
100
AcDbEntity
  8
4
100
AcDbCircle
 10
35.0
 20
1.0
 30
0.0
 40
1.0
100
AcDbArc
 50
270.0
 51
0.0000000000000254
  0
TEXT
  5
10F
330
28
100
AcDbEntity
  8
S
 62
     6
100
AcDbText
 10
0.6147526562379433
 20
5.181551581934704
 30
0.0
 40
3.0
  1
JIS B 0404 
  7
SIMPLEX
100
AcDbText
  0
TEXT
  5
110
330
28
100
AcDbEntity
  8
S
 62
     6
100
AcDbText
 10
7.214166451465327
 20
0.9645261667844051
 30
0.0
 40
3.0
  1
2-14
  7
SIMPLEX
100
AcDbText
  0
ENDBLK
  5
111
330
28
100
AcDbEntity
  8
0
100
AcDbBlockEnd
  0
BLOCK
  5
112
330
29
100
AcDbEntity
  8
0
100
AcDbBlockBegin
  2
TEXT-B06
 70
     0
 10
0.0
 20
0.0
 30
0.0
  3
TEXT-B06
  1

  0
INSERT
  5
113
330
29
100
AcDbEntity
  8
4
100
AcDbBlockReference
  2
SUG-AR06
 10
0.0
 20
0.0
 30
0.0
  0
LINE
  5
114
330
29
100
AcDbEntity
  8
W
100
AcDbLine
 10
-7.0
 20
-35.0
 30
0.0
 11
-7.0
 21
-5.0
 31
0.0
  0
LINE
  5
115
330
29
100
AcDbEntity
  8
W
 62
     2
100
AcDbLine
 10
-10.0
 20
-5.0
 30
0.0
 11
0.0
 21
-5.0
 31
0.0
  0
LINE
  5
116
330
29
100
AcDbEntity
  8
W
100
AcDbLine
 10
-10.0
 20
-15.0
 30
0.0
 11
0.0
 21
-15.0
 31
0.0
  0
LINE
  5
117
330
29
100
AcDbEntity
  8
W
100
AcDbLine
 10
-10.0
 20
-20.0
 30
0.0
 11
0.0
 21
-20.0
 31
0.0
  0
LINE
  5
118
330
29
100
AcDbEntity
  8
W
100
AcDbLine
 10
-10.0
 20
-25.0
 30
0.0
 11
0.0
 21
-25.0
 31
0.0
  0
LINE
  5
119
330
29
100
AcDbEntity
  8
W
100
AcDbLine
 10
-10.0
 20
-30.0
 30
0.0
 11
0.0
 21
-30.0
 31
0.0
  0
LINE
  5
11A
330
29
100
AcDbEntity
  8
W
 62
     2
100
AcDbLine
 10
-10.00000000000001
 20
0.0
 30
0.0
 11
-10.0
 21
-50.0
 31
0.0
  0
TEXT
  5
11B
330
29
100
AcDbEntity
  8
W
 62
     6
100
AcDbText
 10
-9.216855607819251
 20
-4.302229471652085
 30
0.0
 40
3.0
  1
zzæ
 41
0.9
  7
SIMPLEX
100
AcDbText
  0
TEXT
  5
11C
330
29
100
AcDbEntity
  8
W
 62
     6
100
AcDbText
 10
-8.857142857142857
 20
-14.0
 30
0.0
 40
3.0
  1
1
  7
SIMPLEX
 72
     4
 11
-8.5
 21
-12.5
 31
0.0
100
AcDbText
  0
TEXT
  5
11D
330
29
100
AcDbEntity
  8
W
 62
     6
100
AcDbText
 10
-8.857142857142857
 20
-19.0
 30
0.0
 40
3.0
  1
1
  7
SIMPLEX
 72
     4
 11
-8.5
 21
-17.5
 31
0.0
100
AcDbText
  0
TEXT
  5
11E
330
29
100
AcDbEntity
  8
W
 62
     6
100
AcDbText
 10
-8.857142857142857
 20
-24.0
 30
0.0
 40
3.0
  1
1
  7
SIMPLEX
 72
     4
 11
-8.5
 21
-22.5
 31
0.0
100
AcDbText
  0
TEXT
  5
11F
330
29
100
AcDbEntity
  8
W
 62
     6
100
AcDbText
 10
-8.857142857142857
 20
-29.0
 30
0.0
 40
3.0
  1
1
  7
SIMPLEX
 72
     4
 11
-8.5
 21
-27.5
 31
0.0
100
AcDbText
  0
TEXT
  5
120
330
29
100
AcDbEntity
  8
W
 62
     6
100
AcDbText
 10
-6.7
 20
-13.98881677972901
 30
0.0
 40
3.0
  1
Ýv
  7
SIMPLEX
 72
     4
 11
-3.5
 21
-12.48881677972901
 31
0.0
100
AcDbText
  0
TEXT
  5
121
330
29
100
AcDbEntity
  8
W
 62
     6
100
AcDbText
 10
-6.7
 20
-18.91381025145579
 30
0.0
 40
3.0
  1
iØ
  7
SIMPLEX
 72
     4
 11
-3.5
 21
-17.41381025145579
 31
0.0
100
AcDbText
  0
TEXT
  5
122
330
29
100
AcDbEntity
  8
W
 62
     6
100
AcDbText
 10
-6.599999999999999
 20
-28.93435549864936
 30
0.0
 40
3.0
  1
_c
  7
SIMPLEX
 72
     4
 11
-3.5
 21
-27.43435549864936
 31
0.0
100
AcDbText
  0
TEXT
  5
123
330
29
100
AcDbEntity
  8
W
 62
     6
100
AcDbText
 10
-5.785714285714286
 20
-23.93435549864936
 30
0.0
 40
3.0
  1
TB
  7
SIMPLEX
 72
     4
 11
-3.5
 21
-22.43435549864936
 31
0.0
100
AcDbText
  0
LINE
  5
124
330
29
100
AcDbEntity
  8
W
 62
     2
100
AcDbLine
 10
-10.00000000000001
 20
-50.0
 30
0.0
 11
-0.0000000000000009
 21
-50.0
 31
0.0
  0
TEXT
  5
125
330
29
100
AcDbEntity
  8
W
 62
     6
100
AcDbText
 10
-6.650512924535871
 20
-34.01602165490591
 30
0.0
 40
3.0
  1
Dy
  7
SIMPLEX
100
AcDbText
  0
TEXT
  5
126
330
29
100
AcDbEntity
  8
W
 62
     6
100
AcDbText
 10
-8.912482585512018
 20
-33.96299432275701
 30
0.0
 40
3.0
  1
1
  7
SIMPLEX
 72
     4
 11
-8.55533972836916
 21
-32.46299432275701
 31
0.0
100
AcDbText
  0
LINE
  5
127
330
29
100
AcDbEntity
  8
W
100
AcDbLine
 10
-10.0
 20
-10.0
 30
0.0
 11
0.0000000000000003
 21
-10.0
 31
0.0
  0
TEXT
  5
128
330
29
100
AcDbEntity
  8
W
 62
     6
100
AcDbText
 10
-6.699999999999999
 20
-8.988816779729006
 30
0.0
 40
3.0
  1
dü
  7
SIMPLEX
 72
     4
 11
-3.5
 21
-7.488816779729006
 31
0.0
100
AcDbText
  0
TEXT
  5
129
330
29
100
AcDbEntity
  8
W
 62
     6
100
AcDbText
 10
-9.214285714285713
 20
-9.642857142857142
 30
0.0
 40
3.0
  1
*
  7
SIMPLEX
 72
     4
 11
-8.5
 21
-7.5
 31
0.0
100
AcDbText
  0
TEXT
  5
12A
330
29
100
AcDbEntity
  8
W
 62
     6
100
AcDbText
 10
-6.071428571428572
 20
-38.93435549864936
 30
0.0
 40
3.0
  1
NB
  7
SIMPLEX
 72
     4
 11
-3.5
 21
-37.43435549864936
 31
0.0
100
AcDbText
  0
LINE
  5
12B
330
29
100
AcDbEntity
  8
W
100
AcDbLine
 10
-10.00000000000001
 20
-40.0
 30
0.0
 11
-0.0000000000000009
 21
-40.0
 31
0.0
  0
TEXT
  5
12C
330
29
100
AcDbEntity
  8
W
 62
     6
100
AcDbText
 10
-6.599999999999999
 20
-43.93435549864935
 30
0.0
 40
3.0
  1
ª
  7
SIMPLEX
 72
     4
 11
-3.5
 21
-42.43435549864934
 31
0.0
100
AcDbText
  0
TEXT
  5
12D
330
29
100
AcDbEntity
  8
W
 62
     6
100
AcDbText
 10
-6.650512924535871
 20
-49.0160216549059
 30
0.0
 40
3.0
  1
v
  7
SIMPLEX
100
AcDbText
  0
LINE
  5
12E
330
29
100
AcDbEntity
  8
W
100
AcDbLine
 10
-7.0
 20
-50.0
 30
0.0
 11
-7.0
 21
-20.0
 31
0.0
  0
TEXT
  5
12F
330
29
100
AcDbEntity
  8
W
 62
     6
100
AcDbText
 10
-8.857142857142859
 20
-44.0
 30
0.0
 40
3.0
  1
1
  7
SIMPLEX
 72
     4
 11
-8.500000000000001
 21
-42.5
 31
0.0
100
AcDbText
  0
TEXT
  5
130
330
29
100
AcDbEntity
  8
W
 62
     6
100
AcDbText
 10
-9.269625442654875
 20
-49.60585146561415
 30
0.0
 40
3.0
  1
*
  7
SIMPLEX
 72
     4
 11
-8.555339728369162
 21
-47.46299432275701
 31
0.0
100
AcDbText
  0
LINE
  5
131
330
29
100
AcDbEntity
  8
W
100
AcDbLine
 10
-10.00000000000001
 20
-45.0
 30
0.0
 11
-0.0000000000000009
 21
-45.0
 31
0.0
  0
LINE
  5
132
330
29
100
AcDbEntity
  8
W
 62
     2
100
AcDbLine
 10
-10.0
 20
-35.0
 30
0.0
 11
0.0
 21
-35.0
 31
0.0
  0
TEXT
  5
133
330
29
100
AcDbEntity
  8
W
 62
     6
100
AcDbText
 10
-8.912482585512018
 20
-38.962994322757
 30
0.0
 40
3.0
  1
1
  7
SIMPLEX
 72
     4
 11
-8.55533972836916
 21
-37.46299432275701
 31
0.0
100
AcDbText
  0
ENDBLK
  5
134
330
29
100
AcDbEntity
  8
0
100
AcDbBlockEnd
  0
ENDSEC
  0
SECTION
  2
ENTITIES
  0
INSERT
  5
135
330
20
100
AcDbEntity
  8
4
100
AcDbBlockReference
  2
SUG-AR06
 10
0.0
 20
0.0
 30
0.0
  0
CIRCLE
  5
145
330
20
100
AcDbEntity
  8
0
100
AcDbCircle
 10
24.18992075782114
 20
50.80772056207822
 30
0.0
 40
0.5
  0
CIRCLE
  5
146
330
20
100
AcDbEntity
  8
0
100
AcDbCircle
 10
20.96273415475446
 20
50.80772056207822
 30
0.0
 40
0.5
  0
LINE
  5
147
330
20
100
AcDbEntity
  8
0
100
AcDbLine
 10
211.7635597996266
 20
154.9575629733828
 30
0.0
 11
211.7635597996266
 21
143.4896553552669
 31
0.0
  0
LINE
  5
148
330
20
100
AcDbEntity
  8
0
100
AcDbLine
 10
206.7635597996266
 20
153.7714874560113
 30
0.0
 11
206.7635597996266
 21
143.8647451603491
 31
0.0
  0
LWPOLYLINE
  5
14A
330
20
100
AcDbEntity
  8
0
100
AcDbPolyline
 90
        3
 70
     0
 43
0.0
 10
130.441211822215
 20
211.7913004355147
 42
-0.0732816546436764
 10
130.3235811844331
 20
229.1351543927209
 42
0.0698731966063494
 10
130.3235811844331
 20
233.2233319889875
 42
0.0698731966063494
  0
LWPOLYLINE
  5
14F
330
20
100
AcDbEntity
  8
0
100
AcDbPolyline
 90
        3
 70
     0
 43
0.0
 10
127.9244408125042
 20
211.7913004355147
 42
-0.097068612818631
 10
127.8929156113917
 20
228.9406183264568
 42
0.1038741633760542
 10
127.8295167774416
 20
233.0804096860666
 42
0.1038741633760542
  0
LINE
  5
154
330
20
100
AcDbEntity
  8
0
100
AcDbLine
 10
128.0136225045206
 20
231.9913004355147
 30
0.0
 11
121.9929442083514
 21
231.9913004355147
 31
0.0
  0
LINE
  5
155
330
20
100
AcDbEntity
  8
0
100
AcDbLine
 10
130.4439590095463
 20
231.9913004355147
 30
0.0
 11
129.0194150484759
 21
231.9913004355147
 31
0.0
  0
ARC
  5
156
330
20
100
AcDbEntity
  8
0
100
AcDbCircle
 10
128.317211126679
 20
233.1906558729484
 30
0.0
 40
0.5
100
AcDbArc
 50
12.73795411109369
 51
192.7379541110936
  0
ARC
  5
157
330
20
100
AcDbEntity
  8
0
100
AcDbCircle
 10
130.8187226415163
 20
233.2928657036694
 30
0.0
 40
0.5
100
AcDbArc
 50
7.993886007958622
 51
187.9938860079586
  0
LWPOLYLINE
  5
158
330
20
100
AcDbEntity
  8
0
100
AcDbPolyline
 90
        3
 70
     0
 43
0.0
 10
131.4532506887487
 20
211.7913004355147
 42
-0.0739448678425849
 10
131.3138640985996
 20
228.9960869633571
 42
0.0698731966063496
 10
131.3138640985996
 20
233.3623994183513
 42
16.97455399390593
  0
LWPOLYLINE
  5
15D
330
20
100
AcDbEntity
  8
0
100
AcDbPolyline
 90
        3
 70
     0
 43
0.0
 10
128.9442920660653
 20
211.7913004355147
 42
-0.0982150738034222
 10
128.8745987709908
 20
228.7500975292728
 42
0.1038741633760543
 10
128.8049054759163
 20
233.3009020598303
 42
7.793174297218129
  0
LINE
  5
170
330
20
100
AcDbEntity
  8
0
100
AcDbLine
 10
132.6191633214933
 20
88.22720892041123
 30
0.0
 11
124.0929442083514
 21
88.22720892041125
 31
0.0
  0
LINE
  5
171
330
20
100
AcDbEntity
  8
0
100
AcDbLine
 10
132.6191633214933
 20
94.22720892041128
 30
0.0
 11
124.0929442083514
 21
94.22720892041128
 31
0.0
  0
TEXT
  5
18C
330
20
100
AcDbEntity
  8
0
100
AcDbText
 10
17.54027684546638
 20
80.92146442598005
 30
0.0
 40
2.0
  1
7
  7
SIMPLEX
100
AcDbText
  0
TEXT
  5
18D
330
20
100
AcDbEntity
  8
0
100
AcDbText
 10
27.17332413686247
 20
80.75146893657933
 30
0.0
 40
2.0
  1
6
  7
SIMPLEX
100
AcDbText
  0
TEXT
  5
18E
330
20
100
AcDbEntity
  8
0
100
AcDbText
 10
43.26051311349393
 20
80.66647119187896
 30
0.0
 40
2.0
  1
5
  7
SIMPLEX
100
AcDbText
  0
TEXT
  5
18F
330
20
100
AcDbEntity
  8
0
100
AcDbText
 10
56.65044884853447
 20
80.66647119187896
 30
0.0
 40
2.0
  1
4
  7
SIMPLEX
100
AcDbText
  0
TEXT
  5
190
330
20
100
AcDbEntity
  8
0
100
AcDbText
 10
63.8752343170815
 20
80.49647570247824
 30
0.0
 40
2.0
  1
3
  7
SIMPLEX
100
AcDbText
  0
TEXT
  5
191
330
20
100
AcDbEntity
  8
0
100
AcDbText
 10
69.75139316483314
 20
80.66647119187896
 30
0.0
 40
2.0
  1
2
  7
SIMPLEX
100
AcDbText
  0
TEXT
  5
192
330
20
100
AcDbEntity
  8
0
100
AcDbText
 10
87.47620018100192
 20
80.58147344717859
 30
0.0
 40
2.0
  1
1
  7
SIMPLEX
100
AcDbText
  0
LINE
  5
1E8
330
20
100
AcDbEntity
  8
0
100
AcDbLine
 10
132.6191633214933
 20
88.22720892041123
 30
0.0
 11
132.6191633214933
 21
94.22720892041128
 31
0.0
  0
INSERT
  5
226
330
20
100
AcDbEntity
  8
0
100
AcDbBlockReference
  2
SUG-AR01
 10
127.4474816106452
 20
226.0926994489768
 30
0.0
 41
0.5
 42
0.5
 43
0.5
 50
104.6029997794117
  0
ARC
  5
30C
330
20
100
AcDbEntity
  8
0
100
AcDbCircle
 10
205.5574935641068
 20
164.7913004355148
 30
0.0
 40
1.0
100
AcDbArc
 50
90.0
 51
176.8721938787138
  0
ARC
  5
30D
330
20
100
AcDbEntity
  8
0
100
AcDbCircle
 10
212.8159970658427
 20
164.7913004355148
 30
0.0
 40
1.0
100
AcDbArc
 50
14.99999999999927
 51
90.0
  0
ARC
  5
30E
330
20
100
AcDbEntity
  8
0
100
AcDbCircle
 10
214.7172452866183
 20
163.4913004355147
 30
0.0
 40
0.5
100
AcDbArc
 50
194.9999999999997
 51
270.0
  0
LINE
  5
30F
330
20
100
AcDbEntity
  8
0
100
AcDbLine
 10
213.7819228921318
 20
165.0501194806173
 30
0.0
 11
214.2342823734738
 21
163.3618909129634
 31
0.0
  0
LINE
  5
310
330
20
100
AcDbEntity
  8
0
100
AcDbLine
 10
205.5574935641068
 20
165.7913004355148
 30
0.0
 11
212.8159970658427
 21
165.7913004355148
 31
0.0
  0
LINE
  5
3C0
330
20
100
AcDbEntity
  8
0
100
AcDbLine
 10
384.4
 20
270.4
 30
0.0
 11
384.4
 21
284.6457413789151
 31
0.0
  0
LINE
  5
3C1
330
20
100
AcDbEntity
  8
0
100
AcDbLine
 10
384.4
 20
270.4
 30
0.0
 11
397.5874936504322
 21
270.4
 31
0.0
  0
LINE
  5
3C2
330
20
100
AcDbEntity
  8
0
100
AcDbLine
 10
0.0
 20
0.0
 30
0.0
 11
0.0
 21
-13.87335872028505
 31
0.0
  0
LINE
  5
3C3
330
20
100
AcDbEntity
  8
0
100
AcDbLine
 10
0.0
 20
0.0
 30
0.0
 11
-16.1627586695196
 21
0.0
 31
0.0
  0
TEXT
  5
436
330
20
100
AcDbEntity
  8
0
100
AcDbText
 10
286.1999999999998
 20
2.700000000000044
 30
0.0
 40
4.0
  1
MF30A-33
  7
SIMPLEX
100
AcDbText
  0
TEXT
  5
437
330
20
100
AcDbEntity
  8
0
100
AcDbText
 10
286.1999999999998
 20
11.70000000000004
 30
0.0
 40
4.0
  1
dCù
  7
SIMPLEX
100
AcDbText
  0
LINE
  5
643
330
20
100
AcDbEntity
  8
0
100
AcDbLine
 10
215.5833240538218
 20
182.8913004355147
 30
0.0
 11
215.5833240538218
 21
193.0
 31
0.0
  0
LINE
  5
6A1
330
20
100
AcDbEntity
  8
0
100
AcDbLine
 10
128.6764992937029
 20
95.01723573902053
 30
0.0
 11
129.7517912656602
 21
95.21703583506299
 31
0.0
  0
LINE
  5
6A2
330
20
100
AcDbEntity
  8
0
100
AcDbLine
 10
131.5062150093799
 20
94.71753559495676
 30
0.0
 11
128.6764992937029
 21
95.01723573902053
 31
0.0
  0
LINE
  5
6A3
330
20
100
AcDbEntity
  8
0
100
AcDbLine
 10
128.6764992937029
 20
94.16808533083989
 30
0.0
 11
131.5062150093799
 21
94.71753559495676
 31
0.0
  0
LINE
  5
6A4
330
20
100
AcDbEntity
  8
0
100
AcDbLine
 10
128.5067163507623
 20
87.62463218544814
 30
0.0
 11
130.8475074786037
 21
88.22720892041125
 31
0.0
  0
LINE
  5
6A5
330
20
100
AcDbEntity
  8
0
100
AcDbLine
 10
131.2232434378122
 20
87.62463218544814
 30
0.0
 11
128.5067163507623
 21
87.62463218544814
 31
0.0
  0
LINE
  5
6A6
330
20
100
AcDbEntity
  8
0
100
AcDbLine
 10
129.3929442083514
 20
87.42720892041132
 30
0.0
 11
130.5929442083514
 21
87.42720892041132
 31
0.0
  0
LINE
  5
6A7
330
20
100
AcDbEntity
  8
0
100
AcDbLine
 10
134.0121353094397
 20
87.39738773766962
 30
0.0
 11
134.6912670812022
 21
94.78999129124201
 31
0.0
  0
LINE
  5
6A8
330
20
100
AcDbEntity
  8
0
100
AcDbLine
 10
135.2008834623817
 20
87.20067501114677
 30
0.0
 11
135.8234209198306
 21
94.84302868477227
 31
0.0
  0
LINE
  5
6A9
330
20
100
AcDbEntity
  8
0
100
AcDbLine
 10
134.6918522170743
 20
94.83751649674109
 30
0.0
 11
135.2012010458961
 21
87.24511284712617
 31
0.0
  0
LINE
  5
6AA
330
20
100
AcDbEntity
  8
0
100
AcDbLine
 10
133.3897686852288
 20
94.74305212131808
 30
0.0
 11
134.0123061426777
 21
87.45034861576694
 31
0.0
  0
LINE
  5
6AB
330
20
100
AcDbEntity
  8
0
100
AcDbLine
 10
132.3151409325075
 20
74.47185215980026
 30
0.0
 11
133.3904329044647
 21
94.70161188410306
 31
0.0
  0
LINE
  5
6AC
330
20
100
AcDbEntity
  8
0
100
AcDbLine
 10
135.5244113256412
 20
94.86738566698864
 30
0.0
 11
135.7507885828953
 21
87.42483208940562
 31
0.0
  0
LINE
  5
6AD
330
20
100
AcDbEntity
  8
0
100
AcDbLine
 10
134.9018738681923
 20
87.22503199336314
 30
0.0
 11
135.5244113256412
 21
94.86738566698864
 31
0.0
  0
LINE
  5
6AE
330
20
100
AcDbEntity
  8
0
100
AcDbLine
 10
134.3925250393704
 20
94.81743564297799
 30
0.0
 11
134.9018738681923
 21
87.22503199336314
 31
0.0
  0
LINE
  5
6AF
330
20
100
AcDbEntity
  8
0
100
AcDbLine
 10
133.7133932676079
 20
87.42483208940562
 30
0.0
 11
134.3925250393704
 21
94.81743564297799
 31
0.0
  0
LINE
  5
6B0
330
20
100
AcDbEntity
  8
0
100
AcDbLine
 10
133.090855810159
 20
94.71753559495676
 30
0.0
 11
133.7133932676079
 21
87.42483208940562
 31
0.0
  0
LINE
  5
6B1
330
20
100
AcDbEntity
  8
0
100
AcDbLine
 10
132.0155638382018
 20
74.48777587065395
 30
0.0
 11
133.090855810159
 21
94.71753559495676
 31
0.0
  0
LINE
  5
6B2
330
20
100
AcDbEntity
  8
0
100
AcDbLine
 10
131.4929442083514
 20
97.12720892041126
 30
0.0
 11
135.8929442083514
 21
97.12720892041126
 31
0.0
  0
LINE
  5
6B3
330
20
100
AcDbEntity
  8
0
100
AcDbLine
 10
131.4929442083514
 20
98.72720892041126
 30
0.0
 11
135.8929442083514
 21
98.72720892041126
 31
0.0
  0
LINE
  5
6B4
330
20
100
AcDbEntity
  8
0
100
AcDbLine
 10
131.4929442083514
 20
95.22720892041126
 30
0.0
 11
128.4929442083514
 21
95.22720892041126
 31
0.0
  0
LINE
  5
6B5
330
20
100
AcDbEntity
  8
0
100
AcDbLine
 10
128.4929442083514
 20
95.22720892041126
 30
0.0
 11
128.4929442083514
 21
99.22720892041136
 31
0.0
  0
LINE
  5
6B6
330
20
100
AcDbEntity
  8
0
100
AcDbLine
 10
131.4929442083514
 20
95.22720892041126
 30
0.0
 11
131.4929442083514
 21
99.22720892041136
 31
0.0
  0
LINE
  5
6B7
330
20
100
AcDbEntity
  8
0
100
AcDbLine
 10
136.7929442083513
 20
76.72720892041131
 30
0.0
 11
136.7929442083513
 21
74.22720892041131
 31
0.0
  0
LINE
  5
6B8
330
20
100
AcDbEntity
  8
0
100
AcDbLine
 10
123.1929442083513
 20
76.72720892041131
 30
0.0
 11
123.1929442083514
 21
74.22720892041131
 31
0.0
  0
LINE
  5
6B9
330
20
100
AcDbEntity
  8
0
100
AcDbLine
 10
124.0929442083514
 20
78.22720892041131
 30
0.0
 11
135.8929442083514
 21
78.22720892041131
 31
0.0
  0
LINE
  5
6BA
330
20
100
AcDbEntity
  8
0
100
AcDbLine
 10
129.3929442083514
 20
78.2272089204113
 30
0.0
 11
129.3929442083514
 21
88.22720892041125
 31
0.0
  0
LINE
  5
6BB
330
20
100
AcDbEntity
  8
0
100
AcDbLine
 10
130.5929442083515
 20
78.2272089204113
 30
0.0
 11
130.5929442083514
 21
88.22720892041125
 31
0.0
  0
LINE
  5
6BC
330
20
100
AcDbEntity
  8
0
100
AcDbLine
 10
130.5929442083514
 20
94.22720892041128
 30
0.0
 11
130.5929442083514
 21
95.22720892041126
 31
0.0
  0
LINE
  5
6BD
330
20
100
AcDbEntity
  8
0
100
AcDbLine
 10
129.3929442083514
 20
94.22720892041128
 30
0.0
 11
129.3929442083514
 21
95.22720892041126
 31
0.0
  0
LINE
  5
6BE
330
20
100
AcDbEntity
  8
0
100
AcDbLine
 10
129.3929442083515
 20
67.22720892041131
 30
0.0
 11
129.3929442083514
 21
74.22720892041131
 31
0.0
  0
LINE
  5
6BF
330
20
100
AcDbEntity
  8
0
100
AcDbLine
 10
130.5929442083515
 20
67.22720892041131
 30
0.0
 11
130.5929442083515
 21
74.22720892041131
 31
0.0
  0
LINE
  5
6C0
330
20
100
AcDbEntity
  8
0
100
AcDbLine
 10
129.3929442083515
 20
67.22720892041131
 30
0.0
 11
130.5929442083515
 21
67.22720892041131
 31
0.0
  0
ARC
  5
6C1
330
20
100
AcDbEntity
  8
0
100
AcDbCircle
 10
58.89924910122885
 20
162.4040003176151
 30
0.0
 40
9.0
100
AcDbArc
 50
79.52431830361039
 51
134.5243183036102
  0
ARC
  5
6C2
330
20
100
AcDbEntity
  8
0
100
AcDbCircle
 10
58.89924910122885
 20
162.4040003176151
 30
0.0
 40
13.0
100
AcDbArc
 50
79.5243183036103
 51
134.5243183036103
  0
ARC
  5
6C3
330
20
100
AcDbEntity
  8
0
100
AcDbCircle
 10
60.89924910122885
 20
173.2206541440072
 30
0.0
 40
2.0
100
AcDbArc
 50
259.5243183036098
 51
79.52431830361027
  0
ARC
  5
6C4
330
20
100
AcDbEntity
  8
0
100
AcDbCircle
 10
51.18591787967538
 20
170.246482161178
 30
0.0
 40
2.0
100
AcDbArc
 50
134.5243183036101
 51
314.5243183036108
  0
TEXT
  5
6C5
330
20
100
AcDbEntity
  8
0
100
AcDbText
 10
133.7102035603838
 20
182.9393872246412
 30
0.0
 40
2.0
  1
7
  7
SIMPLEX
100
AcDbText
  0
TEXT
  5
6C6
330
20
100
AcDbEntity
  8
0
100
AcDbText
 10
134.0107541038626
 20
198.5856949292705
 30
0.0
 40
2.0
  1
1
  7
SIMPLEX
100
AcDbText
  0
ARC
  5
6C7
330
20
100
AcDbEntity
  8
0
100
AcDbCircle
 10
198.5833240538218
 20
161.9913004355147
 30
0.0
 40
11.0
100
AcDbArc
 50
30.47022041078696
 51
115.3511387992983
  0
ARC
  5
6C8
330
20
100
AcDbEntity
  8
0
100
AcDbCircle
 10
206.2966552753752
 20
169.8337822790777
 30
0.0
 40
2.0
100
AcDbArc
 50
225.4756816963892
 51
45.47568169638986
  0
ARC
  5
6C9
330
20
100
AcDbEntity
  8
0
100
AcDbCircle
 10
196.5833240538217
 20
172.8079542619069
 30
0.0
 40
2.0
100
AcDbArc
 50
100.4756816963897
 51
280.4756816963902
  0
ARC
  5
6CA
330
20
100
AcDbEntity
  8
0
100
AcDbCircle
 10
198.5833240538218
 20
161.9913004355147
 30
0.0
 40
13.0
100
AcDbArc
 50
45.47568169638966
 51
100.4756816963897
  0
ARC
  5
6CB
330
20
100
AcDbEntity
  8
0
100
AcDbCircle
 10
198.5833240538218
 20
161.9913004355147
 30
0.0
 40
9.0
100
AcDbArc
 50
45.47568169638974
 51
100.4756816963896
  0
CIRCLE
  5
6CC
330
20
100
AcDbEntity
  8
0
100
AcDbCircle
 10
196.5833240538217
 20
172.8079542619069
 30
0.0
 40
1.0
  0
LINE
  5
6CD
330
20
100
AcDbEntity
  8
0
100
AcDbLine
 10
203.3475442745237
 20
167.7687925252643
 30
0.0
 11
209.4811343309799
 21
172.063578519083
 31
0.0
  0
LINE
  5
6CE
330
20
100
AcDbEntity
  8
0
100
AcDbLine
 10
196.5833240538217
 20
169.2077544926306
 30
0.0
 11
196.5833240538217
 21
176.6954853714323
 31
0.0
  0
ARC
  5
6CF
330
20
100
AcDbEntity
  8
0
100
AcDbCircle
 10
192.1833240538219
 20
173.9913004355147
 30
0.0
 40
0.5
100
AcDbArc
 50
0.0
 51
90.0
  0
ARC
  5
6D0
330
20
100
AcDbEntity
  8
0
  6
H2
100
AcDbCircle
 10
191.5833240538218
 20
174.9913004355147
 30
0.0
 40
0.5
100
AcDbArc
 50
180.0
 51
270.0
  0
ARC
  5
6D1
330
20
100
AcDbEntity
  8
0
  6
H2
100
AcDbCircle
 10
196.0833240538219
 20
176.7814998932638
 30
0.0
 40
5.0
100
AcDbArc
 50
99.59406822685878
 51
180.0
  0
LINE
  5
6D2
330
20
100
AcDbEntity
  8
0
  6
H2
100
AcDbLine
 10
191.5833240538218
 20
174.4913004355147
 30
0.0
 11
192.1833240538219
 21
174.4913004355147
 31
0.0
  0
LINE
  5
6D3
330
20
100
AcDbEntity
  8
0
  6
H2
100
AcDbLine
 10
191.0833240538218
 20
174.9913004355147
 30
0.0
 11
191.0833240538219
 21
176.7814998932638
 31
0.0
  0
LINE
  5
6D4
330
20
100
AcDbEntity
  8
0
  6
H2
100
AcDbLine
 10
191.0833240538219
 20
171.9913004355147
 30
0.0
 11
192.6833240538219
 21
171.9913004355147
 31
0.0
  0
LINE
  5
6D5
330
20
100
AcDbEntity
  8
0
  6
H5
100
AcDbLine
 10
199.3334669109645
 20
180.8913004355146
 30
0.0
 11
199.3334669109645
 21
179.3913004355148
 31
0.0
  0
LWPOLYLINE
  5
6D6
330
20
100
AcDbEntity
  8
0
100
AcDbPolyline
 90
       16
 70
     1
 43
0.0
 10
82.11674057632565
 20
50.69856339382727
 42
0.0554126108584769
 10
82.19619586616863
 20
49.98382250195934
 42
0.0692093214080953
 10
82.39917355515784
 20
49.44394753646882
 42
0.1058274332142485
 10
82.74839296970801
 20
49.03657786817536
 42
0.1642628795780698
 10
83.08102708311599
 20
48.92426863278259
 42
0.1642628795780616
 10
83.41366119652397
 20
49.03657786817536
 42
0.1058274332142542
 10
83.76288061107411
 20
49.44394753646882
 42
0.0692093214081042
 10
83.96585830006332
 20
49.98382250195938
 42
0.0554126108584889
 10
84.04531358990633
 20
50.69856339382727
 42
0.0554126108584949
 10
83.96585830006332
 20
51.41330428569522
 42
0.0692093214081002
 10
83.76288061107411
 20
51.95317925118573
 42
0.1058274332142545
 10
83.41366119652397
 20
52.36054891947919
 42
0.1642628795780616
 10
83.08102708311599
 20
52.47285815487194
 42
0.1642628795780634
 10
82.74839296970801
 20
52.36054891947919
 42
0.1058274332142599
 10
82.39917355515784
 20
51.95317925118573
 42
0.0692093214081064
 10
82.19619586616863
 20
51.41330428569517
 42
0.0554126108584796
  0
LWPOLYLINE
  5
6E8
330
20
100
AcDbEntity
  8
0
100
AcDbPolyline
 90
       16
 70
     1
 43
0.0
 10
80.86399229399974
 20
50.69856339382727
 42
0.0554126108584769
 10
80.94344758384272
 20
49.98382250195934
 42
0.0692093214080953
 10
81.14642527283193
 20
49.44394753646882
 42
0.1058274332142485
 10
81.49564468738208
 20
49.03657786817536
 42
0.1642628795780698
 10
81.82827880079008
 20
48.92426863278259
 42
0.1642628795780616
 10
82.16091291419806
 20
49.03657786817536
 42
0.1058274332142542
 10
82.51013232874822
 20
49.44394753646882
 42
0.0692093214081042
 10
82.71311001773742
 20
49.98382250195938
 42
0.0554126108584889
 10
82.79256530758042
 20
50.69856339382727
 42
0.0554126108584949
 10
82.71311001773741
 20
51.41330428569522
 42
0.0692093214081002
 10
82.51013232874822
 20
51.95317925118573
 42
0.1058274332142545
 10
82.16091291419806
 20
52.36054891947919
 42
0.1642628795780616
 10
81.82827880079008
 20
52.47285815487194
 42
0.1642628795780634
 10
81.4956446873821
 20
52.36054891947919
 42
0.1058274332142599
 10
81.14642527283193
 20
51.95317925118573
 42
0.0692093214081064
 10
80.94344758384272
 20
51.41330428569517
 42
0.0554126108584796
  0
LWPOLYLINE
  5
6FA
330
20
100
AcDbEntity
  8
0
100
AcDbPolyline
 90
       16
 70
     1
 43
0.0
 10
79.24860635100055
 20
50.69856339382727
 42
0.0554126108584769
 10
79.32806164084353
 20
49.98382250195934
 42
0.0692093214080953
 10
79.53103932983275
 20
49.44394753646882
 42
0.1058274332142485
 10
79.88025874438289
 20
49.03657786817536
 42
0.1642628795780698
 10
80.21289285779088
 20
48.92426863278259
 42
0.1642628795780616
 10
80.54552697119886
 20
49.03657786817536
 42
0.1058274332142542
 10
80.894746385749
 20
49.44394753646882
 42
0.0692093214081042
 10
81.09772407473824
 20
49.98382250195938
 42
0.0554126108584889
 10
81.17717936458122
 20
50.69856339382727
 42
0.0554126108584949
 10
81.09772407473821
 20
51.41330428569522
 42
0.0692093214081002
 10
80.894746385749
 20
51.95317925118573
 42
0.1058274332142545
 10
80.54552697119886
 20
52.36054891947919
 42
0.1642628795780616
 10
80.21289285779088
 20
52.47285815487194
 42
0.1642628795780634
 10
79.8802587443829
 20
52.36054891947919
 42
0.1058274332142599
 10
79.53103932983275
 20
51.95317925118573
 42
0.0692093214081064
 10
79.32806164084353
 20
51.41330428569517
 42
0.0554126108584796
  0
LWPOLYLINE
  5
70C
330
20
100
AcDbEntity
  8
0
100
AcDbPolyline
 90
       16
 70
     1
 43
0.0
 10
77.63322040800135
 20
50.69856339382727
 42
0.0554126108584769
 10
77.71267569784432
 20
49.98382250195934
 42
0.0692093214080953
 10
77.91565338683354
 20
49.44394753646882
 42
0.1058274332142485
 10
78.26487280138369
 20
49.03657786817536
 42
0.1642628795780698
 10
78.59750691479169
 20
48.92426863278259
 42
0.1642628795780616
 10
78.93014102819965
 20
49.03657786817536
 42
0.1058274332142542
 10
79.27936044274979
 20
49.44394753646882
 42
0.0692093214081042
 10
79.48233813173904
 20
49.98382250195938
 42
0.0554126108584889
 10
79.561793421582
 20
50.69856339382727
 42
0.0554126108584949
 10
79.48233813173901
 20
51.41330428569522
 42
0.0692093214081002
 10
79.27936044274979
 20
51.95317925118573
 42
0.1058274332142545
 10
78.93014102819965
 20
52.36054891947919
 42
0.1642628795780616
 10
78.59750691479169
 20
52.47285815487194
 42
0.1642628795780634
 10
78.26487280138372
 20
52.36054891947919
 42
0.1058274332142599
 10
77.91565338683354
 20
51.95317925118573
 42
0.0692093214081064
 10
77.71267569784432
 20
51.41330428569517
 42
0.0554126108584796
  0
LWPOLYLINE
  5
71E
330
20
100
AcDbEntity
  8
0
100
AcDbPolyline
 90
       16
 70
     1
 43
0.0
 10
76.06728505509396
 20
50.69856339382727
 42
0.0554126108584769
 10
76.14674034493693
 20
49.98382250195934
 42
0.0692093214080953
 10
76.34971803392615
 20
49.44394753646882
 42
0.1058274332142485
 10
76.6989374484763
 20
49.03657786817536
 42
0.1642628795780698
 10
77.03157156188429
 20
48.92426863278259
 42
0.1642628795780616
 10
77.36420567529227
 20
49.03657786817536
 42
0.1058274332142542
 10
77.71342508984243
 20
49.44394753646882
 42
0.0692093214081042
 10
77.91640277883164
 20
49.98382250195938
 42
0.0554126108584889
 10
77.99585806867462
 20
50.69856339382727
 42
0.0554126108584949
 10
77.91640277883162
 20
51.41330428569522
 42
0.0692093214081002
 10
77.71342508984243
 20
51.95317925118573
 42
0.1058274332142545
 10
77.36420567529227
 20
52.36054891947919
 42
0.1642628795780616
 10
77.03157156188429
 20
52.47285815487194
 42
0.1642628795780634
 10
76.69893744847633
 20
52.36054891947919
 42
0.1058274332142599
 10
76.34971803392615
 20
51.95317925118573
 42
0.0692093214081064
 10
76.14674034493693
 20
51.41330428569517
 42
0.0554126108584796
  0
LWPOLYLINE
  5
730
330
20
100
AcDbEntity
  8
0
100
AcDbPolyline
 90
       16
 70
     1
 43
0.0
 10
74.51783323221718
 20
50.69856339382727
 42
0.0554126108584769
 10
74.59728852206017
 20
49.98382250195934
 42
0.0692093214080953
 10
74.80026621104939
 20
49.44394753646882
 42
0.1058274332142485
 10
75.14948562559952
 20
49.03657786817536
 42
0.1642628795780698
 10
75.48211973900752
 20
48.92426863278259
 42
0.1642628795780616
 10
75.81475385241549
 20
49.03657786817536
 42
0.1058274332142542
 10
76.16397326696564
 20
49.44394753646882
 42
0.0692093214081042
 10
76.36695095595486
 20
49.98382250195938
 42
0.0554126108584889
 10
76.44640624579785
 20
50.69856339382727
 42
0.0554126108584949
 10
76.36695095595484
 20
51.41330428569522
 42
0.0692093214081002
 10
76.16397326696564
 20
51.95317925118573
 42
0.1058274332142545
 10
75.81475385241549
 20
52.36054891947919
 42
0.1642628795780616
 10
75.48211973900752
 20
52.47285815487194
 42
0.1642628795780634
 10
75.14948562559955
 20
52.36054891947919
 42
0.1058274332142599
 10
74.80026621104939
 20
51.95317925118573
 42
0.0692093214081064
 10
74.59728852206017
 20
51.41330428569517
 42
0.0554126108584796
  0
LINE
  5
742
330
20
100
AcDbEntity
  8
0
100
AcDbLine
 10
76.89924910122883
 20
147.4040003176151
 30
0.0
 11
76.89924910122886
 21
148.6540003176151
 31
0.0
  0
LINE
  5
743
330
20
100
AcDbEntity
  8
0
100
AcDbLine
 10
71.89924910122883
 20
147.4040003176151
 30
0.0
 11
71.89924910122886
 21
148.654000317615
 31
0.0
  0
LINE
  5
744
330
20
100
AcDbEntity
  8
0
100
AcDbLine
 10
71.29924910122888
 20
147.4040003176151
 30
0.0
 11
77.4992491012288
 21
147.4040003176151
 31
0.0
  0
LINE
  5
745
330
20
100
AcDbEntity
  8
0
100
AcDbLine
 10
54.58062903451914
 20
162.4040003176151
 30
0.0
 11
63.13229991614888
 21
162.4040003176151
 31
0.0
  0
LINE
  5
746
330
20
100
AcDbEntity
  8
0
100
AcDbLine
 10
67.29817558798592
 20
197.7600163120543
 30
0.0
 11
68.55871028876165
 21
195.1435818232321
 31
0.0
  0
LINE
  5
747
330
20
100
AcDbEntity
  8
0
100
AcDbLine
 10
69.02411183396961
 20
197.9040003176151
 30
0.0
 11
69.67714199929893
 21
195.5653688348668
 31
0.0
  0
LINE
  5
748
330
20
100
AcDbEntity
  8
0
100
AcDbLine
 10
74.19924910122873
 20
197.9040003176151
 30
0.0
 11
74.19924910122873
 21
186.904000317615
 31
0.0
  0
LINE
  5
749
330
20
100
AcDbEntity
  8
0
100
AcDbLine
 10
74.19924910122873
 20
189.5040003176151
 30
0.0
 11
77.14924910122883
 21
189.5040003176151
 31
0.0
  0
LINE
  5
74A
330
20
100
AcDbEntity
  8
0
100
AcDbLine
 10
77.14924910122883
 20
190.304000317615
 30
0.0
 11
74.19924910122873
 21
190.304000317615
 31
0.0
  0
LINE
  5
74B
330
20
100
AcDbEntity
  8
0
100
AcDbLine
 10
74.19924910122873
 20
192.0040003176151
 30
0.0
 11
77.14924910122883
 21
192.0040003176151
 31
0.0
  0
LINE
  5
74C
330
20
100
AcDbEntity
  8
0
100
AcDbLine
 10
77.14924910122883
 20
192.804000317615
 30
0.0
 11
74.19924910122873
 21
192.804000317615
 31
0.0
  0
LINE
  5
74D
330
20
100
AcDbEntity
  8
0
100
AcDbLine
 10
74.19924910122873
 20
194.5040003176151
 30
0.0
 11
77.14924910122883
 21
194.5040003176151
 31
0.0
  0
LINE
  5
74E
330
20
100
AcDbEntity
  8
0
100
AcDbLine
 10
77.14924910122878
 20
195.304000317615
 30
0.0
 11
74.19924910122873
 21
195.304000317615
 31
0.0
  0
LINE
  5
74F
330
20
100
AcDbEntity
  8
0
100
AcDbLine
 10
73.49924910122869
 20
189.9040003176151
 30
0.0
 11
78.39924910122866
 21
189.9040003176151
 31
0.0
  0
LINE
  5
750
330
20
100
AcDbEntity
  8
0
100
AcDbLine
 10
73.49924910122869
 20
194.9040003176151
 30
0.0
 11
78.39924910122866
 21
194.9040003176151
 31
0.0
  0
LINE
  5
751
330
20
100
AcDbEntity
  8
0
100
AcDbLine
 10
74.19924910122873
 20
188.4040003176151
 30
0.0
 11
68.19924910122873
 21
188.4040003176151
 31
0.0
  0
LINE
  5
752
330
20
100
AcDbEntity
  8
0
100
AcDbLine
 10
68.19924910122873
 20
188.4040003176151
 30
0.0
 11
68.19924910122873
 21
196.404000317615
 31
0.0
  0
LINE
  5
753
330
20
100
AcDbEntity
  8
0
100
AcDbLine
 10
68.19924910122873
 20
196.404000317615
 30
0.0
 11
74.19924910122873
 21
196.404000317615
 31
0.0
  0
LINE
  5
754
330
20
100
AcDbEntity
  8
0
100
AcDbLine
 10
71.1475607109185
 20
189.9040003176151
 30
0.0
 11
67.82000634218403
 21
189.9040003176151
 31
0.0
  0
LINE
  5
755
330
20
100
AcDbEntity
  8
0
100
AcDbLine
 10
69.69924910122873
 20
188.0635310476998
 30
0.0
 11
69.69924910122873
 21
191.3931245323632
 31
0.0
  0
LINE
  5
756
330
20
100
AcDbEntity
  8
0
100
AcDbLine
 10
72.13542841413654
 20
195.404000317615
 30
0.0
 11
74.81306982022751
 21
195.404000317615
 31
0.0
  0
CIRCLE
  5
757
330
20
100
AcDbEntity
  8
0
100
AcDbCircle
 10
73.49924910122869
 20
195.404000317615
 30
0.0
 40
0.75
  0
CIRCLE
  5
758
330
20
100
AcDbEntity
  8
0
100
AcDbCircle
 10
69.69924910122873
 20
189.9040003176151
 30
0.0
 40
1.0
  0
CIRCLE
  5
759
330
20
100
AcDbEntity
  8
0
100
AcDbCircle
 10
69.09924910122871
 20
195.404000317615
 30
0.0
 40
0.6
  0
LINE
  5
75A
330
20
100
AcDbEntity
  8
0
100
AcDbLine
 10
68.63995266898363
 20
195.0179345365273
 30
0.0
 11
67.14924910122878
 21
196.7914012972324
 31
0.0
  0
LINE
  5
75B
330
20
100
AcDbEntity
  8
0
100
AcDbLine
 10
69.61924592257893
 20
195.7033384304335
 30
0.0
 11
68.35242668597263
 21
197.9040003176151
 31
0.0
  0
LINE
  5
75C
330
20
100
AcDbEntity
  8
0
100
AcDbLine
 10
58.89924910122885
 20
158.0519789627145
 30
0.0
 11
58.89924910122885
 21
166.8037149606206
 31
0.0
  0
LINE
  5
75D
330
20
100
AcDbEntity
  8
0
100
AcDbLine
 10
75.79924910122875
 20
210.4040003176151
 30
0.0
 11
74.1992491012288
 21
210.4040003176151
 31
0.0
  0
LINE
  5
75E
330
20
100
AcDbEntity
  8
0
100
AcDbLine
 10
75.79924910122875
 20
205.404000317615
 30
0.0
 11
74.1992491012288
 21
205.404000317615
 31
0.0
  0
LINE
  5
75F
330
20
100
AcDbEntity
  8
0
100
AcDbLine
 10
58.89924910122885
 20
158.5980454958692
 30
0.0
 11
58.89924910122885
 21
166.0663309040031
 31
0.0
  0
LINE
  5
760
330
20
100
AcDbEntity
  8
0
100
AcDbLine
 10
58.89924910122885
 20
169.404000317615
 30
0.0
 11
58.89924910122885
 21
167.404000317615
 31
0.0
  0
LINE
  5
761
330
20
100
AcDbEntity
  8
AT
100
AcDbLine
 10
67.21568627988415
 20
153.9040003176151
 30
0.0
 11
82.91472116106694
 21
153.9040003176151
 31
0.0
  0
LINE
  5
762
330
20
100
AcDbEntity
  8
AT
100
AcDbLine
 10
71.89924910122883
 20
149.2795508357201
 30
0.0
 11
71.89924910122883
 21
158.3927093550355
 31
0.0
  0
LINE
  5
763
330
20
100
AcDbEntity
  8
AT
100
AcDbLine
 10
58.89924910122885
 20
167.504000317615
 30
0.0
 11
58.89924910122885
 21
157.3040003176151
 31
0.0
  0
LINE
  5
764
330
20
100
AcDbEntity
  8
AT
100
AcDbLine
 10
53.7992491012288
 20
162.4040003176151
 30
0.0
 11
63.99924910122885
 21
162.4040003176151
 31
0.0
  0
LINE
  5
765
330
20
100
AcDbEntity
  8
0
100
AcDbLine
 10
46.89924910122871
 20
194.604000317615
 30
0.0
 11
46.89924910122871
 21
182.204000317615
 31
0.0
  0
LINE
  5
766
330
20
100
AcDbEntity
  8
0
100
AcDbLine
 10
40.69924910122878
 20
188.404000317615
 30
0.0
 11
53.09924910122877
 21
188.4040003176151
 31
0.0
  0
LINE
  5
767
330
20
100
AcDbEntity
  8
0
100
AcDbLine
 10
71.89924910122883
 20
223.0235916862802
 30
0.0
 11
71.89924910122883
 21
231.9574184201635
 31
0.0
  0
LINE
  5
768
330
20
100
AcDbEntity
  8
0
100
AcDbLine
 10
77.11434012371253
 20
153.9040003176151
 30
0.0
 11
65.50008166228249
 21
153.9040003176151
 31
0.0
  0
LINE
  5
769
330
20
100
AcDbEntity
  8
0
100
AcDbLine
 10
59.64910624408609
 20
187.304000317615
 30
0.0
 11
58.14910624408614
 21
187.304000317615
 31
0.0
  0
LINE
  5
76A
330
20
100
AcDbEntity
  8
0
100
AcDbLine
 10
58.14910624408614
 20
181.3040003176151
 30
0.0
 11
58.14910624408609
 21
191.0040003176151
 31
0.0
  0
LINE
  5
76B
330
20
100
AcDbEntity
  8
0
100
AcDbLine
 10
59.64910624408609
 20
181.3040003176151
 30
0.0
 11
58.14910624408614
 21
181.3040003176151
 31
0.0
  0
LINE
  5
76C
330
20
100
AcDbEntity
  8
0
100
AcDbLine
 10
46.89924910122871
 20
194.404000317615
 30
0.0
 11
46.89924910122871
 21
182.4040003176151
 31
0.0
  0
LINE
  5
76D
330
20
100
AcDbEntity
  8
0
100
AcDbLine
 10
40.89924910122872
 20
188.4040003176151
 30
0.0
 11
52.89924910122873
 21
188.4040003176151
 31
0.0
  0
LINE
  5
76E
330
20
100
AcDbEntity
  8
AT
100
AcDbLine
 10
46.89924910122871
 20
194.404000317615
 30
0.0
 11
46.89924910122871
 21
182.4040003176151
 31
0.0
  0
LINE
  5
76F
330
20
100
AcDbEntity
  8
AT
100
AcDbLine
 10
40.89924910122872
 20
188.4040003176151
 30
0.0
 11
52.89924910122873
 21
188.4040003176151
 31
0.0
  0
LINE
  5
770
330
20
100
AcDbEntity
  8
0
100
AcDbLine
 10
43.09924910122871
 20
200.4040003176151
 30
0.0
 11
41.89924910122867
 21
200.4040003176151
 31
0.0
  0
LINE
  5
771
330
20
100
AcDbEntity
  8
0
100
AcDbLine
 10
43.09924910122877
 20
195.404000317615
 30
0.0
 11
41.89924910122871
 21
195.404000317615
 31
0.0
  0
LINE
  5
772
330
20
100
AcDbEntity
  8
0
100
AcDbLine
 10
41.89924910122884
 20
174.404000317615
 30
0.0
 11
41.89924910122867
 21
200.4040003176151
 31
0.0
  0
ARC
  5
773
330
20
100
AcDbEntity
  8
0
100
AcDbCircle
 10
36.89924910122878
 20
179.804000317615
 30
0.0
 40
2.0
100
AcDbArc
 50
90.0
 51
180.0
  0
ARC
  5
774
330
20
100
AcDbEntity
  8
0
100
AcDbCircle
 10
36.89924910122878
 20
177.804000317615
 30
0.0
 40
2.0
100
AcDbArc
 50
180.0
 51
270.0000000000001
  0
LINE
  5
775
330
20
100
AcDbEntity
  8
0
100
AcDbLine
 10
41.89924910122878
 20
181.804000317615
 30
0.0
 11
36.89924910122878
 21
181.804000317615
 31
0.0
  0
LINE
  5
776
330
20
100
AcDbEntity
  8
0
100
AcDbLine
 10
41.89924910122884
 20
175.804000317615
 30
0.0
 11
36.89924910122878
 21
175.804000317615
 31
0.0
  0
LINE
  5
777
330
20
100
AcDbEntity
  8
0
100
AcDbLine
 10
34.89924910122879
 20
177.804000317615
 30
0.0
 11
34.89924910122879
 21
179.804000317615
 31
0.0
  0
LINE
  5
778
330
20
100
AcDbEntity
  8
0
100
AcDbLine
 10
41.89924910122884
 20
174.404000317615
 30
0.0
 11
43.09924910122883
 21
174.404000317615
 31
0.0
  0
LINE
  5
779
330
20
100
AcDbEntity
  8
0
100
AcDbLine
 10
41.89924910122878
 20
179.404000317615
 30
0.0
 11
43.09924910122879
 21
179.404000317615
 31
0.0
  0
LINE
  5
77A
330
20
100
AcDbEntity
  8
AT
100
AcDbLine
 10
33.32781482742305
 20
178.804000317615
 30
0.0
 11
44.89875913452372
 21
178.804000317615
 31
0.0
  0
LINE
  5
77B
330
20
100
AcDbEntity
  8
AT
100
AcDbLine
 10
77.89924910122895
 20
150.5453871357908
 30
0.0
 11
77.89924910122895
 21
157.0901087521273
 31
0.0
  0
LINE
  5
77C
330
20
100
AcDbEntity
  8
AT
100
AcDbLine
 10
66.78539759210797
 20
227.4040003176151
 30
0.0
 11
82.30785180554731
 21
227.4040003176151
 31
0.0
  0
LINE
  5
77D
330
20
100
AcDbEntity
  8
AT
100
AcDbLine
 10
71.89924910122883
 20
222.6987252595935
 30
0.0
 11
71.89924910122883
 21
232.0657072290591
 31
0.0
  0
LINE
  5
77E
330
20
100
AcDbEntity
  8
AT
100
AcDbLine
 10
77.89924910122863
 20
230.4955195000735
 30
0.0
 11
77.89924910122866
 21
223.8357577529968
 31
0.0
  0
LINE
  5
77F
330
20
100
AcDbEntity
  8
0
100
AcDbLine
 10
79.89924910122893
 20
147.4040003176151
 30
0.0
 11
77.4992491012288
 21
147.4040003176151
 31
0.0
  0
LINE
  5
780
330
20
100
AcDbEntity
  8
0
100
AcDbLine
 10
41.89924910122889
 20
163.904000317615
 30
0.0
 11
41.89924910122889
 21
173.804000317615
 31
0.0
  0
LINE
  5
781
330
20
100
AcDbEntity
  8
0
100
AcDbLine
 10
81.89924910122895
 20
149.4040003176151
 30
0.0
 11
81.89924910122854
 21
235.4040003176151
 31
0.0
  0
LINE
  5
782
330
20
100
AcDbEntity
  8
0
100
AcDbLine
 10
79.89924910122855
 20
237.4040003176151
 30
0.0
 11
72.89924910122855
 21
237.4040003176151
 31
0.0
  0
LINE
  5
783
330
20
100
AcDbEntity
  8
0
100
AcDbLine
 10
51.95240199531539
 20
165.7040003176151
 30
0.0
 11
44.66657608920783
 21
165.7040003176151
 31
0.0
  0
LINE
  5
784
330
20
100
AcDbEntity
  8
0
100
AcDbLine
 10
43.70065026291874
 20
164.9628193627176
 30
0.0
 11
43.38226537779238
 21
163.7745907950638
 31
0.0
  0
ARC
  5
785
330
20
100
AcDbEntity
  8
0
100
AcDbCircle
 10
44.66657608920783
 20
164.7040003176151
 30
0.0
 40
1.0
100
AcDbArc
 50
90.0
 51
165.0000000000001
  0
ARC
  5
786
330
20
100
AcDbEntity
  8
0
100
AcDbCircle
 10
79.89924910122893
 20
149.4040003176151
 30
0.0
 40
2.0
100
AcDbArc
 50
270.0000000000001
 51
0.0000000000002615
  0
ARC
  5
787
330
20
100
AcDbEntity
  8
0
100
AcDbCircle
 10
79.89924910122855
 20
235.4040003176151
 30
0.0
 40
2.0
100
AcDbArc
 50
0.0000000000002615
 51
90.0
  0
CIRCLE
  5
788
330
20
100
AcDbEntity
  8
0
100
AcDbCircle
 10
71.89924910122883
 20
227.4040003176151
 30
0.0
 40
3.1
  0
CIRCLE
  5
789
330
20
100
AcDbEntity
  8
0
100
AcDbCircle
 10
46.89924910122878
 20
188.4040003176151
 30
0.0
 40
3.1
  0
LINE
  5
78A
330
20
100
AcDbEntity
  8
0
100
AcDbLine
 10
68.09924910122882
 20
220.4040003176151
 30
0.0
 11
66.89924910122883
 21
220.4040003176151
 31
0.0
  0
LINE
  5
78B
330
20
100
AcDbEntity
  8
0
100
AcDbLine
 10
68.09924910122882
 20
215.4040003176151
 30
0.0
 11
66.89924910122883
 21
215.4040003176151
 31
0.0
  0
LINE
  5
78C
330
20
100
AcDbEntity
  8
0
100
AcDbLine
 10
52.95091230315237
 20
164.7585637224149
 30
0.0
 11
53.84758589930537
 21
148.3494369128152
 31
0.0
  0
ARC
  5
78D
330
20
100
AcDbEntity
  8
0
100
AcDbCircle
 10
51.95240199531539
 20
164.7040003176151
 30
0.0
 40
1.0
100
AcDbArc
 50
3.127806121286118
 51
89.99999999999998
  0
ARC
  5
78E
330
20
100
AcDbEntity
  8
0
100
AcDbCircle
 10
54.84609620714232
 20
148.4040003176151
 30
0.0
 40
1.0
100
AcDbArc
 50
183.1278061212861
 51
270.0000000000001
  0
LINE
  5
78F
330
20
100
AcDbEntity
  8
0
100
AcDbLine
 10
57.39924910122854
 20
235.4040003176151
 30
0.0
 11
57.39924910122854
 21
236.9040003176151
 31
0.0
  0
LINE
  5
790
330
20
100
AcDbEntity
  8
0
100
AcDbLine
 10
67.39924910122855
 20
235.4040003176151
 30
0.0
 11
67.39924910122849
 21
236.9040003176151
 31
0.0
  0
LINE
  5
791
330
20
100
AcDbEntity
  8
0
100
AcDbLine
 10
72.39924910122855
 20
235.4040003176151
 30
0.0
 11
72.39924910122855
 21
236.9040003176151
 31
0.0
  0
LINE
  5
792
330
20
100
AcDbEntity
  8
0
100
AcDbLine
 10
52.39924910122854
 20
235.4040003176151
 30
0.0
 11
52.39924910122854
 21
236.9040003176151
 31
0.0
  0
LINE
  5
793
330
20
100
AcDbEntity
  8
0
100
AcDbLine
 10
71.89924910122854
 20
234.9040003176151
 30
0.0
 11
67.89924910122855
 21
234.9040003176151
 31
0.0
  0
LINE
  5
794
330
20
100
AcDbEntity
  8
0
100
AcDbLine
 10
51.89924910122854
 20
237.4040003176151
 30
0.0
 11
43.89924910122861
 21
237.4040003176151
 31
0.0
  0
LINE
  5
795
330
20
100
AcDbEntity
  8
0
100
AcDbLine
 10
56.89924910122854
 20
234.9040003176151
 30
0.0
 11
52.89924910122856
 21
234.9040003176151
 31
0.0
  0
LINE
  5
796
330
20
100
AcDbEntity
  8
0
100
AcDbLine
 10
66.89924910122849
 20
237.4040003176151
 30
0.0
 11
57.89924910122856
 21
237.4040003176151
 31
0.0
  0
ARC
  5
797
330
20
100
AcDbEntity
  8
0
100
AcDbCircle
 10
72.89924910122855
 20
236.9040003176151
 30
0.0
 40
0.5
100
AcDbArc
 50
90.0
 51
180.0
  0
ARC
  5
798
330
20
100
AcDbEntity
  8
0
100
AcDbCircle
 10
66.89924910122849
 20
236.9040003176151
 30
0.0
 40
0.5
100
AcDbArc
 50
0.0000000000006686
 51
90.00000000000005
  0
ARC
  5
799
330
20
100
AcDbEntity
  8
0
100
AcDbCircle
 10
57.89924910122856
 20
236.9040003176151
 30
0.0
 40
0.5
100
AcDbArc
 50
90.00000000000005
 51
180.0
  0
ARC
  5
79A
330
20
100
AcDbEntity
  8
0
100
AcDbCircle
 10
51.89924910122854
 20
236.9040003176151
 30
0.0
 40
0.5
100
AcDbArc
 50
0.0000000000003124
 51
90.00000000000005
  0
ARC
  5
79B
330
20
100
AcDbEntity
  8
0
100
AcDbCircle
 10
52.89924910122856
 20
235.4040003176151
 30
0.0
 40
0.5
100
AcDbArc
 50
180.0000000000004
 51
270.0000000000001
  0
ARC
  5
79C
330
20
100
AcDbEntity
  8
0
100
AcDbCircle
 10
56.89924910122854
 20
235.4040003176151
 30
0.0
 40
0.5
100
AcDbArc
 50
270.0000000000001
 51
359.9999999999996
  0
ARC
  5
79D
330
20
100
AcDbEntity
  8
0
100
AcDbCircle
 10
67.89924910122855
 20
235.4040003176151
 30
0.0
 40
0.5
100
AcDbArc
 50
180.0000000000008
 51
270.0000000000001
  0
ARC
  5
79E
330
20
100
AcDbEntity
  8
0
100
AcDbCircle
 10
71.89924910122854
 20
235.4040003176151
 30
0.0
 40
0.5
100
AcDbArc
 50
270.0000000000001
 51
0.000000000000007
  0
LINE
  5
79F
330
20
100
AcDbEntity
  8
0
100
AcDbLine
 10
76.99924910122884
 20
148.6540003176151
 30
0.0
 11
76.9992491012288
 21
147.9040003176151
 31
0.0
  0
LINE
  5
7A0
330
20
100
AcDbEntity
  8
0
100
AcDbLine
 10
71.79924910122888
 20
147.9040003176151
 30
0.0
 11
71.79924910122888
 21
148.654000317615
 31
0.0
  0
LINE
  5
7A1
330
20
100
AcDbEntity
  8
0
100
AcDbLine
 10
71.79924910122888
 20
148.654000317615
 30
0.0
 11
76.99924910122884
 21
148.6540003176151
 31
0.0
  0
LINE
  5
7A2
330
20
100
AcDbEntity
  8
0
100
AcDbLine
 10
75.84924910122871
 20
167.5040003176151
 30
0.0
 11
75.84924910122871
 21
162.304000317615
 31
0.0
  0
LINE
  5
7A3
330
20
100
AcDbEntity
  8
0
100
AcDbLine
 10
75.84924910122871
 20
162.304000317615
 30
0.0
 11
74.14924910122876
 21
162.304000317615
 31
0.0
  0
LINE
  5
7A4
330
20
100
AcDbEntity
  8
0
100
AcDbLine
 10
74.14924910122876
 20
162.304000317615
 30
0.0
 11
74.14924910122876
 21
167.5040003176151
 31
0.0
  0
LINE
  5
7A5
330
20
100
AcDbEntity
  8
0
100
AcDbLine
 10
74.14924910122876
 20
167.5040003176151
 30
0.0
 11
75.84924910122871
 21
167.5040003176151
 31
0.0
  0
LINE
  5
7A6
330
20
100
AcDbEntity
  8
0
100
AcDbLine
 10
75.84924910122871
 20
211.0040003176151
 30
0.0
 11
75.84924910122871
 21
204.8040003176151
 31
0.0
  0
LINE
  5
7A7
330
20
100
AcDbEntity
  8
0
100
AcDbLine
 10
75.84924910122871
 20
204.8040003176151
 30
0.0
 11
74.14924910122876
 21
204.8040003176151
 31
0.0
  0
LINE
  5
7A8
330
20
100
AcDbEntity
  8
0
100
AcDbLine
 10
74.14924910122876
 20
204.8040003176151
 30
0.0
 11
74.14924910122876
 21
211.0040003176151
 31
0.0
  0
LINE
  5
7A9
330
20
100
AcDbEntity
  8
0
100
AcDbLine
 10
74.14924910122876
 20
211.0040003176151
 30
0.0
 11
75.84924910122871
 21
211.0040003176151
 31
0.0
  0
LINE
  5
7AA
330
20
100
AcDbEntity
  8
0
100
AcDbLine
 10
68.14924910122883
 20
220.9040003176151
 30
0.0
 11
68.14924910122883
 21
214.9040003176151
 31
0.0
  0
LINE
  5
7AB
330
20
100
AcDbEntity
  8
0
100
AcDbLine
 10
68.14924910122883
 20
214.9040003176151
 30
0.0
 11
66.84924910122886
 21
214.9040003176151
 31
0.0
  0
LINE
  5
7AC
330
20
100
AcDbEntity
  8
0
100
AcDbLine
 10
66.84924910122886
 20
214.9040003176151
 30
0.0
 11
66.84924910122886
 21
220.9040003176151
 31
0.0
  0
LINE
  5
7AD
330
20
100
AcDbEntity
  8
0
100
AcDbLine
 10
66.84924910122886
 20
220.9040003176151
 30
0.0
 11
68.14924910122883
 21
220.9040003176151
 31
0.0
  0
LINE
  5
7AE
330
20
100
AcDbEntity
  8
0
100
AcDbLine
 10
59.74910624408611
 20
191.0040003176151
 30
0.0
 11
59.74910624408611
 21
181.3040003176151
 31
0.0
  0
LINE
  5
7AF
330
20
100
AcDbEntity
  8
0
100
AcDbLine
 10
59.74910624408611
 20
181.3040003176151
 30
0.0
 11
58.04910624408613
 21
181.3040003176151
 31
0.0
  0
LINE
  5
7B0
330
20
100
AcDbEntity
  8
0
100
AcDbLine
 10
58.04910624408613
 20
181.3040003176151
 30
0.0
 11
58.04910624408613
 21
191.0040003176151
 31
0.0
  0
LINE
  5
7B1
330
20
100
AcDbEntity
  8
0
100
AcDbLine
 10
58.04910624408613
 20
191.0040003176151
 30
0.0
 11
59.74910624408611
 21
191.0040003176151
 31
0.0
  0
LINE
  5
7B2
330
20
100
AcDbEntity
  8
0
100
AcDbLine
 10
43.14924910122885
 20
179.5040003176151
 30
0.0
 11
43.14924910122885
 21
174.3040003176151
 31
0.0
  0
LINE
  5
7B3
330
20
100
AcDbEntity
  8
0
100
AcDbLine
 10
43.14924910122885
 20
174.3040003176151
 30
0.0
 11
42.3992491012289
 21
174.3040003176151
 31
0.0
  0
LINE
  5
7B4
330
20
100
AcDbEntity
  8
0
100
AcDbLine
 10
42.39924910122883
 20
179.5040003176151
 30
0.0
 11
43.14924910122885
 21
179.5040003176151
 31
0.0
  0
LINE
  5
7B5
330
20
100
AcDbEntity
  8
0
100
AcDbLine
 10
43.14924910122871
 20
200.9040003176151
 30
0.0
 11
43.14924910122871
 21
194.9040003176151
 31
0.0
  0
LINE
  5
7B6
330
20
100
AcDbEntity
  8
0
100
AcDbLine
 10
43.14924910122871
 20
194.9040003176151
 30
0.0
 11
42.39924910122878
 21
194.9040003176151
 31
0.0
  0
LINE
  5
7B7
330
20
100
AcDbEntity
  8
0
100
AcDbLine
 10
42.39924910122872
 20
200.9040003176151
 30
0.0
 11
43.14924910122871
 21
200.9040003176151
 31
0.0
  0
LINE
  5
7B8
330
20
100
AcDbEntity
  8
0
100
AcDbLine
 10
77.14924910122878
 20
197.4040003176151
 30
0.0
 11
77.14924910122883
 21
187.4040003176151
 31
0.0
  0
LINE
  5
7B9
330
20
100
AcDbEntity
  8
0
100
AcDbLine
 10
76.64924910122883
 20
186.904000317615
 30
0.0
 11
67.64924910122883
 21
186.904000317615
 31
0.0
  0
LINE
  5
7BA
330
20
100
AcDbEntity
  8
0
100
AcDbLine
 10
67.14924910122883
 20
187.4040003176151
 30
0.0
 11
67.14924910122878
 21
197.4040003176151
 31
0.0
  0
LINE
  5
7BB
330
20
100
AcDbEntity
  8
0
100
AcDbLine
 10
67.64924910122878
 20
197.9040003176151
 30
0.0
 11
76.64924910122876
 21
197.9040003176151
 31
0.0
  0
ARC
  5
7BC
330
20
100
AcDbEntity
  8
0
100
AcDbCircle
 10
76.64924910122883
 20
187.4040003176151
 30
0.0
 40
0.5
100
AcDbArc
 50
270.0000000000001
 51
0.000000000000007
  0
ARC
  5
7BD
330
20
100
AcDbEntity
  8
0
100
AcDbCircle
 10
67.64924910122883
 20
187.4040003176151
 30
0.0
 40
0.5
100
AcDbArc
 50
180.0
 51
270.0000000000001
  0
ARC
  5
7BE
330
20
100
AcDbEntity
  8
0
100
AcDbCircle
 10
67.64924910122878
 20
197.4040003176151
 30
0.0
 40
0.5
100
AcDbArc
 50
180.0
 51
180.0000000000002
  0
ARC
  5
7BF
330
20
100
AcDbEntity
  8
0
100
AcDbCircle
 10
76.64924910122876
 20
197.4040003176151
 30
0.0
 40
0.5
100
AcDbArc
 50
0.0000000000001597
 51
90.0
  0
LINE
  5
7C0
330
20
100
AcDbEntity
  8
0
100
AcDbLine
 10
68.09924910122882
 20
175.404000317615
 30
0.0
 11
66.89924910122883
 21
175.404000317615
 31
0.0
  0
LINE
  5
7C1
330
20
100
AcDbEntity
  8
0
100
AcDbLine
 10
68.09924910122882
 20
170.404000317615
 30
0.0
 11
66.89924910122883
 21
170.404000317615
 31
0.0
  0
CIRCLE
  5
7C2
330
20
100
AcDbEntity
  8
0
100
AcDbCircle
 10
71.89924910122883
 20
153.9040003176151
 30
0.0
 40
3.1
  0
ARC
  5
7C3
330
20
100
AcDbEntity
  8
0
100
AcDbCircle
 10
43.89924910122861
 20
235.4040003176151
 30
0.0
 40
2.0
100
AcDbArc
 50
90.00000000000005
 51
180.0000000000002
  0
LINE
  5
7C4
330
20
100
AcDbEntity
  8
0
100
AcDbLine
 10
71.29924910122888
 20
147.4040003176151
 30
0.0
 11
54.84609620714232
 21
147.4040003176151
 31
0.0
  0
ARC
  5
7C5
330
20
100
AcDbEntity
  8
0
100
AcDbCircle
 10
71.29924910122888
 20
147.9040003176151
 30
0.0
 40
0.5
100
AcDbArc
 50
270.0000000000001
 51
0.000000000000007
  0
ARC
  5
7C6
330
20
100
AcDbEntity
  8
0
100
AcDbCircle
 10
77.4992491012288
 20
147.9040003176151
 30
0.0
 40
0.5
100
AcDbArc
 50
180.0
 51
270.0000000000001
  0
LINE
  5
7C7
330
20
100
AcDbEntity
  8
0
100
AcDbLine
 10
41.89924910122871
 20
201.4040003176151
 30
0.0
 11
41.89924910122861
 21
235.4040003176151
 31
0.0
  0
LINE
  5
7C8
330
20
100
AcDbEntity
  8
0
100
AcDbLine
 10
41.89924910122884
 20
180.0040003176151
 30
0.0
 11
41.89924910122878
 21
194.404000317615
 31
0.0
  0
ARC
  5
7C9
330
20
100
AcDbEntity
  8
0
100
AcDbCircle
 10
42.3992491012289
 20
173.804000317615
 30
0.0
 40
0.5
100
AcDbArc
 50
90.0
 51
180.0000000000001
  0
ARC
  5
7CA
330
20
100
AcDbEntity
  8
0
100
AcDbCircle
 10
42.39924910122883
 20
180.0040003176151
 30
0.0
 40
0.5
100
AcDbArc
 50
180.0000000000004
 51
270.0000000000001
  0
ARC
  5
7CB
330
20
100
AcDbEntity
  8
0
100
AcDbCircle
 10
42.39924910122878
 20
194.404000317615
 30
0.0
 40
0.5
100
AcDbArc
 50
90.0
 51
180.0000000000004
  0
ARC
  5
7CC
330
20
100
AcDbEntity
  8
0
100
AcDbCircle
 10
42.39924910122872
 20
201.4040003176151
 30
0.0
 40
0.5
100
AcDbArc
 50
180.0000000000002
 51
270.0000000000001
  0
LINE
  5
7CD
330
20
100
AcDbEntity
  8
0
100
AcDbLine
 10
42.89930246464782
 20
163.4040003176151
 30
0.0
 11
42.3992491012289
 21
163.4040003176151
 31
0.0
  0
ARC
  5
7CE
330
20
100
AcDbEntity
  8
0
100
AcDbCircle
 10
42.89930246464782
 20
163.904000317615
 30
0.0
 40
0.5
100
AcDbArc
 50
270.0000000000001
 51
345.0000000000003
  0
ARC
  5
7CF
330
20
100
AcDbEntity
  8
0
100
AcDbCircle
 10
42.3992491012289
 20
163.904000317615
 30
0.0
 40
0.5
100
AcDbArc
 50
180.0000000000002
 51
270.0000000000001
  0
CIRCLE
  5
7D0
330
20
100
AcDbEntity
  8
0
100
AcDbCircle
 10
77.89924910122859
 20
227.4040003176151
 30
0.0
 40
1.75
  0
CIRCLE
  5
7D1
330
20
100
AcDbEntity
  8
0
100
AcDbCircle
 10
77.89924910122889
 20
153.9040003176151
 30
0.0
 40
1.75
  0
CIRCLE
  5
7D2
330
20
100
AcDbEntity
  8
0
100
AcDbCircle
 10
77.89924910122889
 20
153.9040003176151
 30
0.0
 40
2.0
  0
LINE
  5
7D3
330
20
100
AcDbEntity
  8
0
100
AcDbLine
 10
68.14924910122883
 20
175.5040003176151
 30
0.0
 11
68.14924910122883
 21
170.3040003176151
 31
0.0
  0
LINE
  5
7D4
330
20
100
AcDbEntity
  8
0
100
AcDbLine
 10
68.14924910122883
 20
170.3040003176151
 30
0.0
 11
66.84924910122886
 21
170.3040003176151
 31
0.0
  0
LINE
  5
7D5
330
20
100
AcDbEntity
  8
0
100
AcDbLine
 10
66.84924910122886
 20
170.3040003176151
 30
0.0
 11
66.84924910122886
 21
175.5040003176151
 31
0.0
  0
LINE
  5
7D6
330
20
100
AcDbEntity
  8
0
100
AcDbLine
 10
66.84924910122886
 20
175.5040003176151
 30
0.0
 11
68.14924910122883
 21
175.5040003176151
 31
0.0
  0
LINE
  5
7D7
330
20
100
AcDbEntity
  8
0
100
AcDbLine
 10
44.39924910122885
 20
158.6540003176151
 30
0.0
 11
44.39924910122885
 21
157.8555813136518
 31
0.0
  0
ARC
  5
7D8
330
20
100
AcDbEntity
  8
0
100
AcDbCircle
 10
47.39924910122883
 20
157.8555813136518
 30
0.0
 40
3.0
100
AcDbArc
 50
180.0000000000006
 51
259.4281143421038
  0
LINE
  5
7D9
330
20
100
AcDbEntity
  8
0
100
AcDbLine
 10
45.39924910122882
 20
159.654000317615
 30
0.0
 11
51.39924910122885
 21
159.654000317615
 31
0.0
  0
LINE
  5
7DA
330
20
100
AcDbEntity
  8
0
100
AcDbLine
 10
47.6309436109079
 20
165.1540003176151
 30
0.0
 11
51.39924910122885
 21
165.1540003176151
 31
0.0
  0
ARC
  5
7DB
330
20
100
AcDbEntity
  8
0
100
AcDbCircle
 10
51.14924910122895
 20
162.4040003176151
 30
0.0
 40
2.75
100
AcDbArc
 50
48.62921414554278
 51
90.0
  0
ARC
  5
7DC
330
20
100
AcDbEntity
  8
0
100
AcDbCircle
 10
45.39924910122882
 20
158.6540003176151
 30
0.0
 40
1.0
100
AcDbArc
 50
90.0
 51
180.0000000000005
  0
ARC
  5
7DD
330
20
100
AcDbEntity
  8
0
100
AcDbCircle
 10
47.6309436109079
 20
166.1540003176151
 30
0.0
 40
1.0
100
AcDbArc
 50
240.0000000000003
 51
270.0000000000001
  0
LINE
  5
7DE
330
20
100
AcDbEntity
  8
AT
100
AcDbLine
 10
46.89924910122871
 20
194.8723291990504
 30
0.0
 11
46.89924910122871
 21
202.3172578192492
 31
0.0
  0
LINE
  5
7DF
330
20
100
AcDbEntity
  8
AT
100
AcDbLine
 10
50.99322350227048
 20
198.404000317615
 30
0.0
 11
42.15949043385465
 21
198.404000317615
 31
0.0
  0
CIRCLE
  5
7E0
330
20
100
AcDbEntity
  8
0
100
AcDbCircle
 10
46.89924910122871
 20
198.404000317615
 30
0.0
 40
1.75
  0
CIRCLE
  5
7E1
330
20
100
AcDbEntity
  8
0
100
AcDbCircle
 10
46.89924910122871
 20
198.404000317615
 30
0.0
 40
2.0
  0
CIRCLE
  5
7E2
330
20
100
AcDbEntity
  8
0
100
AcDbCircle
 10
77.89924910122866
 20
227.4040003176151
 30
0.0
 40
2.0
  0
LINE
  5
7E3
330
20
100
AcDbEntity
  8
0
100
AcDbLine
 10
46.41036647431397
 20
165.7040003176151
 30
0.0
 11
47.1309436109079
 21
165.2879749138307
 31
0.0
  0
ARC
  5
7E4
330
20
100
AcDbEntity
  8
0
100
AcDbCircle
 10
51.14924910122895
 20
162.4040003176151
 30
0.0
 40
2.75
100
AcDbArc
 50
270.0000000000001
 51
317.6263980970297
  0
LINE
  5
7E5
330
20
100
AcDbEntity
  8
0
100
AcDbLine
 10
53.55769810840386
 20
153.6543834863124
 30
0.0
 11
46.84884205902924
 21
154.9065048331419
 31
0.0
  0
LINE
  5
7E6
330
20
100
AcDbEntity
  8
0
100
AcDbLine
 10
59.64910624408609
 20
181.3040003176151
 30
0.0
 11
59.64910624408609
 21
191.0040003176151
 31
0.0
  0
ARC
  5
7E7
330
20
100
AcDbEntity
  8
0
100
AcDbCircle
 10
67.64924910122878
 20
197.4040003176151
 30
0.0
 40
0.5
100
AcDbArc
 50
90.0
 51
180.0
  0
LINE
  5
7E8
330
20
100
AcDbEntity
  8
0
100
AcDbLine
 10
68.09924910122882
 20
214.9040003176151
 30
0.0
 11
68.09924910122882
 21
220.9040003176151
 31
0.0
  0
LINE
  5
7E9
330
20
100
AcDbEntity
  8
0
100
AcDbLine
 10
66.89924910122883
 20
214.9040003176151
 30
0.0
 11
66.89924910122883
 21
220.9040003176151
 31
0.0
  0
LINE
  5
7EA
330
20
100
AcDbEntity
  8
0
100
AcDbLine
 10
71.89924910122883
 20
229.6631895069999
 30
0.0
 11
72.34653316012631
 21
227.779473142419
 31
0.0
  0
LINE
  5
7EB
330
20
100
AcDbEntity
  8
0
100
AcDbLine
 10
72.34653316012631
 20
227.779473142419
 30
0.0
 11
74.19933895082866
 21
227.4040003176151
 31
0.0
  0
LINE
  5
7EC
330
20
100
AcDbEntity
  8
0
100
AcDbLine
 10
74.19933895082866
 20
227.4040003176151
 30
0.0
 11
72.35880339715087
 21
226.9675264335479
 31
0.0
  0
LINE
  5
7ED
330
20
100
AcDbEntity
  8
0
100
AcDbLine
 10
72.35880339715087
 20
226.9675264335479
 30
0.0
 11
71.89924910122883
 21
224.9430726394293
 31
0.0
  0
LINE
  5
7EE
330
20
100
AcDbEntity
  8
0
100
AcDbLine
 10
71.89924910122883
 20
224.9430726394293
 30
0.0
 11
71.37718443518932
 21
226.9783523896661
 31
0.0
  0
LINE
  5
7EF
330
20
100
AcDbEntity
  8
0
100
AcDbLine
 10
71.37718443518932
 20
226.9783523896661
 30
0.0
 11
69.41394651126636
 21
227.4040003176151
 31
0.0
  0
LINE
  5
7F0
330
20
100
AcDbEntity
  8
0
100
AcDbLine
 10
69.41394651126636
 20
227.4040003176151
 30
0.0
 11
71.40172490923838
 21
227.7902990985372
 31
0.0
  0
LINE
  5
7F1
330
20
100
AcDbEntity
  8
0
100
AcDbLine
 10
71.40172490923838
 20
227.7902990985372
 30
0.0
 11
71.89924910122883
 21
229.6631895069999
 31
0.0
  0
LINE
  5
7F2
330
20
100
AcDbEntity
  8
0
100
AcDbLine
 10
46.89924910122871
 20
190.6838150712659
 30
0.0
 11
47.34571382248808
 21
188.7136858048975
 31
0.0
  0
LINE
  5
7F3
330
20
100
AcDbEntity
  8
0
100
AcDbLine
 10
47.34571382248808
 20
188.7136858048975
 30
0.0
 11
49.51642370597228
 21
188.4040003176151
 31
0.0
  0
LINE
  5
7F4
330
20
100
AcDbEntity
  8
0
100
AcDbLine
 10
49.51642370597228
 20
188.4040003176151
 30
0.0
 11
47.34571382248808
 21
188.0893490655555
 31
0.0
  0
LINE
  5
7F5
330
20
100
AcDbEntity
  8
0
100
AcDbLine
 10
47.34571382248808
 20
188.0893490655555
 30
0.0
 11
46.89924910122871
 21
185.8556109536872
 31
0.0
  0
LINE
  5
7F6
330
20
100
AcDbEntity
  8
0
100
AcDbLine
 10
46.89924910122871
 20
185.8556109536872
 30
0.0
 11
46.43338648015415
 21
188.1170973650818
 31
0.0
  0
LINE
  5
7F7
330
20
100
AcDbEntity
  8
0
100
AcDbLine
 10
46.43338648015415
 20
188.1170973650818
 30
0.0
 11
44.48289354137129
 21
188.4040003176151
 31
0.0
  0
LINE
  5
7F8
330
20
100
AcDbEntity
  8
0
100
AcDbLine
 10
44.48289354137129
 20
188.4040003176151
 30
0.0
 11
46.37046735309665
 21
188.7553082541871
 31
0.0
  0
LINE
  5
7F9
330
20
100
AcDbEntity
  8
0
100
AcDbLine
 10
46.37046735309665
 20
188.7553082541871
 30
0.0
 11
46.91150583927941
 21
190.6297293681991
 31
0.0
  0
LINE
  5
7FA
330
20
100
AcDbEntity
  8
0
100
AcDbLine
 10
71.89924910122883
 20
156.2907446898912
 30
0.0
 11
72.36622801376777
 21
154.2512203352654
 31
0.0
  0
LINE
  5
7FB
330
20
100
AcDbEntity
  8
0
100
AcDbLine
 10
72.36622801376777
 20
154.2512203352654
 30
0.0
 11
74.47081120032587
 21
153.9040003176151
 31
0.0
  0
LINE
  5
7FC
330
20
100
AcDbEntity
  8
0
100
AcDbLine
 10
74.47081120032587
 20
153.9040003176151
 30
0.0
 11
72.31756713084158
 21
153.4890822869578
 31
0.0
  0
LINE
  5
7FD
330
20
100
AcDbEntity
  8
0
100
AcDbLine
 10
72.31756713084158
 20
153.4890822869578
 30
0.0
 11
71.89924910122883
 21
151.2348711581608
 31
0.0
  0
LINE
  5
7FE
330
20
100
AcDbEntity
  8
0
100
AcDbLine
 10
71.89924910122883
 20
151.2348711581608
 30
0.0
 11
71.36867991378067
 21
153.4568792708321
 31
0.0
  0
LINE
  5
7FF
330
20
100
AcDbEntity
  8
0
100
AcDbLine
 10
71.36867991378067
 20
153.4568792708321
 30
0.0
 11
69.45874025892734
 21
153.9040003176151
 31
0.0
  0
LINE
  5
800
330
20
100
AcDbEntity
  8
0
100
AcDbLine
 10
69.45874025892734
 20
153.9040003176151
 30
0.0
 11
71.38084513451222
 21
154.283423351391
 31
0.0
  0
LINE
  5
801
330
20
100
AcDbEntity
  8
0
100
AcDbLine
 10
71.38084513451222
 20
154.283423351391
 30
0.0
 11
71.90121261310676
 21
156.2821690771856
 31
0.0
  0
CIRCLE
  5
802
330
20
100
AcDbEntity
  8
0
100
AcDbCircle
 10
58.89924910122885
 20
162.4040003176151
 30
0.0
 40
2.049999999999998
  0
LINE
  5
803
330
20
100
AcDbEntity
  8
0
100
AcDbLine
 10
75.79924910122875
 20
197.9040003176151
 30
0.0
 11
75.79924910122875
 21
186.904000317615
 31
0.0
  0
LINE
  5
804
330
20
100
AcDbEntity
  8
0
100
AcDbLine
 10
181.6833240538218
 20
197.4913004355147
 30
0.0
 11
181.6833240538218
 21
186.4913004355147
 31
0.0
  0
LINE
  5
805
330
20
100
AcDbEntity
  8
AT
100
AcDbLine
 10
209.2635597996266
 20
165.6541204710561
 30
0.0
 11
209.2635597996266
 21
140.0143802222667
 31
0.0
  0
TEXT
  5
806
330
20
100
AcDbEntity
  8
0
100
AcDbText
 10
19.90025462228288
 20
97.88182554305713
 30
0.0
 40
3.0
  1
B7B-EH(JST)
  7
SIMPLEX
100
AcDbText
  0
TEXT
  5
807
330
20
100
AcDbEntity
  8
0
100
AcDbText
 10
56.13638728850663
 20
47.43192864669484
 30
0.0
 40
2.0
  1
NC
  7
SIMPLEX
100
AcDbText
  0
TEXT
  5
808
330
20
100
AcDbEntity
  8
0
100
AcDbText
 10
48.05022790211189
 20
47.48439056381442
 30
0.0
 40
2.0
  1
C
  7
SIMPLEX
100
AcDbText
  0
TEXT
  5
809
330
20
100
AcDbEntity
  8
0
100
AcDbText
 10
54.05539038759622
 20
59.65555533555151
 30
0.0
 40
2.0
  1
NO
  7
SIMPLEX
100
AcDbText
  0
TEXT
  5
80A
330
20
100
AcDbEntity
  8
0
100
AcDbText
 10
45.49357456670764
 20
59.65555533555151
 30
0.0
 40
2.0
  1
C
  7
SIMPLEX
100
AcDbText
  0
TEXT
  5
80B
330
20
100
AcDbEntity
  8
0
100
AcDbText
 10
49.4771972055933
 20
52.36334885593315
 30
0.0
 40
2.0
  1
SW2
  7
SIMPLEX
100
AcDbText
  0
TEXT
  5
80C
330
20
100
AcDbEntity
  8
0
100
AcDbText
 10
47.03945797881255
 20
63.90497062223562
 30
0.0
 40
2.0
  1
SW1
  7
SIMPLEX
100
AcDbText
  0
TEXT
  5
80D
330
20
100
AcDbEntity
  8
0
100
AcDbText
 10
31.18287565700905
 20
49.63532916571623
 30
0.0
 40
3.0
  1
bN{ù
 41
0.7
  7
SIMPLEX
100
AcDbText
  0
TEXT
  5
80E
330
20
100
AcDbEntity
  8
0
100
AcDbText
 10
36.47455349075261
 20
61.01956518066
 30
0.0
 40
3.0
  1
àÂ
 41
0.7
  7
SIMPLEX
100
AcDbText
  0
TEXT
  5
80F
330
20
100
AcDbEntity
  8
0
100
AcDbText
 10
71.55982138515135
 20
84.47359455577569
 30
0.0
 40
2.0
  1
-DC12V-
  7
SIMPLEX
100
AcDbText
  0
LINE
  5
810
330
20
100
AcDbEntity
  8
0
100
AcDbLine
 10
51.5661079611408
 20
50.71219750706184
 30
0.0
 11
55.62693205875177
 21
51.79655297985022
 31
0.0
  0
LINE
  5
811
330
20
100
AcDbEntity
  8
0
100
AcDbLine
 10
27.81330926244573
 20
78.14357016826922
 30
0.0
 11
27.81330926244573
 21
50.80772056207822
 31
0.0
  0
LINE
  5
812
330
20
100
AcDbEntity
  8
0
100
AcDbLine
 10
18.09588257201108
 20
78.14357016826922
 30
0.0
 11
18.09588257201108
 21
50.80772056207815
 31
0.0
  0
CIRCLE
  5
813
330
20
100
AcDbEntity
  8
0
100
AcDbCircle
 10
27.81330926244573
 20
79.14357016826922
 30
0.0
 40
1.0
  0
CIRCLE
  5
814
330
20
100
AcDbEntity
  8
0
100
AcDbCircle
 10
18.09588257201108
 20
79.14357016826922
 30
0.0
 40
1.0
  0
LINE
  5
815
330
20
100
AcDbEntity
  8
0
100
AcDbLine
 10
73.63107248534446
 20
50.71189224972178
 30
0.0
 11
74.54781383433862
 21
50.71189224972178
 31
0.0
  0
LINE
  5
816
330
20
100
AcDbEntity
  8
0
100
AcDbLine
 10
86.82788576655944
 20
50.71189224972178
 30
0.0
 11
88.01543116595508
 21
50.71189224972178
 31
0.0
  0
LWPOLYLINE
  5
817
330
20
100
AcDbEntity
  8
0
  6
C5
100
AcDbPolyline
 90
        4
 70
     1
 43
0.0
 10
13.23199907292275
 20
83.43161163312705
 10
13.23199907292275
 20
75.73349210038113
 10
91.08401426006139
 20
75.73349210038113
 10
91.08401426006139
 20
83.43161163312705
  0
LINE
  5
81D
330
20
100
AcDbEntity
  8
0
100
AcDbLine
 10
83.97732469241406
 20
50.71189224972178
 30
0.0
 11
84.82788576655947
 21
50.71189224972178
 31
0.0
  0
LINE
  5
81E
330
20
100
AcDbEntity
  8
0
100
AcDbLine
 10
49.17436294518563
 20
62.74884710319152
 30
0.0
 11
53.11617069719522
 21
63.45405015539497
 31
0.0
  0
LINE
  5
81F
330
20
100
AcDbEntity
  8
0
100
AcDbLine
 10
56.56610800773183
 20
50.71189224972178
 30
0.0
 11
64.8381876861107
 21
50.71189224972178
 31
0.0
  0
LINE
  5
820
330
20
100
AcDbEntity
  8
0
100
AcDbLine
 10
54.2172383333542
 20
62.45917059840265
 30
0.0
 11
57.49276306348725
 21
62.45917059840265
 31
0.0
  0
CIRCLE
  5
821
330
20
100
AcDbEntity
  8
0
100
AcDbCircle
 10
53.2172383333542
 20
62.45917059840265
 30
0.0
 40
1.0
  0
CIRCLE
  5
822
330
20
100
AcDbEntity
  8
0
100
AcDbCircle
 10
48.2172383333542
 20
62.45917059840265
 30
0.0
 40
1.0
  0
CIRCLE
  5
823
330
20
100
AcDbEntity
  8
0
100
AcDbCircle
 10
55.56610800773182
 20
50.71189224972178
 30
0.0
 40
1.0
  0
CIRCLE
  5
824
330
20
100
AcDbEntity
  8
0
100
AcDbCircle
 10
50.56610800773182
 20
50.71189224972178
 30
0.0
 40
1.0
  0
LINE
  5
825
330
20
100
AcDbEntity
  8
0
100
AcDbLine
 10
18.09588257201108
 20
50.80772056207815
 30
0.0
 11
20.96273415475446
 21
50.80772056207822
 31
0.0
  0
LINE
  5
826
330
20
100
AcDbEntity
  8
0
100
AcDbLine
 10
24.18992075782114
 20
50.80772056207822
 30
0.0
 11
27.81330926244573
 21
50.80772056207822
 31
0.0
  0
CIRCLE
  5
827
330
20
100
AcDbEntity
  8
0
100
AcDbCircle
 10
85.82788576655946
 20
50.71189224972178
 30
0.0
 40
1.0
  0
CIRCLE
  5
828
330
20
100
AcDbEntity
  8
0
100
AcDbCircle
 10
72.63107248534446
 20
50.71189224972178
 30
0.0
 40
1.0
  0
LINE
  5
829
330
20
100
AcDbEntity
  8
0
100
AcDbLine
 10
80.90346017106719
 20
63.67440628964551
 30
0.0
 11
88.01543116595508
 21
63.67440628964551
 31
0.0
  0
LINE
  5
82A
330
20
100
AcDbEntity
  8
0
100
AcDbLine
 10
80.90346017106719
 20
65.74087568209224
 30
0.0
 11
80.90346017106719
 21
61.60793689719884
 31
0.0
  0
LINE
  5
82B
330
20
100
AcDbEntity
  8
0
100
AcDbLine
 10
77.32423019106352
 20
63.67440628964551
 30
0.0
 11
80.90346017106719
 21
61.60793689719884
 31
0.0
  0
LINE
  5
82C
330
20
100
AcDbEntity
  8
0
100
AcDbLine
 10
77.32423019106352
 20
63.67440628964551
 30
0.0
 11
80.90346017106719
 21
65.74087568209224
 31
0.0
  0
LINE
  5
82D
330
20
100
AcDbEntity
  8
0
100
AcDbLine
 10
77.32423019106341
 20
65.66525555742642
 30
0.0
 11
77.32423019106341
 21
61.71771130203684
 31
0.0
  0
CIRCLE
  5
82E
330
20
100
AcDbEntity
  8
0
100
AcDbCircle
 10
88.01543116595508
 20
79.14357016826922
 30
0.0
 40
1.0
  0
CIRCLE
  5
82F
330
20
100
AcDbEntity
  8
0
100
AcDbCircle
 10
70.57004768722446
 20
79.14357016826922
 30
0.0
 40
1.0
  0
CIRCLE
  5
830
330
20
100
AcDbEntity
  8
0
100
AcDbCircle
 10
64.8381876861107
 20
79.14357016826922
 30
0.0
 40
1.0
  0
CIRCLE
  5
831
330
20
100
AcDbEntity
  8
0
100
AcDbCircle
 10
57.49276306348725
 20
79.14357016826922
 30
0.0
 40
1.0
  0
CIRCLE
  5
832
330
20
100
AcDbEntity
  8
0
100
AcDbCircle
 10
43.96555766258439
 20
79.14357016826922
 30
0.0
 40
1.0
  0
LINE
  5
833
330
20
100
AcDbEntity
  8
0
100
AcDbLine
 10
70.57004768722446
 20
63.67440628964551
 30
0.0
 11
77.32423019106352
 21
63.67440628964551
 31
0.0
  0
LINE
  5
834
330
20
100
AcDbEntity
  8
0
100
AcDbLine
 10
70.57004768722435
 20
50.71189224972178
 30
0.0
 11
71.63107248534449
 21
50.71189224972178
 31
0.0
  0
LINE
  5
835
330
20
100
AcDbEntity
  8
0
100
AcDbLine
 10
43.96555766258439
 20
50.71189224972178
 30
0.0
 11
49.56610800773183
 21
50.71189224972178
 31
0.0
  0
LINE
  5
836
330
20
100
AcDbEntity
  8
0
100
AcDbLine
 10
43.96555766258439
 20
62.45917059840265
 30
0.0
 11
47.2172383333542
 21
62.45917059840265
 31
0.0
  0
LINE
  5
837
330
20
100
AcDbEntity
  8
0
100
AcDbLine
 10
88.01543116595508
 20
78.14357016826467
 30
0.0
 11
88.01543116595508
 21
50.71189224972178
 31
0.0
  0
LINE
  5
838
330
20
100
AcDbEntity
  8
0
100
AcDbLine
 10
70.57004768722435
 20
78.14357016827469
 30
0.0
 11
70.57004768722435
 21
50.71189224972178
 31
0.0
  0
LINE
  5
839
330
20
100
AcDbEntity
  8
0
100
AcDbLine
 10
64.8381876861107
 20
78.14357016827104
 30
0.0
 11
64.8381876861107
 21
50.71189224972178
 31
0.0
  0
LINE
  5
83A
330
20
100
AcDbEntity
  8
0
100
AcDbLine
 10
57.49276306348725
 20
78.14357016827286
 30
0.0
 11
57.49276306348725
 21
62.45917059840265
 31
0.0
  0
LINE
  5
83B
330
20
100
AcDbEntity
  8
0
100
AcDbLine
 10
43.96555766258439
 20
78.14357016826559
 30
0.0
 11
43.96555766258439
 21
50.71189224972178
 31
0.0
  0
INSERT
  5
83C
330
20
100
AcDbEntity
  8
0
100
AcDbBlockReference
  2
SUG-AR01
 10
38.8642552750348
 20
83.48753019411288
 30
0.0
 41
0.5
 42
0.5
 43
0.5
 50
144.4395503093262
  0
LWPOLYLINE
  5
83D
330
20
100
AcDbEntity
  8
0
100
AcDbPolyline
 90
        3
 70
     0
 43
0.0
 10
38.8642552750348
 20
83.48753019411288
 10
19.18911082972761
 20
97.55301761587286
 10
47.76833524298404
 20
97.55301761587286
  0
LINE
  5
842
330
20
100
AcDbEntity
  8
0
  6
H4
100
AcDbLine
 10
121.9929442083514
 20
93.22720892041123
 30
0.0
 11
120.3929442083514
 21
93.22720892041123
 31
0.0
  0
LINE
  5
843
330
20
100
AcDbEntity
  8
0
  6
H4
100
AcDbLine
 10
121.9929442083514
 20
89.22720892041125
 30
0.0
 11
120.3929442083514
 21
89.22720892041125
 31
0.0
  0
CIRCLE
  5
844
330
20
100
AcDbEntity
  8
0
100
AcDbCircle
 10
198.5833240538218
 20
161.9913004355147
 30
0.0
 40
2.049999999999998
  0
LINE
  5
845
330
20
100
AcDbEntity
  8
0
  6
H4
100
AcDbLine
 10
124.0929442083514
 20
88.72720892041126
 30
0.0
 11
122.4929442083514
 21
88.72720892041126
 31
0.0
  0
LINE
  5
846
330
20
100
AcDbEntity
  8
0
100
AcDbLine
 10
122.4929442083514
 20
88.72720892041126
 30
0.0
 11
121.9929442083514
 21
88.72720892041126
 31
0.0
  0
LINE
  5
847
330
20
100
AcDbEntity
  8
0
  6
H4
100
AcDbLine
 10
124.0929442083514
 20
93.72720892041126
 30
0.0
 11
122.4929442083514
 21
93.72720892041126
 31
0.0
  0
LINE
  5
848
330
20
100
AcDbEntity
  8
0
100
AcDbLine
 10
122.4929442083514
 20
93.72720892041126
 30
0.0
 11
121.9929442083514
 21
93.72720892041126
 31
0.0
  0
LINE
  5
849
330
20
100
AcDbEntity
  8
0
100
AcDbLine
 10
137.9929442083513
 20
93.22720892041123
 30
0.0
 11
137.4929442083514
 21
93.22720892041123
 31
0.0
  0
LINE
  5
84A
330
20
100
AcDbEntity
  8
0
  6
H4
100
AcDbLine
 10
137.4929442083514
 20
93.22720892041123
 30
0.0
 11
135.8929442083514
 21
93.22720892041123
 31
0.0
  0
LINE
  5
84B
330
20
100
AcDbEntity
  8
0
100
AcDbLine
 10
137.9929442083513
 20
89.22720892041125
 30
0.0
 11
137.4929442083514
 21
89.22720892041125
 31
0.0
  0
LINE
  5
84C
330
20
100
AcDbEntity
  8
0
  6
H4
100
AcDbLine
 10
137.4929442083514
 20
89.22720892041125
 30
0.0
 11
135.8929442083514
 21
89.22720892041125
 31
0.0
  0
LINE
  5
84D
330
20
100
AcDbEntity
  8
0
100
AcDbLine
 10
135.8929442083514
 20
93.72720892041126
 30
0.0
 11
132.6191633214933
 21
93.72720892041126
 31
0.0
  0
LINE
  5
84E
330
20
100
AcDbEntity
  8
0
  6
H4
100
AcDbLine
 10
139.5929442083513
 20
93.22720892041123
 30
0.0
 11
137.9929442083513
 21
93.22720892041123
 31
0.0
  0
LINE
  5
84F
330
20
100
AcDbEntity
  8
0
  6
H4
100
AcDbLine
 10
139.5929442083513
 20
89.22720892041125
 30
0.0
 11
137.9929442083513
 21
89.22720892041125
 31
0.0
  0
LINE
  5
850
330
20
100
AcDbEntity
  8
0
100
AcDbLine
 10
186.1017280205384
 20
153.8707234692907
 30
0.0
 11
185.5813605419438
 21
155.8694691950853
 31
0.0
  0
LINE
  5
851
330
20
100
AcDbEntity
  8
0
100
AcDbLine
 10
188.0238328961232
 20
153.4913004355147
 30
0.0
 11
186.1017280205384
 21
153.8707234692907
 31
0.0
  0
LINE
  5
852
330
20
100
AcDbEntity
  8
0
100
AcDbLine
 10
186.1138932412699
 20
153.0441793887318
 30
0.0
 11
188.0238328961232
 21
153.4913004355147
 31
0.0
  0
LINE
  5
853
330
20
100
AcDbEntity
  8
0
100
AcDbLine
 10
185.5833240538217
 20
150.8221712760605
 30
0.0
 11
186.1138932412699
 21
153.0441793887318
 31
0.0
  0
LINE
  5
854
330
20
100
AcDbEntity
  8
0
100
AcDbLine
 10
185.165006024209
 20
153.0763824048575
 30
0.0
 11
185.5833240538217
 21
150.8221712760605
 31
0.0
  0
LINE
  5
855
330
20
100
AcDbEntity
  8
0
100
AcDbLine
 10
183.0117619547247
 20
153.4913004355147
 30
0.0
 11
185.165006024209
 21
153.0763824048575
 31
0.0
  0
LINE
  5
856
330
20
100
AcDbEntity
  8
0
100
AcDbLine
 10
185.1163451412828
 20
153.8385204531651
 30
0.0
 11
183.0117619547247
 21
153.4913004355147
 31
0.0
  0
LINE
  5
857
330
20
100
AcDbEntity
  8
0
100
AcDbLine
 10
185.5833240538217
 20
155.8780448077909
 30
0.0
 11
185.1163451412828
 21
153.8385204531651
 31
0.0
  0
LINE
  5
858
330
20
100
AcDbEntity
  8
0
100
AcDbLine
 10
211.112105801954
 20
188.3426083720868
 30
0.0
 11
210.5710673157712
 21
190.2170294860988
 31
0.0
  0
LINE
  5
859
330
20
100
AcDbEntity
  8
0
100
AcDbLine
 10
212.9996796136793
 20
187.9913004355147
 30
0.0
 11
211.112105801954
 21
188.3426083720868
 31
0.0
  0
LINE
  5
85A
330
20
100
AcDbEntity
  8
0
100
AcDbLine
 10
211.0491866748965
 20
187.7043974829815
 30
0.0
 11
212.9996796136793
 21
187.9913004355147
 31
0.0
  0
LINE
  5
85B
330
20
100
AcDbEntity
  8
0
100
AcDbLine
 10
210.5833240538219
 20
185.4429110715869
 30
0.0
 11
211.0491866748965
 21
187.7043974829815
 31
0.0
  0
LINE
  5
85C
330
20
100
AcDbEntity
  8
0
100
AcDbLine
 10
210.1368593325625
 20
187.6766491834552
 30
0.0
 11
210.5833240538219
 21
185.4429110715869
 31
0.0
  0
LINE
  5
85D
330
20
100
AcDbEntity
  8
0
100
AcDbLine
 10
207.9661494490783
 20
187.9913004355147
 30
0.0
 11
210.1368593325625
 21
187.6766491834552
 31
0.0
  0
LINE
  5
85E
330
20
100
AcDbEntity
  8
0
100
AcDbLine
 10
210.1368593325625
 20
188.3009859227973
 30
0.0
 11
207.9661494490783
 21
187.9913004355147
 31
0.0
  0
LINE
  5
85F
330
20
100
AcDbEntity
  8
0
100
AcDbLine
 10
210.5833240538219
 20
190.2711151891656
 30
0.0
 11
210.1368593325625
 21
188.3009859227973
 31
0.0
  0
LINE
  5
860
330
20
100
AcDbEntity
  8
0
100
AcDbLine
 10
186.0808482458122
 20
227.3775992164369
 30
0.0
 11
185.5833240538217
 21
229.2504896248996
 31
0.0
  0
LINE
  5
861
330
20
100
AcDbEntity
  8
0
100
AcDbLine
 10
188.0686266437841
 20
226.9913004355148
 30
0.0
 11
186.0808482458122
 21
227.3775992164369
 31
0.0
  0
LINE
  5
862
330
20
100
AcDbEntity
  8
0
100
AcDbLine
 10
186.1053887198613
 20
226.5656525075658
 30
0.0
 11
188.0686266437841
 21
226.9913004355148
 31
0.0
  0
LINE
  5
863
330
20
100
AcDbEntity
  8
0
100
AcDbLine
 10
185.5833240538217
 20
224.530372757329
 30
0.0
 11
186.1053887198613
 21
226.5656525075658
 31
0.0
  0
LINE
  5
864
330
20
100
AcDbEntity
  8
0
100
AcDbLine
 10
185.1237697578997
 20
226.5548265514476
 30
0.0
 11
185.5833240538217
 21
224.530372757329
 31
0.0
  0
LINE
  5
865
330
20
100
AcDbEntity
  8
0
100
AcDbLine
 10
183.2832342042219
 20
226.9913004355148
 30
0.0
 11
185.1237697578997
 21
226.5548265514476
 31
0.0
  0
LINE
  5
866
330
20
100
AcDbEntity
  8
0
100
AcDbLine
 10
185.1360399949243
 20
227.3667732603186
 30
0.0
 11
183.2832342042219
 21
226.9913004355148
 31
0.0
  0
LINE
  5
867
330
20
100
AcDbEntity
  8
0
100
AcDbLine
 10
185.5833240538217
 20
229.2504896248996
 30
0.0
 11
185.1360399949243
 21
227.3667732603186
 31
0.0
  0
LINE
  5
868
330
20
100
AcDbEntity
  8
0
  6
H4
100
AcDbLine
 10
190.5833240538217
 20
220.4913004355148
 30
0.0
 11
190.5833240538217
 21
231.9913004355147
 31
0.0
  0
LINE
  5
869
330
20
100
AcDbEntity
  8
0
  6
H4
100
AcDbLine
 10
189.3833240538218
 20
220.4913004355148
 30
0.0
 11
189.3833240538218
 21
221.9913004355147
 31
0.0
  0
LINE
  5
86A
330
20
100
AcDbEntity
  8
0
100
AcDbLine
 10
190.5833240538217
 20
214.4913004355148
 30
0.0
 11
190.5833240538217
 21
220.4913004355148
 31
0.0
  0
LINE
  5
86B
330
20
100
AcDbEntity
  8
0
100
AcDbLine
 10
189.3833240538218
 20
214.4913004355148
 30
0.0
 11
189.3833240538218
 21
220.4913004355148
 31
0.0
  0
LINE
  5
86C
330
20
100
AcDbEntity
  8
0
100
AcDbLine
 10
189.3833240538218
 20
186.4913004355147
 30
0.0
 11
189.3833240538218
 21
197.4913004355147
 31
0.0
  0
LINE
  5
86D
330
20
100
AcDbEntity
  8
0
  6
H4
100
AcDbLine
 10
189.3833240538218
 20
197.4913004355147
 30
0.0
 11
189.3833240538218
 21
214.4913004355148
 31
0.0
  0
ARC
  5
86E
330
20
100
AcDbEntity
  8
0
100
AcDbCircle
 10
189.8333240538218
 20
196.9913004355147
 30
0.0
 40
0.5
100
AcDbArc
 50
0.0
 51
90.0
  0
LINE
  5
86F
330
20
100
AcDbEntity
  8
0
100
AcDbLine
 10
197.8334669109645
 20
180.8913004355146
 30
0.0
 11
197.8334669109645
 21
190.5913004355148
 31
0.0
  0
LINE
  5
870
330
20
100
AcDbEntity
  8
0
  6
H3
100
AcDbLine
 10
199.3334669109644
 20
180.8913004355148
 30
0.0
 11
206.3334669109645
 21
180.8913004355148
 31
0.0
  0
LINE
  5
871
330
20
100
AcDbEntity
  8
0
  6
H3
100
AcDbLine
 10
197.8334669109645
 20
190.5913004355148
 30
0.0
 11
197.8334669109645
 21
196.3913004355146
 31
0.0
  0
LINE
  5
872
330
20
100
AcDbEntity
  8
0
  6
H3
100
AcDbLine
 10
199.3334669109645
 20
190.5913004355148
 30
0.0
 11
199.3334669109645
 21
196.3913004355146
 31
0.0
  0
LINE
  5
873
330
20
100
AcDbEntity
  8
0
100
AcDbLine
 10
203.9248750466467
 20
153.2416836042121
 30
0.0
 11
210.6337310960213
 21
154.4938049510415
 31
0.0
  0
ARC
  5
874
330
20
100
AcDbEntity
  8
0
100
AcDbCircle
 10
206.3333240538216
 20
161.9913004355147
 30
0.0
 40
2.75
100
AcDbArc
 50
222.3736019029703
 51
270.0
  0
ARC
  5
875
330
20
100
AcDbEntity
  8
0
  6
H3
100
AcDbCircle
 10
206.3333240538216
 20
161.9913004355147
 30
0.0
 40
2.75
100
AcDbArc
 50
131.3707858544572
 51
222.3736019029703
  0
LINE
  5
876
330
20
100
AcDbEntity
  8
0
100
AcDbLine
 10
211.0722066807366
 20
165.2913004355147
 30
0.0
 11
210.3516295441427
 21
164.8752750317303
 31
0.0
  0
LINE
  5
877
330
20
100
AcDbEntity
  8
0
100
AcDbLine
 10
133.6929442083514
 20
211.7913004355147
 30
0.0
 11
126.2929442083514
 21
211.7913004355147
 31
0.0
  0
LINE
  5
878
330
20
100
AcDbEntity
  8
0
100
AcDbLine
 10
133.6929442083514
 20
203.5913004355147
 30
0.0
 11
133.6929442083514
 21
211.7913004355147
 31
0.0
  0
LINE
  5
879
330
20
100
AcDbEntity
  8
0
100
AcDbLine
 10
126.2929442083514
 20
203.5913004355147
 30
0.0
 11
133.6929442083514
 21
203.5913004355147
 31
0.0
  0
LINE
  5
87A
330
20
100
AcDbEntity
  8
0
100
AcDbLine
 10
126.2929442083514
 20
211.7913004355147
 30
0.0
 11
126.2929442083514
 21
203.5913004355147
 31
0.0
  0
LINE
  5
87B
330
20
100
AcDbEntity
  8
0
100
AcDbLine
 10
131.8929442083514
 20
201.9913004355147
 30
0.0
 11
128.0929442083514
 21
201.9913004355147
 31
0.0
  0
LINE
  5
87C
330
20
100
AcDbEntity
  8
0
100
AcDbLine
 10
131.8929442083514
 20
181.9913004355147
 30
0.0
 11
131.8929442083514
 21
201.9913004355147
 31
0.0
  0
LINE
  5
87D
330
20
100
AcDbEntity
  8
0
100
AcDbLine
 10
128.0929442083514
 20
181.9913004355147
 30
0.0
 11
131.8929442083514
 21
181.9913004355147
 31
0.0
  0
LINE
  5
87E
330
20
100
AcDbEntity
  8
0
100
AcDbLine
 10
128.0929442083514
 20
201.9913004355147
 30
0.0
 11
128.0929442083514
 21
181.9913004355147
 31
0.0
  0
LINE
  5
87F
330
20
100
AcDbEntity
  8
0
100
AcDbLine
 10
133.6929442083514
 20
209.9913004355147
 30
0.0
 11
137.9929442083515
 21
209.9913004355147
 31
0.0
  0
LINE
  5
880
330
20
100
AcDbEntity
  8
0
100
AcDbLine
 10
134.3404567112007
 20
228.1728507064798
 30
0.0
 11
133.9929442083515
 21
229.4333109480477
 31
0.0
  0
LINE
  5
881
330
20
100
AcDbEntity
  8
0
100
AcDbLine
 10
135.7352597774608
 20
227.8913004355147
 30
0.0
 11
134.3404567112007
 21
228.1728507064798
 31
0.0
  0
LINE
  5
882
330
20
100
AcDbEntity
  8
0
100
AcDbLine
 10
134.2842146520774
 20
227.5872825627593
 30
0.0
 11
135.7352597774608
 21
227.8913004355147
 31
0.0
  0
LINE
  5
883
330
20
100
AcDbEntity
  8
0
100
AcDbLine
 10
133.9929442083515
 20
226.0687753426026
 30
0.0
 11
134.2842146520774
 21
227.5872825627593
 31
0.0
  0
LINE
  5
884
330
20
100
AcDbEntity
  8
0
100
AcDbLine
 10
133.7330424726682
 20
227.5972074465511
 30
0.0
 11
133.9929442083515
 21
226.0687753426026
 31
0.0
  0
LINE
  5
885
330
20
100
AcDbEntity
  8
0
100
AcDbLine
 10
132.3269909945834
 20
227.8913004355147
 30
0.0
 11
133.7330424726682
 21
227.5972074465511
 31
0.0
  0
LINE
  5
886
330
20
100
AcDbEntity
  8
0
100
AcDbLine
 10
133.7105456490188
 20
228.1629258226879
 30
0.0
 11
132.3269909945834
 21
227.8913004355147
 31
0.0
  0
LINE
  5
887
330
20
100
AcDbEntity
  8
0
100
AcDbLine
 10
133.9929442083515
 20
229.4333109480477
 30
0.0
 11
133.7105456490188
 21
228.1629258226879
 31
0.0
  0
LINE
  5
888
330
20
100
AcDbEntity
  8
AT
100
AcDbLine
 10
133.9929442083515
 20
230.5913004355147
 30
0.0
 11
133.9929442083515
 21
225.1913004355147
 31
0.0
  0
LINE
  5
889
330
20
100
AcDbEntity
  8
AT
100
AcDbLine
 10
136.6929442083514
 20
227.8913004355147
 30
0.0
 11
131.2929442083515
 21
227.8913004355147
 31
0.0
  0
CIRCLE
  5
88A
330
20
100
AcDbEntity
  8
0
100
AcDbCircle
 10
133.9929442083515
 20
227.8913004355147
 30
0.0
 40
2.549999999999998
  0
CIRCLE
  5
88B
330
20
100
AcDbEntity
  8
0
100
AcDbCircle
 10
133.9929442083515
 20
227.8913004355147
 30
0.0
 40
2.25
  0
CIRCLE
  5
88C
330
20
100
AcDbEntity
  8
0
100
AcDbCircle
 10
179.5833240538219
 20
226.9913004355148
 30
0.0
 40
2.0
  0
CIRCLE
  5
88D
330
20
100
AcDbEntity
  8
0
100
AcDbCircle
 10
210.5833240538219
 20
197.9913004355147
 30
0.0
 40
2.0
  0
CIRCLE
  5
88E
330
20
100
AcDbEntity
  8
0
100
AcDbCircle
 10
210.5833240538219
 20
197.9913004355147
 30
0.0
 40
1.75
  0
LINE
  5
88F
330
20
100
AcDbEntity
  8
AT
100
AcDbLine
 10
206.4893496527801
 20
197.9913004355147
 30
0.0
 11
215.323082721196
 21
197.9913004355147
 31
0.0
  0
LINE
  5
890
330
20
100
AcDbEntity
  8
AT
100
AcDbLine
 10
210.5833240538219
 20
194.4596293169501
 30
0.0
 11
210.5833240538219
 21
201.9045579371489
 31
0.0
  0
CIRCLE
  5
891
330
20
100
AcDbEntity
  8
0
100
AcDbCircle
 10
129.9929442083514
 20
105.7272089204112
 30
0.0
 40
4.799999999999998
  0
ARC
  5
892
330
20
100
AcDbEntity
  8
0
100
AcDbCircle
 10
137.4929442083514
 20
111.7272089204113
 30
0.0
 40
0.5
100
AcDbArc
 50
0.0
 51
90.0
  0
ARC
  5
893
330
20
100
AcDbEntity
  8
0
100
AcDbCircle
 10
122.4929442083513
 20
111.7272089204113
 30
0.0
 40
0.5
100
AcDbArc
 50
90.0
 51
180.0000000000004
  0
LINE
  5
894
330
20
100
AcDbEntity
  8
0
100
AcDbLine
 10
122.4929442083513
 20
112.2272089204114
 30
0.0
 11
137.4929442083514
 21
112.2272089204114
 31
0.0
  0
ARC
  5
895
330
20
100
AcDbEntity
  8
0
100
AcDbCircle
 10
136.7929442083514
 20
100.4272089204113
 30
0.0
 40
1.199999999999999
100
AcDbArc
 50
270.0
 51
0.0
  0
ARC
  5
896
330
20
100
AcDbEntity
  8
0
100
AcDbCircle
 10
123.1929442083513
 20
100.4272089204113
 30
0.0
 40
1.199999999999999
100
AcDbArc
 50
180.0000000000001
 51
270.0
  0
LINE
  5
897
330
20
100
AcDbEntity
  8
0
100
AcDbLine
 10
136.7929442083514
 20
101.2272089204113
 30
0.0
 11
137.9929442083515
 21
101.2272089204113
 31
0.0
  0
LINE
  5
898
330
20
100
AcDbEntity
  8
0
100
AcDbLine
 10
136.7929442083514
 20
101.2272089204113
 30
0.0
 11
136.7929442083514
 21
99.22720892041136
 31
0.0
  0
LINE
  5
899
330
20
100
AcDbEntity
  8
0
100
AcDbLine
 10
123.1929442083513
 20
101.2272089204113
 30
0.0
 11
123.1929442083513
 21
99.22720892041136
 31
0.0
  0
LINE
  5
89A
330
20
100
AcDbEntity
  8
0
100
AcDbLine
 10
121.9929442083513
 20
101.2272089204113
 30
0.0
 11
123.1929442083513
 21
101.2272089204113
 31
0.0
  0
LINE
  5
89B
330
20
100
AcDbEntity
  8
0
100
AcDbLine
 10
121.9929442083514
 20
99.22720892041136
 30
0.0
 11
137.9929442083514
 21
99.22720892041136
 31
0.0
  0
LINE
  5
89C
330
20
100
AcDbEntity
  8
0
100
AcDbLine
 10
124.2308456201476
 20
105.7272089204112
 30
0.0
 11
136.2002106501877
 21
105.7272089204112
 31
0.0
  0
ARC
  5
89D
330
20
100
AcDbEntity
  8
0
100
AcDbCircle
 10
136.7929442083514
 20
75.42720892041131
 30
0.0
 40
1.199999999999999
100
AcDbArc
 50
270.0000000000001
 51
0.0
  0
ARC
  5
89E
330
20
100
AcDbEntity
  8
0
100
AcDbCircle
 10
123.1929442083514
 20
75.4272089204113
 30
0.0
 40
1.199999999999999
100
AcDbArc
 50
180.0
 51
270.0000000000001
  0
LINE
  5
89F
330
20
100
AcDbEntity
  8
0
100
AcDbLine
 10
123.1929442083514
 20
74.22720892041131
 30
0.0
 11
136.7929442083514
 21
74.22720892041131
 31
0.0
  0
LINE
  5
8A0
330
20
100
AcDbEntity
  8
0
100
AcDbLine
 10
135.8929442083514
 20
88.72720892041121
 30
0.0
 11
132.6191633214933
 21
88.72720892041121
 31
0.0
  0
LINE
  5
8A1
330
20
100
AcDbEntity
  8
0
100
AcDbLine
 10
121.9929442083514
 20
74.22720892041131
 30
0.0
 11
120.3929442083514
 21
74.22720892041131
 31
0.0
  0
LINE
  5
8A2
330
20
100
AcDbEntity
  8
0
100
AcDbLine
 10
121.9929442083514
 20
76.02861008210116
 30
0.0
 11
120.3929442083514
 21
76.02861008210116
 31
0.0
  0
LINE
  5
8A3
330
20
100
AcDbEntity
  8
0
100
AcDbLine
 10
121.9929442083514
 20
85.72720892041125
 30
0.0
 11
120.3929442083514
 21
85.72720892041125
 31
0.0
  0
LINE
  5
8A4
330
20
100
AcDbEntity
  8
0
100
AcDbLine
 10
121.9929442083514
 20
114.2272089204114
 30
0.0
 11
120.3929442083514
 21
114.2272089204114
 31
0.0
  0
LINE
  5
8A5
330
20
100
AcDbEntity
  8
0
100
AcDbLine
 10
139.5929442083513
 20
76.02861008210116
 30
0.0
 11
137.9929442083514
 21
76.02861008210116
 31
0.0
  0
LINE
  5
8A6
330
20
100
AcDbEntity
  8
0
100
AcDbLine
 10
139.5929442083513
 20
74.22720892041131
 30
0.0
 11
137.9929442083514
 21
74.22720892041131
 31
0.0
  0
LINE
  5
8A7
330
20
100
AcDbEntity
  8
0
100
AcDbLine
 10
139.5929442083513
 20
85.72720892041125
 30
0.0
 11
137.9929442083514
 21
85.72720892041125
 31
0.0
  0
LINE
  5
8A8
330
20
100
AcDbEntity
  8
0
100
AcDbLine
 10
139.5929442083513
 20
114.2272089204114
 30
0.0
 11
137.9929442083514
 21
114.2272089204114
 31
0.0
  0
LINE
  5
8A9
330
20
100
AcDbEntity
  8
0
100
AcDbLine
 10
139.5929442083513
 20
114.2272089204114
 30
0.0
 11
139.5929442083513
 21
74.22720892041131
 31
0.0
  0
LINE
  5
8AA
330
20
100
AcDbEntity
  8
0
100
AcDbLine
 10
137.9929442083514
 20
114.2272089204114
 30
0.0
 11
137.9929442083513
 21
74.22720892041131
 31
0.0
  0
LINE
  5
8AB
330
20
100
AcDbEntity
  8
0
100
AcDbLine
 10
120.3929442083514
 20
114.2272089204114
 30
0.0
 11
120.3929442083514
 21
74.22720892041131
 31
0.0
  0
LINE
  5
8AC
330
20
100
AcDbEntity
  8
0
100
AcDbLine
 10
121.9929442083514
 20
114.2272089204114
 30
0.0
 11
121.9929442083513
 21
74.22720892041131
 31
0.0
  0
LINE
  5
8AD
330
20
100
AcDbEntity
  8
0
100
AcDbLine
 10
124.0929442083514
 20
98.72720892041126
 30
0.0
 11
128.4929442083514
 21
98.72720892041126
 31
0.0
  0
LINE
  5
8AE
330
20
100
AcDbEntity
  8
0
100
AcDbLine
 10
135.8929442083514
 20
76.72720892041131
 30
0.0
 11
137.4929442083512
 21
76.72720892041131
 31
0.0
  0
LINE
  5
8AF
330
20
100
AcDbEntity
  8
0
100
AcDbLine
 10
124.0929442083514
 20
76.72720892041131
 30
0.0
 11
122.4929442083513
 21
76.72720892041131
 31
0.0
  0
LINE
  5
8B0
330
20
100
AcDbEntity
  8
0
100
AcDbLine
 10
122.4929442083514
 20
97.12720892041126
 30
0.0
 11
122.4929442083513
 21
76.72720892041131
 31
0.0
  0
LINE
  5
8B1
330
20
100
AcDbEntity
  8
0
100
AcDbLine
 10
137.4929442083514
 20
97.12720892041128
 30
0.0
 11
137.4929442083514
 21
76.72720892041131
 31
0.0
  0
LINE
  5
8B2
330
20
100
AcDbEntity
  8
0
100
AcDbLine
 10
124.0929442083514
 20
97.12720892041128
 30
0.0
 11
124.0929442083514
 21
76.72720892041131
 31
0.0
  0
LINE
  5
8B3
330
20
100
AcDbEntity
  8
0
100
AcDbLine
 10
135.8929442083514
 20
97.12720892041128
 30
0.0
 11
135.8929442083514
 21
76.72720892041131
 31
0.0
  0
LINE
  5
8B4
330
20
100
AcDbEntity
  8
0
100
AcDbLine
 10
124.0929442083514
 20
97.12720892041126
 30
0.0
 11
128.4929442083514
 21
97.12720892041126
 31
0.0
  0
ARC
  5
8B5
330
20
100
AcDbEntity
  8
0
100
AcDbCircle
 10
124.0929442083514
 20
97.12720892041126
 30
0.0
 40
1.6
100
AcDbArc
 50
90.00000000000005
 51
179.9999999999998
  0
ARC
  5
8B6
330
20
100
AcDbEntity
  8
0
100
AcDbCircle
 10
135.8929442083514
 20
97.12720892041128
 30
0.0
 40
1.6
100
AcDbArc
 50
359.9999999999998
 51
90.00000000000005
  0
LINE
  5
8B7
330
20
100
AcDbEntity
  8
0
100
AcDbLine
 10
141.1929442083514
 20
91.22720892041126
 30
0.0
 11
118.7929442083514
 21
91.22720892041126
 31
0.0
  0
ARC
  5
8B8
330
20
100
AcDbEntity
  8
0
  6
H3
100
AcDbCircle
 10
196.0914887697169
 20
155.2183162335331
 30
0.0
 40
3.0
100
AcDbArc
 50
200.0000000000001
 51
225.5718856578963
  0
LINE
  5
8B9
330
20
100
AcDbEntity
  8
0
  6
H3
100
AcDbLine
 10
193.9914472517499
 20
153.0759284015066
 30
0.0
 11
199.3535648285124
 21
147.8197981308403
 31
0.0
  0
LINE
  5
8BA
330
20
100
AcDbEntity
  8
0
  6
H3
100
AcDbLine
 10
203.8283622148282
 20
147.9626841570079
 30
0.0
 11
203.1743356555326
 21
147.5047298299998
 31
0.0
  0
ARC
  5
8BB
330
20
100
AcDbEntity
  8
0
  6
H3
100
AcDbCircle
 10
201.4536063464794
 20
149.9621859628667
 30
0.0
 40
3.0
100
AcDbArc
 50
225.5718856578963
 51
304.9999999999994
  0
ARC
  5
8BC
330
20
100
AcDbEntity
  8
0
  6
H3
100
AcDbCircle
 10
203.2547857784772
 20
148.7818362012969
 30
0.0
 40
1.0
100
AcDbArc
 50
304.9999999999995
 51
35.0
  0
LINE
  5
8BD
330
20
100
AcDbEntity
  8
0
  6
H3
100
AcDbLine
 10
204.0739378227661
 20
149.355412637648
 30
0.0
 11
200.6324792046599
 21
154.2703249033819
 31
0.0
  0
ARC
  5
8BE
330
20
100
AcDbEntity
  8
0
  6
H3
100
AcDbCircle
 10
203.0285414355423
 20
155.6428720922751
 30
0.0
 40
2.75
100
AcDbArc
 50
35.0
 51
215.0
  0
ARC
  5
8BF
330
20
100
AcDbEntity
  8
0
  6
H3
100
AcDbCircle
 10
198.5833240538218
 20
161.9913004355148
 30
0.0
 40
15.5
100
AcDbArc
 50
325.5265724907807
 51
330.5523985575045
  0
LINE
  5
8C0
330
20
100
AcDbEntity
  8
0
  6
H3
100
AcDbLine
 10
210.114343195243
 20
152.8776451577399
 30
0.0
 11
207.695760465018
 21
154.0054488067252
 31
0.0
  0
ARC
  5
8C1
330
20
100
AcDbEntity
  8
0
  6
H3
100
AcDbCircle
 10
210.5369614569837
 20
153.7839529447766
 30
0.0
 40
1.0
100
AcDbArc
 50
244.9999999999998
 51
325.5265724907804
  0
ARC
  5
8C2
330
20
100
AcDbEntity
  8
0
  6
H3
100
AcDbCircle
 10
211.2100062213495
 20
154.8627032775714
 30
0.0
 40
1.0
100
AcDbArc
 50
330.5523985575046
 51
24.66410100469823
  0
LINE
  5
8C3
330
20
100
AcDbEntity
  8
0
  6
H3
100
AcDbLine
 10
207.2992266824697
 20
154.3381801574108
 30
0.0
 11
205.1378154482494
 21
157.4249953033126
 31
0.0
  0
ARC
  5
8C4
330
20
100
AcDbEntity
  8
0
100
AcDbCircle
 10
208.1183787267587
 20
154.9117565937619
 30
0.0
 40
1.0
100
AcDbArc
 50
215.0
 51
244.9999999999997
  0
LINE
  5
8C5
330
20
100
AcDbEntity
  8
0
  6
H3
100
AcDbLine
 10
212.1187760375144
 20
155.2800010384419
 30
0.0
 11
209.3959559835792
 21
161.2096199146691
 31
0.0
  0
ARC
  5
8C6
330
20
100
AcDbEntity
  8
0
100
AcDbCircle
 10
210.3047257997442
 20
161.6269176755394
 30
0.0
 40
1.0
100
AcDbArc
 50
170.0000000000002
 51
204.6641010046982
  0
ARC
  5
8C7
330
20
100
AcDbEntity
  8
0
  6
H3
100
AcDbCircle
 10
209.2648050842014
 20
172.522490444134
 30
0.0
 40
5.0
100
AcDbArc
 50
44.59406822685976
 51
46.53695903281184
  0
ARC
  5
8C8
330
20
100
AcDbEntity
  8
0
  6
H3
100
AcDbCircle
 10
213.7756034330708
 20
174.2160559448428
 30
0.0
 40
0.5
100
AcDbArc
 50
305.0
 51
38.82255372927453
  0
LINE
  5
8C9
330
20
100
AcDbEntity
  8
0
  6
H3
100
AcDbLine
 10
211.0670652045069
 20
171.7091297652925
 30
0.0
 11
214.0623916512463
 21
173.8064799226983
 31
0.0
  0
ARC
  5
8CA
330
20
100
AcDbEntity
  8
0
  6
H3
100
AcDbCircle
 10
198.5833240538216
 20
161.9913004355149
 30
0.0
 40
20.0
100
AcDbArc
 50
38.82255372927366
 51
44.59406822685926
  0
ARC
  5
8CB
330
20
100
AcDbEntity
  8
0
  6
H3
100
AcDbCircle
 10
198.5833240538214
 20
161.9913004355147
 30
0.0
 40
20.0
100
AcDbArc
 50
93.82255372927366
 51
99.59406822685892
  0
ARC
  5
8CC
330
20
100
AcDbEntity
  8
0
  6
H3
100
AcDbCircle
 10
202.7021699065814
 20
156.0652843264742
 30
0.0
 40
3.0
100
AcDbArc
 50
255.0000000000001
 51
280.5718856578963
  0
ARC
  5
8CD
330
20
100
AcDbEntity
  8
0
  6
H3
100
AcDbCircle
 10
200.6833240538219
 20
161.7826133444145
 30
0.0
 40
8.0
100
AcDbArc
 50
180.0
 51
255.0
  0
LINE
  5
8CE
330
20
100
AcDbEntity
  8
0
  6
H3
100
AcDbLine
 10
201.9257127712739
 20
153.167506847607
 30
0.0
 11
198.6127716930016
 21
154.0552067341019
 31
0.0
  0
LINE
  5
8CF
330
20
100
AcDbEntity
  8
0
  6
H3
100
AcDbLine
 10
192.6833240538219
 20
161.9913004355147
 30
0.0
 11
192.6833240538219
 21
173.9913004355147
 31
0.0
  0
LINE
  5
8D0
330
20
100
AcDbEntity
  8
0
  6
H3
100
AcDbLine
 10
192.6833240538219
 20
159.3932242241614
 30
0.0
 11
194.0804383708517
 21
158.5865998971355
 31
0.0
  0
LINE
  5
8D1
330
20
100
AcDbEntity
  8
0
  6
H3
100
AcDbLine
 10
192.6833240538219
 20
161.2407450855682
 30
0.0
 11
194.8804383708518
 21
159.9722405431906
 31
0.0
  0
ARC
  5
8D2
330
20
100
AcDbEntity
  8
0
  6
H3
100
AcDbCircle
 10
191.3833240538218
 20
163.3285587357178
 30
0.0
 40
1.6
100
AcDbArc
 50
135.0
 51
180.0000000000008
  0
ARC
  5
8D3
330
20
100
AcDbEntity
  8
0
  6
H3
100
AcDbCircle
 10
191.3833240538218
 20
161.9913004355147
 30
0.0
 40
1.6
100
AcDbArc
 50
180.0000000000008
 51
240.0000000000002
  0
LINE
  5
8D4
330
20
100
AcDbEntity
  8
0
  6
H3
100
AcDbLine
 10
190.5833240538219
 20
160.6056597894596
 30
0.0
 11
192.6833240538219
 21
159.3932242241614
 31
0.0
  0
LINE
  5
8D5
330
20
100
AcDbEntity
  8
0
  6
H3
100
AcDbLine
 10
191.3833240538218
 20
161.9913004355147
 30
0.0
 11
192.6833240538219
 21
161.2407450855682
 31
0.0
  0
LINE
  5
8D6
330
20
100
AcDbEntity
  8
0
  6
H3
100
AcDbLine
 10
191.3833240538218
 20
163.3285587357178
 30
0.0
 11
192.6833240538219
 21
164.6285587357178
 31
0.0
  0
LINE
  5
8D7
330
20
100
AcDbEntity
  8
0
  6
H3
100
AcDbLine
 10
190.2519532039234
 20
164.4599295856162
 30
0.0
 11
191.0833240538219
 21
165.2913004355148
 31
0.0
  0
LINE
  5
8D8
330
20
100
AcDbEntity
  8
0
  6
H3
100
AcDbLine
 10
194.0804383708517
 20
158.5865998971355
 30
0.0
 11
194.8804383708518
 21
159.9722405431906
 31
0.0
  0
LINE
  5
8D9
330
20
100
AcDbEntity
  8
0
  6
H3
100
AcDbLine
 10
191.3833240538218
 20
163.3285587357178
 30
0.0
 11
191.3833240538218
 21
161.9913004355147
 31
0.0
  0
LINE
  5
8DA
330
20
100
AcDbEntity
  8
0
  6
H3
100
AcDbLine
 10
189.7833240538218
 20
163.3285587357176
 30
0.0
 11
189.7833240538218
 21
161.9913004355147
 31
0.0
  0
LINE
  5
8DB
330
20
100
AcDbEntity
  8
0
  6
H3
100
AcDbLine
 10
192.6833240538219
 20
161.7826133444145
 30
0.0
 11
192.6833240538219
 21
161.9913004355147
 31
0.0
  0
LINE
  5
8DC
330
20
100
AcDbEntity
  8
0
100
AcDbLine
 10
203.2525769487811
 20
153.1162078459643
 30
0.0
 11
203.9248750466467
 21
153.2416836042121
 31
0.0
  0
ARC
  5
8DD
330
20
100
AcDbEntity
  8
0
  6
H3
100
AcDbCircle
 10
205.6049287790243
 20
171.3839092726853
 30
0.0
 40
1.0
100
AcDbArc
 50
225.0000000000002
 51
259.6641010046982
  0
ARC
  5
8DE
330
20
100
AcDbEntity
  8
0
100
AcDbCircle
 10
209.8516295441427
 20
165.7413004355148
 30
0.0
 40
1.0
100
AcDbArc
 50
270.0
 51
299.9999999999996
  0
LINE
  5
8DF
330
20
100
AcDbEntity
  8
0
  6
H3
100
AcDbLine
 10
197.7833240538217
 20
177.7913004355147
 30
0.0
 11
204.8978219978379
 21
170.6768024914986
 31
0.0
  0
ARC
  5
8E0
330
20
100
AcDbEntity
  8
0
100
AcDbCircle
 10
212.0833240538217
 20
158.2413004355147
 30
0.0
 40
1.0
100
AcDbArc
 50
359.9999999999996
 51
90.0
  0
ARC
  5
8E1
330
20
100
AcDbEntity
  8
0
100
AcDbCircle
 10
206.3333240538216
 20
161.9913004355147
 30
0.0
 40
2.75
100
AcDbArc
 50
90.0
 51
131.3707858544572
  0
LINE
  5
8E2
330
20
100
AcDbEntity
  8
0
100
AcDbLine
 10
209.8516295441427
 20
164.7413004355148
 30
0.0
 11
206.0833240538218
 21
164.7413004355148
 31
0.0
  0
LINE
  5
8E3
330
20
100
AcDbEntity
  8
0
100
AcDbLine
 10
212.0833240538217
 20
159.2413004355147
 30
0.0
 11
206.0833240538218
 21
159.2413004355147
 31
0.0
  0
ARC
  5
8E4
330
20
100
AcDbEntity
  8
0
100
AcDbCircle
 10
210.0833240538217
 20
157.4428814315515
 30
0.0
 40
3.0
100
AcDbArc
 50
280.5718856578963
 51
359.9999999999994
  0
LINE
  5
8E5
330
20
100
AcDbEntity
  8
0
  6
H3
100
AcDbLine
 10
191.0833240538219
 20
161.9913004355147
 30
0.0
 11
191.0833240538219
 21
171.9913004355147
 31
0.0
  0
ARC
  5
8E6
330
20
100
AcDbEntity
  8
0
  6
H3
100
AcDbCircle
 10
211.6650963492516
 20
168.2456775915971
 30
0.0
 40
1.0
100
AcDbArc
 50
25.55239855750462
 51
79.66410100469822
  0
ARC
  5
8E7
330
20
100
AcDbEntity
  8
0
  6
H3
100
AcDbCircle
 10
212.1627142721882
 20
167.0756058253719
 30
0.0
 40
1.0
100
AcDbArc
 50
299.9999999999998
 51
20.52657249078043
  0
LINE
  5
8E8
330
20
100
AcDbEntity
  8
0
  6
H3
100
AcDbLine
 10
212.6627142721882
 20
166.2095804215875
 30
0.0
 11
211.0722066807366
 21
165.2913004355147
 31
0.0
  0
ARC
  5
8E9
330
20
100
AcDbEntity
  8
0
  6
H3
100
AcDbCircle
 10
198.5833240538218
 20
161.9913004355148
 30
0.0
 40
15.5
100
AcDbArc
 50
20.52657249078064
 51
25.55239855750448
  0
LINE
  5
8EA
330
20
100
AcDbEntity
  8
0
100
AcDbLine
 10
213.0833240538218
 20
158.2413004355147
 30
0.0
 11
213.0833240538218
 21
157.4428814315515
 31
0.0
  0
LINE
  5
8EB
330
20
100
AcDbEntity
  8
0
  6
H3
100
AcDbLine
 10
211.8445149879766
 20
169.2294504068741
 30
0.0
 11
205.4255101402992
 21
170.4001364574083
 31
0.0
  0
LINE
  5
8EC
330
20
100
AcDbEntity
  8
0
  6
H3
100
AcDbLine
 10
197.7833240538217
 20
177.7913004355147
 30
0.0
 11
197.7833240538217
 21
181.4479188467393
 31
0.0
  0
ARC
  5
8ED
330
20
100
AcDbEntity
  8
0
  6
H3
100
AcDbCircle
 10
197.2833240538216
 20
181.4479188467393
 30
0.0
 40
0.5
100
AcDbArc
 50
0.0
 51
93.82255372927451
  0
ARC
  5
8EE
330
20
100
AcDbEntity
  8
0
  6
H3
100
AcDbCircle
 10
196.0833240538219
 20
176.7814998932639
 30
0.0
 40
5.0
100
AcDbArc
 50
99.59406822685977
 51
101.5369590328118
  0
LINE
  5
8EF
330
20
100
AcDbEntity
  8
0
100
AcDbLine
 10
190.6333240538216
 20
175.0913004355147
 30
0.0
 11
189.3333240538217
 21
175.0913004355147
 31
0.0
  0
LINE
  5
8F0
330
20
100
AcDbEntity
  8
0
100
AcDbLine
 10
190.6333240538216
 20
169.8913004355148
 30
0.0
 11
190.6333240538216
 21
175.0913004355147
 31
0.0
  0
LINE
  5
8F1
330
20
100
AcDbEntity
  8
0
100
AcDbLine
 10
189.3333240538217
 20
169.8913004355148
 30
0.0
 11
190.6333240538216
 21
169.8913004355148
 31
0.0
  0
LINE
  5
8F2
330
20
100
AcDbEntity
  8
0
100
AcDbLine
 10
189.3333240538217
 20
175.0913004355147
 30
0.0
 11
189.3333240538217
 21
169.8913004355148
 31
0.0
  0
CIRCLE
  5
8F3
330
20
100
AcDbEntity
  8
0
100
AcDbCircle
 10
125.9929442083514
 20
215.8913004355146
 30
0.0
 40
1.35
  0
ARC
  5
8F4
330
20
100
AcDbEntity
  8
0
  6
H3
100
AcDbCircle
 10
185.0833240538218
 20
224.9913004355148
 30
0.0
 40
3.0
100
AcDbArc
 50
180.0
 51
270.0
  0
ARC
  5
8F5
330
20
100
AcDbEntity
  8
0
  6
H3
100
AcDbCircle
 10
185.0833240538218
 20
228.9913004355148
 30
0.0
 40
3.0
100
AcDbArc
 50
89.99999999999969
 51
180.0
  0
LINE
  5
8F6
330
20
100
AcDbEntity
  8
0
  6
H3
100
AcDbLine
 10
182.0833240538217
 20
228.9913004355148
 30
0.0
 11
182.0833240538217
 21
224.9913004355148
 31
0.0
  0
ARC
  5
8F7
330
20
100
AcDbEntity
  8
0
  6
H3
100
AcDbCircle
 10
185.0833240538218
 20
151.4913004355147
 30
0.0
 40
3.0
100
AcDbArc
 50
180.0
 51
270.0
  0
ARC
  5
8F8
330
20
100
AcDbEntity
  8
0
  6
H3
100
AcDbCircle
 10
185.0833240538218
 20
155.4913004355147
 30
0.0
 40
3.0
100
AcDbArc
 50
90.0
 51
180.0
  0
LINE
  5
8F9
330
20
100
AcDbEntity
  8
0
  6
H3
100
AcDbLine
 10
182.0833240538217
 20
155.4913004355147
 30
0.0
 11
182.0833240538217
 21
151.4913004355147
 31
0.0
  0
ARC
  5
8FA
330
20
100
AcDbEntity
  8
0
  6
H3
100
AcDbCircle
 10
189.3833240538216
 20
148.1913004355146
 30
0.0
 40
1.199999999999999
100
AcDbArc
 50
270.0
 51
0.0
  0
LINE
  5
8FB
330
20
100
AcDbEntity
  8
0
  6
H3
100
AcDbLine
 10
177.5833240538218
 20
146.9913004355147
 30
0.0
 11
177.5833240538218
 21
148.1913004355146
 31
0.0
  0
LINE
  5
8FC
330
20
100
AcDbEntity
  8
0
  6
H3
100
AcDbLine
 10
180.5833240538218
 20
146.9913004355147
 30
0.0
 11
180.5833240538218
 21
148.1913004355146
 31
0.0
  0
LINE
  5
8FD
330
20
100
AcDbEntity
  8
0
  6
H3
100
AcDbLine
 10
185.5833240538217
 20
146.9913004355147
 30
0.0
 11
185.5833240538217
 21
148.1913004355146
 31
0.0
  0
CIRCLE
  5
8FE
330
20
100
AcDbEntity
  8
0
100
AcDbCircle
 10
179.5833240538217
 20
153.4913004355147
 30
0.0
 40
2.0
  0
CIRCLE
  5
8FF
330
20
100
AcDbEntity
  8
0
100
AcDbCircle
 10
179.5833240538217
 20
153.4913004355147
 30
0.0
 40
1.75
  0
CIRCLE
  5
900
330
20
100
AcDbEntity
  8
0
100
AcDbCircle
 10
179.583324053822
 20
226.9913004355148
 30
0.0
 40
1.75
  0
ARC
  5
901
330
20
100
AcDbEntity
  8
0
100
AcDbCircle
 10
215.0833240538217
 20
163.4913004355147
 30
0.0
 40
0.5
100
AcDbArc
 50
270.0
 51
359.9999999999998
  0
LINE
  5
902
330
20
100
AcDbEntity
  8
0
100
AcDbLine
 10
214.7172452866183
 20
162.9913004355147
 30
0.0
 11
215.0833240538217
 21
162.9913004355147
 31
0.0
  0
ARC
  5
903
330
20
100
AcDbEntity
  8
0
100
AcDbCircle
 10
215.0833240538219
 20
200.9913004355147
 30
0.0
 40
0.5
100
AcDbArc
 50
270.0
 51
359.9999999999998
  0
ARC
  5
904
330
20
100
AcDbEntity
  8
0
100
AcDbCircle
 10
215.0833240538218
 20
193.9913004355147
 30
0.0
 40
0.5
100
AcDbArc
 50
359.9999999999997
 51
90.0
  0
ARC
  5
905
330
20
100
AcDbEntity
  8
0
100
AcDbCircle
 10
215.0833240538218
 20
179.5913004355147
 30
0.0
 40
0.5
100
AcDbArc
 50
270.0
 51
359.9999999999997
  0
ARC
  5
906
330
20
100
AcDbEntity
  8
0
100
AcDbCircle
 10
215.0833240538217
 20
173.3913004355148
 30
0.0
 40
0.5
100
AcDbArc
 50
359.9999999999998
 51
90.0
  0
LINE
  5
907
330
20
100
AcDbEntity
  8
0
100
AcDbLine
 10
215.5833240538218
 20
179.5913004355147
 30
0.0
 11
215.5833240538218
 21
193.9913004355147
 31
0.0
  0
LINE
  5
908
330
20
100
AcDbEntity
  8
0
100
AcDbLine
 10
215.5833240538219
 20
200.9913004355147
 30
0.0
 11
215.583324053822
 21
234.9913004355148
 31
0.0
  0
ARC
  5
909
330
20
100
AcDbEntity
  8
0
100
AcDbCircle
 10
179.9833240538218
 20
147.4913004355147
 30
0.0
 40
0.5
100
AcDbArc
 50
270.0
 51
0.0
  0
ARC
  5
90A
330
20
100
AcDbEntity
  8
0
100
AcDbCircle
 10
186.1833240538216
 20
147.4913004355147
 30
0.0
 40
0.5
100
AcDbArc
 50
180.0
 51
270.0
  0
LINE
  5
90B
330
20
100
AcDbEntity
  8
0
100
AcDbLine
 10
186.1833240538216
 20
146.9913004355148
 30
0.0
 11
202.6364769479083
 21
146.9913004355148
 31
0.0
  0
ARC
  5
90C
330
20
100
AcDbEntity
  8
0
100
AcDbCircle
 10
213.583324053822
 20
234.9913004355148
 30
0.0
 40
2.0
100
AcDbArc
 50
359.9999999999998
 51
89.99999999999992
  0
LINE
  5
90D
330
20
100
AcDbEntity
  8
0
100
AcDbLine
 10
130.6929442083514
 20
177.4913004355147
 30
0.0
 11
129.2929442083514
 21
177.4913004355147
 31
0.0
  0
LINE
  5
90E
330
20
100
AcDbEntity
  8
0
100
AcDbLine
 10
129.2929442083514
 20
174.2913004355147
 30
0.0
 11
130.6929442083514
 21
174.2913004355147
 31
0.0
  0
CIRCLE
  5
90F
330
20
100
AcDbEntity
  8
0
100
AcDbCircle
 10
185.5833240538217
 20
153.4913004355147
 30
0.0
 40
3.1
  0
LINE
  5
910
330
20
100
AcDbEntity
  8
0
100
AcDbLine
 10
137.9929442083515
 20
160.4913004355147
 30
0.0
 11
136.7929442083514
 21
160.4913004355147
 31
0.0
  0
LINE
  5
911
330
20
100
AcDbEntity
  8
0
100
AcDbLine
 10
123.1929442083513
 20
158.4913004355147
 30
0.0
 11
121.9929442083514
 21
158.4913004355147
 31
0.0
  0
LINE
  5
912
330
20
100
AcDbEntity
  8
0
100
AcDbLine
 10
137.9929442083515
 20
148.1913004355146
 30
0.0
 11
137.9929442083515
 21
146.9913004355147
 31
0.0
  0
LINE
  5
913
330
20
100
AcDbEntity
  8
0
100
AcDbLine
 10
123.1929442083513
 20
148.4913004355147
 30
0.0
 11
121.9929442083514
 21
148.4913004355147
 31
0.0
  0
LINE
  5
914
330
20
100
AcDbEntity
  8
0
100
AcDbLine
 10
121.9929442083514
 20
148.1913004355146
 30
0.0
 11
121.9929442083514
 21
146.9913004355147
 31
0.0
  0
LINE
  5
915
330
20
100
AcDbEntity
  8
0
100
AcDbLine
 10
137.9929442083515
 20
148.4913004355147
 30
0.0
 11
136.7929442083514
 21
148.4913004355147
 31
0.0
  0
LINE
  5
916
330
20
100
AcDbEntity
  8
0
100
AcDbLine
 10
137.9929442083515
 20
158.4913004355147
 30
0.0
 11
136.7929442083514
 21
158.4913004355147
 31
0.0
  0
LINE
  5
917
330
20
100
AcDbEntity
  8
0
  6
H3
100
AcDbLine
 10
188.5833240538216
 20
146.9913004355147
 30
0.0
 11
188.5833240538216
 21
148.1913004355146
 31
0.0
  0
LINE
  5
918
330
20
100
AcDbEntity
  8
0
  6
H3
100
AcDbLine
 10
185.0833240538218
 20
158.4913004355147
 30
0.0
 11
190.5833240538217
 21
158.4913004355147
 31
0.0
  0
LINE
  5
919
330
20
100
AcDbEntity
  8
0
  6
H3
100
AcDbLine
 10
185.0833240538218
 20
148.4913004355147
 30
0.0
 11
190.5833240538217
 21
148.4913004355147
 31
0.0
  0
LINE
  5
91A
330
20
100
AcDbEntity
  8
0
  6
H3
100
AcDbLine
 10
189.3833240538218
 20
221.9913004355147
 30
0.0
 11
189.3833240538218
 21
231.9913004355147
 31
0.0
  0
LINE
  5
91B
330
20
100
AcDbEntity
  8
0
100
AcDbLine
 10
189.3833240538218
 20
169.9913004355147
 30
0.0
 11
190.5833240538217
 21
169.9913004355147
 31
0.0
  0
LINE
  5
91C
330
20
100
AcDbEntity
  8
0
100
AcDbLine
 10
189.3833240538218
 20
174.9913004355147
 30
0.0
 11
190.5833240538217
 21
174.9913004355147
 31
0.0
  0
ARC
  5
91D
330
20
100
AcDbEntity
  8
0
100
AcDbCircle
 10
180.8333240538218
 20
196.9913004355147
 30
0.0
 40
0.5
100
AcDbArc
 50
90.0
 51
179.9999999999998
  0
ARC
  5
91E
330
20
100
AcDbEntity
  8
0
100
AcDbCircle
 10
189.8333240538218
 20
196.9913004355147
 30
0.0
 40
0.5
100
AcDbArc
 50
359.9999999999998
 51
0.0
  0
ARC
  5
91F
330
20
100
AcDbEntity
  8
0
100
AcDbCircle
 10
189.8333240538218
 20
186.9913004355147
 30
0.0
 40
0.5
100
AcDbArc
 50
270.0
 51
0.0
  0
ARC
  5
920
330
20
100
AcDbEntity
  8
0
100
AcDbCircle
 10
180.8333240538217
 20
186.9913004355147
 30
0.0
 40
0.5
100
AcDbArc
 50
180.0
 51
270.0
  0
LINE
  5
921
330
20
100
AcDbEntity
  8
0
100
AcDbLine
 10
189.8333240538218
 20
197.4913004355147
 30
0.0
 11
180.8333240538218
 21
197.4913004355147
 31
0.0
  0
LINE
  5
922
330
20
100
AcDbEntity
  8
0
100
AcDbLine
 10
190.3333240538217
 20
186.9913004355147
 30
0.0
 11
190.3333240538218
 21
196.9913004355147
 31
0.0
  0
LINE
  5
923
330
20
100
AcDbEntity
  8
0
100
AcDbLine
 10
180.8333240538217
 20
186.4913004355147
 30
0.0
 11
189.8333240538218
 21
186.4913004355147
 31
0.0
  0
LINE
  5
924
330
20
100
AcDbEntity
  8
0
100
AcDbLine
 10
180.3333240538218
 20
196.9913004355147
 30
0.0
 11
180.3333240538217
 21
186.9913004355147
 31
0.0
  0
LINE
  5
925
330
20
100
AcDbEntity
  8
0
  6
H3
100
AcDbLine
 10
177.5833240538218
 20
148.1913004355146
 30
0.0
 11
189.3833240538218
 21
148.1913004355146
 31
0.0
  0
LINE
  5
926
330
20
100
AcDbEntity
  8
0
100
AcDbLine
 10
121.9929442083514
 20
160.4913004355147
 30
0.0
 11
123.1929442083513
 21
160.4913004355147
 31
0.0
  0
LINE
  5
927
330
20
100
AcDbEntity
  8
0
100
AcDbLine
 10
123.1929442083514
 20
219.9913004355147
 30
0.0
 11
121.9929442083514
 21
219.9913004355147
 31
0.0
  0
LINE
  5
928
330
20
100
AcDbEntity
  8
0
100
AcDbLine
 10
137.9929442083515
 20
219.9913004355147
 30
0.0
 11
136.7929442083515
 21
219.9913004355147
 31
0.0
  0
LINE
  5
929
330
20
100
AcDbEntity
  8
0
100
AcDbLine
 10
130.6929442083514
 20
174.2913004355147
 30
0.0
 11
130.6929442083514
 21
177.4913004355147
 31
0.0
  0
LINE
  5
92A
330
20
100
AcDbEntity
  8
0
100
AcDbLine
 10
129.2929442083514
 20
177.4913004355147
 30
0.0
 11
129.2929442083514
 21
174.2913004355147
 31
0.0
  0
LINE
  5
92B
330
20
100
AcDbEntity
  8
0
100
AcDbLine
 10
215.0833240538219
 20
200.4913004355147
 30
0.0
 11
214.3333240538219
 21
200.4913004355147
 31
0.0
  0
LINE
  5
92C
330
20
100
AcDbEntity
  8
0
100
AcDbLine
 10
214.3333240538219
 20
194.4913004355147
 30
0.0
 11
215.0833240538218
 21
194.4913004355147
 31
0.0
  0
LINE
  5
92D
330
20
100
AcDbEntity
  8
0
100
AcDbLine
 10
214.3333240538219
 20
200.4913004355147
 30
0.0
 11
214.3333240538219
 21
194.4913004355147
 31
0.0
  0
LINE
  5
92E
330
20
100
AcDbEntity
  8
0
100
AcDbLine
 10
215.0833240538218
 20
179.0913004355147
 30
0.0
 11
214.3333240538218
 21
179.0913004355147
 31
0.0
  0
LINE
  5
92F
330
20
100
AcDbEntity
  8
0
100
AcDbLine
 10
214.3333240538218
 20
173.8913004355146
 30
0.0
 11
215.0833240538217
 21
173.8913004355146
 31
0.0
  0
LINE
  5
930
330
20
100
AcDbEntity
  8
0
100
AcDbLine
 10
214.3333240538218
 20
179.0913004355147
 30
0.0
 11
214.3333240538218
 21
173.8913004355146
 31
0.0
  0
LINE
  5
931
330
20
100
AcDbEntity
  8
0
100
AcDbLine
 10
199.4334669109645
 20
190.5913004355148
 30
0.0
 11
197.7334669109645
 21
190.5913004355148
 31
0.0
  0
LINE
  5
932
330
20
100
AcDbEntity
  8
0
100
AcDbLine
 10
199.4334669109645
 20
180.8913004355146
 30
0.0
 11
199.4334669109645
 21
190.5913004355148
 31
0.0
  0
LINE
  5
933
330
20
100
AcDbEntity
  8
0
100
AcDbLine
 10
197.7334669109645
 20
180.8913004355146
 30
0.0
 11
199.4334669109645
 21
180.8913004355146
 31
0.0
  0
LINE
  5
934
330
20
100
AcDbEntity
  8
0
100
AcDbLine
 10
197.7334669109645
 20
190.5913004355148
 30
0.0
 11
197.7334669109645
 21
180.8913004355146
 31
0.0
  0
LINE
  5
935
330
20
100
AcDbEntity
  8
0
100
AcDbLine
 10
190.6333240538216
 20
220.4913004355148
 30
0.0
 11
189.3333240538217
 21
220.4913004355148
 31
0.0
  0
LINE
  5
936
330
20
100
AcDbEntity
  8
0
100
AcDbLine
 10
190.6333240538216
 20
214.4913004355148
 30
0.0
 11
190.6333240538216
 21
220.4913004355148
 31
0.0
  0
LINE
  5
937
330
20
100
AcDbEntity
  8
0
100
AcDbLine
 10
189.3333240538217
 20
214.4913004355148
 30
0.0
 11
190.6333240538216
 21
214.4913004355148
 31
0.0
  0
LINE
  5
938
330
20
100
AcDbEntity
  8
0
100
AcDbLine
 10
189.3333240538217
 20
220.4913004355148
 30
0.0
 11
189.3333240538217
 21
214.4913004355148
 31
0.0
  0
LINE
  5
939
330
20
100
AcDbEntity
  8
0
100
AcDbLine
 10
183.3333240538218
 20
210.5913004355147
 30
0.0
 11
181.6333240538219
 21
210.5913004355147
 31
0.0
  0
LINE
  5
93A
330
20
100
AcDbEntity
  8
0
100
AcDbLine
 10
183.3333240538218
 20
204.3913004355148
 30
0.0
 11
183.3333240538218
 21
210.5913004355147
 31
0.0
  0
LINE
  5
93B
330
20
100
AcDbEntity
  8
0
100
AcDbLine
 10
181.6333240538219
 20
204.3913004355148
 30
0.0
 11
183.3333240538218
 21
204.3913004355148
 31
0.0
  0
LINE
  5
93C
330
20
100
AcDbEntity
  8
0
100
AcDbLine
 10
181.6333240538219
 20
210.5913004355147
 30
0.0
 11
181.6333240538219
 21
204.3913004355148
 31
0.0
  0
LINE
  5
93D
330
20
100
AcDbEntity
  8
0
100
AcDbLine
 10
183.3333240538218
 20
167.0913004355147
 30
0.0
 11
181.6333240538219
 21
167.0913004355147
 31
0.0
  0
LINE
  5
93E
330
20
100
AcDbEntity
  8
0
100
AcDbLine
 10
183.3333240538218
 20
161.8913004355148
 30
0.0
 11
183.3333240538218
 21
167.0913004355147
 31
0.0
  0
LINE
  5
93F
330
20
100
AcDbEntity
  8
0
100
AcDbLine
 10
181.6333240538219
 20
161.8913004355148
 30
0.0
 11
183.3333240538218
 21
161.8913004355148
 31
0.0
  0
LINE
  5
940
330
20
100
AcDbEntity
  8
0
100
AcDbLine
 10
181.6333240538219
 20
167.0913004355147
 30
0.0
 11
181.6333240538219
 21
161.8913004355148
 31
0.0
  0
LINE
  5
941
330
20
100
AcDbEntity
  8
0
100
AcDbLine
 10
185.6833240538217
 20
148.2413004355147
 30
0.0
 11
180.4833240538217
 21
148.2413004355148
 31
0.0
  0
LINE
  5
942
330
20
100
AcDbEntity
  8
0
100
AcDbLine
 10
185.6833240538217
 20
147.4913004355147
 30
0.0
 11
185.6833240538217
 21
148.2413004355147
 31
0.0
  0
LINE
  5
943
330
20
100
AcDbEntity
  8
0
100
AcDbLine
 10
180.4833240538217
 20
148.2413004355148
 30
0.0
 11
180.4833240538218
 21
147.4913004355147
 31
0.0
  0
LINE
  5
944
330
20
100
AcDbEntity
  8
0
100
AcDbLine
 10
123.1929442083514
 20
221.9913004355147
 30
0.0
 11
121.9929442083514
 21
221.9913004355147
 31
0.0
  0
LINE
  5
945
330
20
100
AcDbEntity
  8
0
100
AcDbLine
 10
136.7929442083514
 20
231.9913004355147
 30
0.0
 11
136.7929442083515
 21
219.9913004355147
 31
0.0
  0
LINE
  5
946
330
20
100
AcDbEntity
  8
0
100
AcDbLine
 10
123.1929442083514
 20
231.9913004355147
 30
0.0
 11
123.1929442083514
 21
219.9913004355147
 31
0.0
  0
LINE
  5
947
330
20
100
AcDbEntity
  8
0
100
AcDbLine
 10
137.9929442083515
 20
221.9913004355147
 30
0.0
 11
136.7929442083514
 21
221.9913004355147
 31
0.0
  0
ARC
  5
948
330
20
100
AcDbEntity
  8
0
100
AcDbCircle
 10
185.583324053822
 20
234.9913004355148
 30
0.0
 40
0.5
100
AcDbArc
 50
180.0
 51
270.0
  0
ARC
  5
949
330
20
100
AcDbEntity
  8
0
100
AcDbCircle
 10
189.583324053822
 20
234.9913004355148
 30
0.0
 40
0.5
100
AcDbArc
 50
270.0
 51
359.9999999999992
  0
ARC
  5
94A
330
20
100
AcDbEntity
  8
0
100
AcDbCircle
 10
200.583324053822
 20
234.9913004355148
 30
0.0
 40
0.5
100
AcDbArc
 50
180.0000000000004
 51
270.0
  0
ARC
  5
94B
330
20
100
AcDbEntity
  8
0
100
AcDbCircle
 10
204.583324053822
 20
234.9913004355148
 30
0.0
 40
0.5
100
AcDbArc
 50
270.0
 51
359.9999999999996
  0
ARC
  5
94C
330
20
100
AcDbEntity
  8
0
100
AcDbCircle
 10
205.5833240538221
 20
236.4913004355147
 30
0.0
 40
0.5
100
AcDbArc
 50
89.99999999999996
 51
179.9999999999997
  0
ARC
  5
94D
330
20
100
AcDbEntity
  8
0
100
AcDbCircle
 10
199.583324053822
 20
236.4913004355147
 30
0.0
 40
0.5
100
AcDbArc
 50
0.0
 51
89.99999999999994
  0
ARC
  5
94E
330
20
100
AcDbEntity
  8
0
100
AcDbCircle
 10
190.5833240538221
 20
236.4913004355147
 30
0.0
 40
0.5
100
AcDbArc
 50
89.99999999999996
 51
179.9999999999993
  0
ARC
  5
94F
330
20
100
AcDbEntity
  8
0
100
AcDbCircle
 10
184.583324053822
 20
236.4913004355147
 30
0.0
 40
0.5
100
AcDbArc
 50
0.0
 51
90.0
  0
LINE
  5
950
330
20
100
AcDbEntity
  8
0
100
AcDbLine
 10
190.5833240538221
 20
236.9913004355147
 30
0.0
 11
199.583324053822
 21
236.9913004355147
 31
0.0
  0
LINE
  5
951
330
20
100
AcDbEntity
  8
0
100
AcDbLine
 10
200.583324053822
 20
234.4913004355147
 30
0.0
 11
204.583324053822
 21
234.4913004355147
 31
0.0
  0
LINE
  5
952
330
20
100
AcDbEntity
  8
0
100
AcDbLine
 10
205.5833240538221
 20
236.9913004355147
 30
0.0
 11
213.583324053822
 21
236.9913004355147
 31
0.0
  0
LINE
  5
953
330
20
100
AcDbEntity
  8
0
100
AcDbLine
 10
185.583324053822
 20
234.4913004355147
 30
0.0
 11
189.583324053822
 21
234.4913004355147
 31
0.0
  0
LINE
  5
954
330
20
100
AcDbEntity
  8
0
100
AcDbLine
 10
205.083324053822
 20
234.9913004355148
 30
0.0
 11
205.083324053822
 21
236.4913004355147
 31
0.0
  0
LINE
  5
955
330
20
100
AcDbEntity
  8
0
100
AcDbLine
 10
185.083324053822
 20
234.9913004355148
 30
0.0
 11
185.083324053822
 21
236.4913004355147
 31
0.0
  0
LINE
  5
956
330
20
100
AcDbEntity
  8
0
100
AcDbLine
 10
190.083324053822
 20
234.9913004355148
 30
0.0
 11
190.0833240538221
 21
236.4913004355148
 31
0.0
  0
LINE
  5
957
330
20
100
AcDbEntity
  8
0
100
AcDbLine
 10
200.083324053822
 20
234.9913004355148
 30
0.0
 11
200.083324053822
 21
236.4913004355147
 31
0.0
  0
ARC
  5
958
330
20
100
AcDbEntity
  8
0
100
AcDbCircle
 10
202.6364769479083
 20
147.9913004355148
 30
0.0
 40
1.0
100
AcDbArc
 50
270.0
 51
356.8721938787139
  0
LINE
  5
959
330
20
100
AcDbEntity
  8
0
100
AcDbLine
 10
204.5589832562698
 20
164.8458638403146
 30
0.0
 11
203.6349872557452
 21
147.9367370307149
 31
0.0
  0
LINE
  5
95A
330
20
100
AcDbEntity
  8
0
100
AcDbLine
 10
189.3833240538218
 20
214.9913004355147
 30
0.0
 11
190.5833240538217
 21
214.9913004355147
 31
0.0
  0
LINE
  5
95B
330
20
100
AcDbEntity
  8
0
100
AcDbLine
 10
189.3833240538218
 20
219.9913004355147
 30
0.0
 11
190.5833240538217
 21
219.9913004355147
 31
0.0
  0
LINE
  5
95C
330
20
100
AcDbEntity
  8
0
100
AcDbLine
 10
136.7929442083514
 20
160.4913004355147
 30
0.0
 11
136.7929442083514
 21
148.1913004355146
 31
0.0
  0
LINE
  5
95D
330
20
100
AcDbEntity
  8
0
100
AcDbLine
 10
123.1929442083513
 20
160.4913004355147
 30
0.0
 11
123.1929442083513
 21
148.1913004355146
 31
0.0
  0
CIRCLE
  5
95E
330
20
100
AcDbEntity
  8
0
100
AcDbCircle
 10
210.5833240538218
 20
187.9913004355147
 30
0.0
 40
3.1
  0
CIRCLE
  5
95F
330
20
100
AcDbEntity
  8
0
100
AcDbCircle
 10
185.5833240538217
 20
226.9913004355148
 30
0.0
 40
3.1
  0
LINE
  5
960
330
20
100
AcDbEntity
  8
0
  6
H3
100
AcDbLine
 10
185.0833240538218
 20
221.9913004355147
 30
0.0
 11
190.5833240538217
 21
221.9913004355147
 31
0.0
  0
LINE
  5
961
330
20
100
AcDbEntity
  8
0
100
AcDbLine
 10
137.9929442083514
 20
148.1913004355146
 30
0.0
 11
121.9929442083514
 21
148.1913004355146
 31
0.0
  0
LINE
  5
962
330
20
100
AcDbEntity
  8
0
  6
H4
100
AcDbLine
 10
189.3833240538218
 20
148.1913004355146
 30
0.0
 11
189.3833240538218
 21
186.4913004355147
 31
0.0
  0
LINE
  5
963
330
20
100
AcDbEntity
  8
0
100
AcDbLine
 10
137.9929442083515
 20
231.9913004355147
 30
0.0
 11
131.4453910095192
 21
231.9913004355147
 31
0.0
  0
LINE
  5
964
330
20
100
AcDbEntity
  8
0
  6
H3
100
AcDbLine
 10
190.5833240538217
 20
231.9913004355147
 30
0.0
 11
185.0833240538218
 21
231.9913004355148
 31
0.0
  0
ARC
  5
966
330
20
100
AcDbEntity
  8
0
100
AcDbCircle
 10
177.583324053822
 20
234.9913004355148
 30
0.0
 40
2.0
100
AcDbArc
 50
90.0
 51
179.9999999999997
  0
ARC
  5
967
330
20
100
AcDbEntity
  8
0
100
AcDbCircle
 10
177.5833240538216
 20
148.9913004355148
 30
0.0
 40
2.0
100
AcDbArc
 50
179.9999999999997
 51
270.0
  0
LINE
  5
968
330
20
100
AcDbEntity
  8
0
  6
H4
100
AcDbLine
 10
190.5833240538217
 20
148.1913004355146
 30
0.0
 11
190.5833240538217
 21
214.4913004355148
 31
0.0
  0
LINE
  5
969
330
20
100
AcDbEntity
  8
0
100
AcDbLine
 10
177.583324053822
 20
236.9913004355147
 30
0.0
 11
184.583324053822
 21
236.9913004355147
 31
0.0
  0
LINE
  5
96A
330
20
100
AcDbEntity
  8
0
100
AcDbLine
 10
175.5833240538216
 20
148.9913004355148
 30
0.0
 11
175.583324053822
 21
234.9913004355148
 31
0.0
  0
LINE
  5
96B
330
20
100
AcDbEntity
  8
0
100
AcDbLine
 10
215.5833240538217
 20
163.4913004355147
 30
0.0
 11
215.5833240538217
 21
173.3913004355148
 31
0.0
  0
LINE
  5
96C
330
20
100
AcDbEntity
  8
0
100
AcDbLine
 10
177.5833240538216
 20
146.9913004355148
 30
0.0
 11
179.9833240538218
 21
146.9913004355148
 31
0.0
  0
LINE
  5
96D
330
20
100
AcDbEntity
  8
AT
100
AcDbLine
 10
179.5833240538219
 20
221.7185418070099
 30
0.0
 11
179.583324053822
 21
232.0432162487735
 31
0.0
  0
LINE
  5
96E
330
20
100
AcDbEntity
  8
0
100
AcDbLine
 10
185.5833240538217
 20
236.9913004355148
 30
0.0
 11
185.5833240538217
 21
216.9913004355148
 31
0.0
  0
LINE
  5
96F
330
20
100
AcDbEntity
  8
AT
100
AcDbLine
 10
195.5833240538217
 20
226.9913004355148
 30
0.0
 11
175.5833240538217
 21
226.9913004355148
 31
0.0
  0
LINE
  5
970
330
20
100
AcDbEntity
  8
AT
100
AcDbLine
 10
179.5833240538216
 20
150.1326872536905
 30
0.0
 11
179.5833240538216
 21
156.677408870027
 31
0.0
  0
LINE
  5
971
330
20
100
AcDbEntity
  8
0
100
AcDbLine
 10
135.9929442083515
 20
160.0913004355147
 30
0.0
 11
135.9929442083515
 21
161.9913004355147
 31
0.0
  0
LINE
  5
972
330
20
100
AcDbEntity
  8
0
100
AcDbLine
 10
123.9929442083514
 20
157.0913004355147
 30
0.0
 11
123.9929442083514
 21
155.0913004355147
 31
0.0
  0
LINE
  5
973
330
20
100
AcDbEntity
  8
0
100
AcDbLine
 10
135.9929442083514
 20
161.9913004355147
 30
0.0
 11
137.9929442083515
 21
161.9913004355147
 31
0.0
  0
LINE
  5
974
330
20
100
AcDbEntity
  8
0
100
AcDbLine
 10
129.9929442083515
 20
166.3376213694801
 30
0.0
 11
129.9929442083515
 21
144.1594377186648
 31
0.0
  0
LINE
  5
975
330
20
100
AcDbEntity
  8
0
100
AcDbLine
 10
123.9929442083514
 20
161.9913004355147
 30
0.0
 11
123.9929442083514
 21
160.0913004355147
 31
0.0
  0
LINE
  5
976
330
20
100
AcDbEntity
  8
0
100
AcDbLine
 10
135.9929442083515
 20
155.0913004355147
 30
0.0
 11
135.9929442083515
 21
157.0913004355147
 31
0.0
  0
LINE
  5
977
330
20
100
AcDbEntity
  8
0
100
AcDbLine
 10
123.9929442083514
 20
155.0913004355147
 30
0.0
 11
135.9929442083515
 21
155.0913004355147
 31
0.0
  0
LINE
  5
97A
330
20
100
AcDbEntity
  8
AT
100
AcDbLine
 10
210.7007613702885
 20
178.3913004355146
 30
0.0
 11
228.7818382045707
 21
178.3913004355146
 31
0.0
  0
LINE
  5
97B
330
20
100
AcDbEntity
  8
0
100
AcDbLine
 10
215.5833240538218
 20
178.9913004355147
 30
0.0
 11
214.3833240538218
 21
178.9913004355147
 31
0.0
  0
ARC
  5
97C
330
20
100
AcDbEntity
  8
0
  6
H3
100
AcDbCircle
 10
214.3833240538218
 20
173.9913004355147
 30
0.0
 40
1.199999999999999
100
AcDbArc
 50
305.0000000000001
 51
359.9999999999997
  0
LINE
  5
97D
330
20
100
AcDbEntity
  8
0
  6
H3
100
AcDbLine
 10
212.2045836224316
 20
171.0008004551393
 30
0.0
 11
211.5162918988103
 21
171.9837829082861
 31
0.0
  0
LINE
  5
97E
330
20
100
AcDbEntity
  8
0
  6
H3
100
AcDbLine
 10
215.071615777443
 20
173.0083179823679
 30
0.0
 11
212.2045836224316
 21
171.0008004551393
 31
0.0
  0
LINE
  5
97F
330
20
100
AcDbEntity
  8
0
  6
H3
100
AcDbLine
 10
214.3833240538218
 20
173.9913004355147
 30
0.0
 11
211.5162918988103
 21
171.9837829082861
 31
0.0
  0
LINE
  5
980
330
20
100
AcDbEntity
  8
0
100
AcDbLine
 10
215.5833240538218
 20
173.9913004355147
 30
0.0
 11
214.3833240538218
 21
173.9913004355147
 31
0.0
  0
LINE
  5
981
330
20
100
AcDbEntity
  8
AT
100
AcDbLine
 10
198.5834669109645
 20
187.8913004355147
 30
0.0
 11
198.5834669109645
 21
205.3913004355147
 31
0.0
  0
LINE
  5
982
330
20
100
AcDbEntity
  8
0
100
AcDbLine
 10
198.5834669109645
 20
176.8913004355148
 30
0.0
 11
198.5834669109645
 21
199.6413004355146
 31
0.0
  0
LINE
  5
983
330
20
100
AcDbEntity
  8
0
100
AcDbLine
 10
193.8090371697791
 20
193.3913004355146
 30
0.0
 11
203.4670474940241
 21
193.3913004355146
 31
0.0
  0
LINE
  5
984
330
20
100
AcDbEntity
  8
0
100
AcDbLine
 10
222.5833240538218
 20
177.3913004355146
 30
0.0
 11
222.5833240538218
 21
179.3913004355147
 31
0.0
  0
LINE
  5
985
330
20
100
AcDbEntity
  8
0
100
AcDbLine
 10
214.3833240538217
 20
174.3913004355146
 30
0.0
 11
214.3833240538217
 21
175.3913004355147
 31
0.0
  0
LINE
  5
986
330
20
100
AcDbEntity
  8
0
100
AcDbLine
 10
215.5833240538218
 20
175.3913004355147
 30
0.0
 11
220.5833240538218
 21
175.3913004355147
 31
0.0
  0
LINE
  5
987
330
20
100
AcDbEntity
  8
0
100
AcDbLine
 10
215.5833240538218
 20
181.3913004355146
 30
0.0
 11
220.5833240538218
 21
181.3913004355146
 31
0.0
  0
LINE
  5
988
330
20
100
AcDbEntity
  8
0
100
AcDbLine
 10
214.3833240538218
 20
181.3913004355146
 30
0.0
 11
214.3833240538218
 21
182.3913004355146
 31
0.0
  0
ARC
  5
989
330
20
100
AcDbEntity
  8
0
100
AcDbCircle
 10
220.5833240538218
 20
177.3913004355146
 30
0.0
 40
2.0
100
AcDbArc
 50
270.0
 51
0.0
  0
ARC
  5
98A
330
20
100
AcDbEntity
  8
0
100
AcDbCircle
 10
220.5833240538218
 20
179.3913004355147
 30
0.0
 40
2.0
100
AcDbArc
 50
0.0
 51
90.0
  0
LINE
  5
98B
330
20
100
AcDbEntity
  8
0
100
AcDbLine
 10
215.5833240538218
 20
173.9913004355147
 30
0.0
 11
215.5833240538219
 21
199.9913004355147
 31
0.0
  0
LINE
  5
98C
330
20
100
AcDbEntity
  8
0
  6
H3
100
AcDbLine
 10
214.3833240538218
 20
173.9913004355147
 30
0.0
 11
214.3833240538218
 21
182.9913004355146
 31
0.0
  0
LINE
  5
98D
330
20
100
AcDbEntity
  8
0
100
AcDbLine
 10
214.3833240538218
 20
194.9913004355147
 30
0.0
 11
215.5833240538219
 21
194.9913004355147
 31
0.0
  0
LINE
  5
98E
330
20
100
AcDbEntity
  8
0
100
AcDbLine
 10
214.3833240538219
 20
199.9913004355147
 30
0.0
 11
215.5833240538219
 21
199.9913004355147
 31
0.0
  0
ARC
  5
98F
330
20
100
AcDbEntity
  8
0
  6
H3
100
AcDbCircle
 10
210.5833240538219
 20
187.9913004355147
 30
0.0
 40
5.0
100
AcDbArc
 50
89.99999999999984
 51
269.9999999999998
  0
LINE
  5
990
330
20
100
AcDbEntity
  8
0
  6
H3
100
AcDbLine
 10
210.5833240538219
 20
192.9913004355148
 30
0.0
 11
215.5833240538219
 21
192.9913004355148
 31
0.0
  0
LINE
  5
991
330
20
100
AcDbEntity
  8
0
  6
H3
100
AcDbLine
 10
210.5833240538218
 20
182.9913004355146
 30
0.0
 11
215.5833240538219
 21
182.9913004355146
 31
0.0
  0
LINE
  5
992
330
20
100
AcDbEntity
  8
0
  6
H3
100
AcDbLine
 10
214.3833240538218
 20
180.9913004355146
 30
0.0
 11
215.5833240538219
 21
180.9913004355146
 31
0.0
  0
LINE
  5
993
330
20
100
AcDbEntity
  8
0
100
AcDbLine
 10
216.5833240538219
 20
187.9913004355147
 30
0.0
 11
204.5833240538219
 21
187.9913004355147
 31
0.0
  0
LINE
  5
994
330
20
100
AcDbEntity
  8
0
100
AcDbLine
 10
210.5833240538219
 20
193.9913004355147
 30
0.0
 11
210.5833240538219
 21
181.9913004355147
 31
0.0
  0
LINE
  5
995
330
20
100
AcDbEntity
  8
0
100
AcDbLine
 10
216.5833240538219
 20
187.9913004355147
 30
0.0
 11
204.5833240538219
 21
187.9913004355147
 31
0.0
  0
LINE
  5
996
330
20
100
AcDbEntity
  8
0
100
AcDbLine
 10
210.5833240538219
 20
193.9913004355147
 30
0.0
 11
210.5833240538219
 21
181.9913004355147
 31
0.0
  0
LINE
  5
997
330
20
100
AcDbEntity
  8
0
  6
H3
100
AcDbLine
 10
214.3833240538218
 20
182.9913004355146
 30
0.0
 11
214.3833240538219
 21
192.9913004355148
 31
0.0
  0
LINE
  5
998
330
20
100
AcDbEntity
  8
0
  6
H3
100
AcDbLine
 10
214.3833240538219
 20
192.9913004355148
 30
0.0
 11
214.3833240538219
 21
199.9913004355147
 31
0.0
  0
LINE
  5
999
330
20
100
AcDbEntity
  8
0
  6
H3
100
AcDbLine
 10
197.8334669109645
 20
179.3913004355148
 30
0.0
 11
206.3334669109645
 21
179.3913004355148
 31
0.0
  0
LINE
  5
99A
330
20
100
AcDbEntity
  8
0
  6
H3
100
AcDbLine
 10
199.3334669109645
 20
196.3913004355146
 30
0.0
 11
192.0263240538218
 21
196.3913004355146
 31
0.0
  0
LINE
  5
99B
330
20
100
AcDbEntity
  8
0
100
AcDbLine
 10
197.8334669109645
 20
180.8913004355148
 30
0.0
 11
199.3334669109644
 21
180.8913004355148
 31
0.0
  0
LINE
  5
99C
330
20
100
AcDbEntity
  8
0
100
AcDbLine
 10
199.3334669109644
 20
180.8913004355148
 30
0.0
 11
199.3334669109645
 21
190.5913004355148
 31
0.0
  0
LINE
  5
99D
330
20
100
AcDbEntity
  8
0
  6
H3
100
AcDbLine
 10
191.0263240538218
 20
195.3913004355147
 30
0.0
 11
191.0263240538218
 21
191.9913004355146
 31
0.0
  0
LINE
  5
99E
330
20
100
AcDbEntity
  8
0
  6
H3
100
AcDbLine
 10
192.0263240538218
 20
190.9913004355146
 30
0.0
 11
197.8334669109645
 21
190.9913004355146
 31
0.0
  0
LINE
  5
99F
330
20
100
AcDbEntity
  8
0
  6
H3
100
AcDbLine
 10
197.8334669109645
 20
179.3913004355148
 30
0.0
 11
197.8334669109645
 21
180.8913004355146
 31
0.0
  0
ARC
  5
9A0
330
20
100
AcDbEntity
  8
0
  6
H3
100
AcDbCircle
 10
192.0263240538218
 20
195.3913004355147
 30
0.0
 40
1.0
100
AcDbArc
 50
90.0
 51
180.0
  0
ARC
  5
9A1
330
20
100
AcDbEntity
  8
0
  6
H3
100
AcDbCircle
 10
199.3334669109645
 20
180.8913004355148
 30
0.0
 40
1.5
100
AcDbArc
 50
180.0
 51
270.0
  0
LINE
  5
9A2
330
20
100
AcDbEntity
  8
0
100
AcDbLine
 10
197.8334669109645
 20
186.8913004355146
 30
0.0
 11
199.3334669109644
 21
186.8913004355146
 31
0.0
  0
LINE
  5
9A3
330
20
100
AcDbEntity
  8
0
  6
H3
100
AcDbLine
 10
206.3334669109645
 20
180.8913004355148
 30
0.0
 11
206.3334669109645
 21
179.3913004355148
 31
0.0
  0
LINE
  5
9A4
330
20
100
AcDbEntity
  8
0
  6
H3
100
AcDbLine
 10
201.8334669109644
 20
180.8913004355148
 30
0.0
 11
201.8334669109644
 21
179.3913004355148
 31
0.0
  0
ARC
  5
9A5
330
20
100
AcDbEntity
  8
0
  6
H3
100
AcDbCircle
 10
192.0263240538218
 20
191.9913004355146
 30
0.0
 40
1.0
100
AcDbArc
 50
180.0000000000004
 51
270.0
  0
LINE
  5
9A6
330
20
100
AcDbEntity
  8
0
100
AcDbLine
 10
129.9929442083515
 20
64.81126559598097
 30
0.0
 11
129.9929442083514
 21
115.3106462436855
 31
0.0
  0
LINE
  5
9A7
330
20
100
AcDbEntity
  8
0
100
AcDbLine
 10
129.9929442083515
 20
147.6998728157671
 30
0.0
 11
129.9929442083515
 21
235.5234888638529
 31
0.0
  0
LINE
  5
9A8
330
20
100
AcDbEntity
  8
0
100
AcDbLine
 10
185.5833240538217
 20
158.7278345278784
 30
0.0
 11
185.5833240538217
 21
145.6524638901957
 31
0.0
  0
LINE
  5
9A9
330
20
100
AcDbEntity
  8
0
100
AcDbLine
 10
180.368233031338
 20
153.4913004355147
 30
0.0
 11
191.9824914927681
 21
153.4913004355147
 31
0.0
  0
LINE
  5
9AA
330
20
100
AcDbEntity
  8
0
100
AcDbLine
 10
120.6617292582333
 20
157.0913004355148
 30
0.0
 11
139.5108521996178
 21
157.0913004355147
 31
0.0
  0
LINE
  5
9AB
330
20
100
AcDbEntity
  8
AT
100
AcDbLine
 10
185.5833240538217
 20
233.1913004355147
 30
0.0
 11
185.5833240538217
 21
220.7913004355147
 31
0.0
  0
LINE
  5
9AC
330
20
100
AcDbEntity
  8
AT
100
AcDbLine
 10
216.7833240538219
 20
187.9913004355147
 30
0.0
 11
204.3833240538218
 21
187.9913004355147
 31
0.0
  0
LINE
  5
9AD
330
20
100
AcDbEntity
  8
AT
100
AcDbLine
 10
210.5833240538219
 20
194.1913004355147
 30
0.0
 11
210.5833240538219
 21
181.7913004355147
 31
0.0
  0
LINE
  5
9AE
330
20
100
AcDbEntity
  8
0
100
AcDbLine
 10
203.6833240538218
 20
161.9913004355147
 30
0.0
 11
193.4833240538217
 21
161.9913004355147
 31
0.0
  0
LINE
  5
9AF
330
20
100
AcDbEntity
  8
0
100
AcDbLine
 10
198.5833240538218
 20
167.0913004355147
 30
0.0
 11
198.5833240538218
 21
156.8913004355146
 31
0.0
  0
LINE
  5
9B0
330
20
100
AcDbEntity
  8
AT
100
AcDbLine
 10
185.5833240538217
 20
146.1802997077743
 30
0.0
 11
185.5833240538217
 21
160.7125678679816
 31
0.0
  0
LINE
  5
9B1
330
20
100
AcDbEntity
  8
AT
100
AcDbLine
 10
171.7760994180604
 20
153.4913004355147
 30
0.0
 11
192.4464650480472
 21
153.4913004355147
 31
0.0
  0
LINE
  5
9B3
330
20
100
AcDbEntity
  8
0
100
AcDbLine
 10
198.5833240538218
 20
168.9913004355147
 30
0.0
 11
198.5833240538218
 21
166.9913004355147
 31
0.0
  0
LINE
  5
9B4
330
20
100
AcDbEntity
  8
0
100
AcDbLine
 10
198.5833240538218
 20
170.7913004355146
 30
0.0
 11
198.5833240538218
 21
167.1913004355147
 31
0.0
  0
LINE
  5
9B5
330
20
100
AcDbEntity
  8
0
100
AcDbLine
 10
131.0929442083514
 20
173.8913004355146
 30
0.0
 11
131.0929442083514
 21
177.8913004355146
 31
0.0
  0
LINE
  5
9B6
330
20
100
AcDbEntity
  8
0
100
AcDbLine
 10
128.8929442083514
 20
173.8913004355146
 30
0.0
 11
131.0929442083514
 21
173.8913004355146
 31
0.0
  0
LINE
  5
9B7
330
20
100
AcDbEntity
  8
0
100
AcDbLine
 10
128.8929442083514
 20
177.8913004355146
 30
0.0
 11
128.8929442083514
 21
173.8913004355146
 31
0.0
  0
LINE
  5
9B8
330
20
100
AcDbEntity
  8
0
100
AcDbLine
 10
131.0929442083514
 20
177.8913004355146
 30
0.0
 11
128.8929442083514
 21
177.8913004355146
 31
0.0
  0
LINE
  5
9B9
330
20
100
AcDbEntity
  8
0
100
AcDbLine
 10
181.6833240538218
 20
204.9913004355147
 30
0.0
 11
183.2833240538218
 21
204.9913004355147
 31
0.0
  0
LINE
  5
9BA
330
20
100
AcDbEntity
  8
0
100
AcDbLine
 10
181.6833240538218
 20
209.9913004355147
 30
0.0
 11
183.2833240538218
 21
209.9913004355147
 31
0.0
  0
LINE
  5
9BB
330
20
100
AcDbEntity
  8
0
  6
H3
100
AcDbLine
 10
205.5834669109645
 20
193.3913004355146
 30
0.0
 11
191.5834669109645
 21
193.3913004355146
 31
0.0
  0
LINE
  5
9BC
330
20
100
AcDbEntity
  8
0
100
AcDbLine
 10
122.0929442083514
 20
186.4913004355147
 30
0.0
 11
121.9929442083514
 21
186.4913004355147
 31
0.0
  0
LINE
  5
9BD
330
20
100
AcDbEntity
  8
0
100
AcDbLine
 10
122.0929442083514
 20
197.4913004355147
 30
0.0
 11
121.9929442083514
 21
197.4913004355147
 31
0.0
  0
LINE
  5
9BE
330
20
100
AcDbEntity
  8
0
100
AcDbLine
 10
137.8929442083514
 20
204.9913004355147
 30
0.0
 11
137.9929442083515
 21
204.9913004355147
 31
0.0
  0
LINE
  5
9BF
330
20
100
AcDbEntity
  8
0
100
AcDbLine
 10
121.9929442083514
 20
204.9913004355147
 30
0.0
 11
122.0929442083514
 21
204.9913004355147
 31
0.0
  0
LINE
  5
9C0
330
20
100
AcDbEntity
  8
0
100
AcDbLine
 10
121.9929442083514
 20
209.9913004355147
 30
0.0
 11
126.2929442083514
 21
209.9913004355147
 31
0.0
  0
LINE
  5
9C1
330
20
100
AcDbEntity
  8
0
100
AcDbLine
 10
131.1929442083512
 20
206.9666122958121
 30
0.0
 11
131.1929442083512
 21
204.8538446792918
 31
0.0
  0
LINE
  5
9C2
330
20
100
AcDbEntity
  8
0
100
AcDbLine
 10
128.6929442083512
 20
206.890247201239
 30
0.0
 11
128.6929442083512
 21
205.1593050575839
 31
0.0
  0
LINE
  5
9C3
330
20
100
AcDbEntity
  8
0
100
AcDbLine
 10
125.2664527470958
 20
205.7913004355147
 30
0.0
 11
134.8443615882489
 21
205.7913004355147
 31
0.0
  0
LINE
  5
9C4
330
20
100
AcDbEntity
  8
0
100
AcDbLine
 10
127.3208713687399
 20
199.4913004355147
 30
0.0
 11
132.8026339992
 21
199.4913004355147
 31
0.0
  0
LINE
  5
9C5
330
20
100
AcDbEntity
  8
0
100
AcDbLine
 10
127.2592785301953
 20
196.9913004355147
 30
0.0
 11
132.7410411606555
 21
196.9913004355147
 31
0.0
  0
LINE
  5
9C6
330
20
100
AcDbEntity
  8
0
100
AcDbLine
 10
127.4440570458289
 20
194.4913004355147
 30
0.0
 11
132.8026339992
 21
194.4913004355147
 31
0.0
  0
LINE
  5
9C7
330
20
100
AcDbEntity
  8
0
100
AcDbLine
 10
127.1976856916509
 20
191.9913004355147
 30
0.0
 11
132.8026339992
 21
191.9913004355147
 31
0.0
  0
LINE
  5
9C8
330
20
100
AcDbEntity
  8
0
100
AcDbLine
 10
127.2592785301953
 20
189.4913004355147
 30
0.0
 11
132.7410411606555
 21
189.4913004355147
 31
0.0
  0
LINE
  5
9C9
330
20
100
AcDbEntity
  8
0
100
AcDbLine
 10
127.5672427229178
 20
186.9913004355147
 30
0.0
 11
132.433076967933
 21
186.9913004355147
 31
0.0
  0
LINE
  5
9CA
330
20
100
AcDbEntity
  8
0
100
AcDbLine
 10
127.4440570458289
 20
184.4913004355147
 30
0.0
 11
132.6178554835665
 21
184.4913004355147
 31
0.0
  0
LINE
  5
9CB
330
20
100
AcDbEntity
  8
0
100
AcDbLine
 10
181.6833240538218
 20
166.9913004355147
 30
0.0
 11
183.2833240538219
 21
166.9913004355147
 31
0.0
  0
LWPOLYLINE
  5
9CC
330
20
100
AcDbEntity
  8
0
100
AcDbPolyline
 90
        3
 70
     0
 43
0.0
 10
206.7635597996266
 20
143.8647451603491
 42
-0.4007758919461214
 10
209.8780297650833
 20
144.0314517403856
 42
0.2178873870290422
 10
211.7635597996266
 20
143.4896553552669
 42
-0.6829526288029703
  0
LINE
  5
9D1
330
20
100
AcDbEntity
  8
0
100
AcDbLine
 10
211.7635597996266
 20
161.9913004355147
 30
0.0
 11
211.7635597996266
 21
159.2413004355147
 31
0.0
  0
LINE
  5
9D2
330
20
100
AcDbEntity
  8
0
100
AcDbLine
 10
206.7635597996266
 20
161.9913004355147
 30
0.0
 11
206.7635597996266
 21
159.2413004355147
 31
0.0
  0
INSERT
  5
9D3
330
20
100
AcDbEntity
  8
0
100
AcDbBlockReference
  2
*X2
 10
327.4721083538933
 20
179.1856344808893
 30
0.0
  0
CIRCLE
  5
9D4
330
20
100
AcDbEntity
  8
0
100
AcDbCircle
 10
209.2635597996266
 20
161.9913004355147
 30
0.0
 40
2.5
  0
LINE
  5
9D5
330
20
100
AcDbEntity
  8
0
100
AcDbLine
 10
129.9929442083515
 20
69.26976947298553
 30
0.0
 11
129.9929442083515
 21
117.9493526198718
 31
0.0
  0
LINE
  5
9D6
330
20
100
AcDbEntity
  8
AT
100
AcDbLine
 10
198.5833240538218
 20
151.6671624535828
 30
0.0
 11
198.5833240538218
 21
183.8620569175114
 31
0.0
  0
LINE
  5
9D7
330
20
100
AcDbEntity
  8
0
100
AcDbLine
 10
121.9929442083514
 20
161.9913004355147
 30
0.0
 11
123.9929442083514
 21
161.9913004355147
 31
0.0
  0
LINE
  5
9D8
330
20
100
AcDbEntity
  8
0
  6
H4
100
AcDbLine
 10
121.4929442083514
 20
187.9913004355147
 30
0.0
 11
125.4929442083514
 21
187.9913004355147
 31
0.0
  0
LINE
  5
9D9
330
20
100
AcDbEntity
  8
0
  6
H4
100
AcDbLine
 10
125.4929442083514
 20
187.9913004355147
 30
0.0
 11
125.4929442083514
 21
195.9913004355147
 31
0.0
  0
LINE
  5
9DA
330
20
100
AcDbEntity
  8
0
  6
H4
100
AcDbLine
 10
121.4929442083514
 20
195.9913004355147
 30
0.0
 11
121.4929442083514
 21
187.9913004355147
 31
0.0
  0
LINE
  5
9DB
330
20
100
AcDbEntity
  8
0
100
AcDbLine
 10
124.5025039329896
 20
189.4913004355147
 30
0.0
 11
122.2032675794709
 21
189.4913004355147
 31
0.0
  0
LINE
  5
9DC
330
20
100
AcDbEntity
  8
0
100
AcDbLine
 10
124.6439954008984
 20
191.9913004355147
 30
0.0
 11
122.3093861804026
 21
191.9913004355147
 31
0.0
  0
LINE
  5
9DD
330
20
100
AcDbEntity
  8
0
100
AcDbLine
 10
124.6439954008984
 20
194.4913004355147
 30
0.0
 11
122.3093861804026
 21
194.4913004355147
 31
0.0
  0
CIRCLE
  5
9DE
330
20
100
AcDbEntity
  8
0
100
AcDbCircle
 10
123.4929442083514
 20
189.4913004355147
 30
0.0
 40
0.5
  0
CIRCLE
  5
9DF
330
20
100
AcDbEntity
  8
0
100
AcDbCircle
 10
123.4929442083514
 20
191.9913004355147
 30
0.0
 40
0.5
  0
CIRCLE
  5
9E0
330
20
100
AcDbEntity
  8
0
100
AcDbCircle
 10
123.4929442083514
 20
194.4913004355147
 30
0.0
 40
0.5
  0
LINE
  5
9E1
330
20
100
AcDbEntity
  8
0
  6
H4
100
AcDbLine
 10
124.2929442083514
 20
195.9913004355147
 30
0.0
 11
124.2929442083514
 21
200.4857414463632
 31
0.0
  0
LINE
  5
9E2
330
20
100
AcDbEntity
  8
0
  6
H4
100
AcDbLine
 10
124.2929442083514
 20
200.4857414463632
 30
0.0
 11
122.6929442083514
 21
200.4857414463632
 31
0.0
  0
LINE
  5
9E3
330
20
100
AcDbEntity
  8
0
  6
H4
100
AcDbLine
 10
122.6929442083514
 20
200.4857414463632
 30
0.0
 11
122.6929442083514
 21
195.9913004355147
 31
0.0
  0
LINE
  5
9E4
330
20
100
AcDbEntity
  8
0
  6
H4
100
AcDbLine
 10
125.4929442083514
 20
195.9913004355147
 30
0.0
 11
121.4929442083514
 21
195.9913004355147
 31
0.0
  0
LINE
  5
9E5
330
20
100
AcDbEntity
  8
0
  6
H4
100
AcDbLine
 10
127.9929442083515
 20
165.4913004355147
 30
0.0
 11
131.9929442083515
 21
165.4913004355147
 31
0.0
  0
LINE
  5
9E6
330
20
100
AcDbEntity
  8
0
  6
H4
100
AcDbLine
 10
130.7929442083515
 20
160.9968594246662
 30
0.0
 11
130.7929442083515
 21
165.4913004355147
 31
0.0
  0
LINE
  5
9E7
330
20
100
AcDbEntity
  8
0
  6
H4
100
AcDbLine
 10
129.1929442083514
 20
160.9968594246662
 30
0.0
 11
130.7929442083515
 21
160.9968594246662
 31
0.0
  0
LINE
  5
9E8
330
20
100
AcDbEntity
  8
0
  6
H4
100
AcDbLine
 10
129.1929442083514
 20
165.4913004355147
 30
0.0
 11
129.1929442083514
 21
160.9968594246662
 31
0.0
  0
CIRCLE
  5
9E9
330
20
100
AcDbEntity
  8
0
100
AcDbCircle
 10
129.9929442083515
 20
166.9913004355147
 30
0.0
 40
0.5
  0
CIRCLE
  5
9EA
330
20
100
AcDbEntity
  8
0
100
AcDbCircle
 10
129.9929442083515
 20
169.4913004355147
 30
0.0
 40
0.5
  0
CIRCLE
  5
9EB
330
20
100
AcDbEntity
  8
0
100
AcDbCircle
 10
129.9929442083515
 20
171.9913004355147
 30
0.0
 40
0.5
  0
LINE
  5
9EC
330
20
100
AcDbEntity
  8
0
100
AcDbLine
 10
128.8418930158044
 20
169.4913004355147
 30
0.0
 11
131.1765022363002
 21
169.4913004355147
 31
0.0
  0
LINE
  5
9ED
330
20
100
AcDbEntity
  8
0
100
AcDbLine
 10
128.9833844837133
 20
171.9913004355147
 30
0.0
 11
131.2826208372319
 21
171.9913004355147
 31
0.0
  0
LINE
  5
9EE
330
20
100
AcDbEntity
  8
0
  6
H4
100
AcDbLine
 10
131.9929442083515
 20
165.4913004355147
 30
0.0
 11
131.9929442083515
 21
173.4913004355147
 31
0.0
  0
LINE
  5
9EF
330
20
100
AcDbEntity
  8
0
  6
H4
100
AcDbLine
 10
127.9929442083515
 20
173.4913004355147
 30
0.0
 11
127.9929442083515
 21
165.4913004355147
 31
0.0
  0
LINE
  5
9F0
330
20
100
AcDbEntity
  8
0
  6
H4
100
AcDbLine
 10
131.9929442083515
 20
173.4913004355147
 30
0.0
 11
127.9929442083515
 21
173.4913004355147
 31
0.0
  0
LINE
  5
9F1
330
20
100
AcDbEntity
  8
0
100
AcDbLine
 10
187.8633272324717
 20
195.2906385483333
 30
0.0
 11
189.130146469078
 21
197.4913004355147
 31
0.0
  0
LINE
  5
9F2
330
20
100
AcDbEntity
  8
0
100
AcDbLine
 10
188.8426204860669
 20
194.605234654427
 30
0.0
 11
190.3333240538218
 21
196.3787014151321
 31
0.0
  0
CIRCLE
  5
9F3
330
20
100
AcDbEntity
  8
0
100
AcDbCircle
 10
188.3833240538219
 20
194.9913004355147
 30
0.0
 40
0.6
  0
CIRCLE
  5
9F4
330
20
100
AcDbEntity
  8
0
100
AcDbCircle
 10
187.7833240538219
 20
189.4913004355147
 30
0.0
 40
1.0
  0
CIRCLE
  5
9F5
330
20
100
AcDbEntity
  8
0
100
AcDbCircle
 10
183.9833240538219
 20
194.9913004355147
 30
0.0
 40
0.75
  0
LINE
  5
9F6
330
20
100
AcDbEntity
  8
0
100
AcDbLine
 10
185.347144740914
 20
194.9913004355147
 30
0.0
 11
182.669503334823
 21
194.9913004355147
 31
0.0
  0
LINE
  5
9F7
330
20
100
AcDbEntity
  8
0
100
AcDbLine
 10
187.7833240538219
 20
187.6508311655996
 30
0.0
 11
187.7833240538219
 21
190.9804246502629
 31
0.0
  0
LINE
  5
9F8
330
20
100
AcDbEntity
  8
0
100
AcDbLine
 10
186.3350124441321
 20
189.4913004355147
 30
0.0
 11
189.6625668128665
 21
189.4913004355147
 31
0.0
  0
LINE
  5
9F9
330
20
100
AcDbEntity
  8
0
100
AcDbLine
 10
189.2833240538218
 20
195.9913004355147
 30
0.0
 11
183.2833240538219
 21
195.9913004355147
 31
0.0
  0
LINE
  5
9FA
330
20
100
AcDbEntity
  8
0
100
AcDbLine
 10
189.2833240538218
 20
187.9913004355147
 30
0.0
 11
189.2833240538218
 21
195.9913004355147
 31
0.0
  0
LINE
  5
9FB
330
20
100
AcDbEntity
  8
0
100
AcDbLine
 10
183.2833240538219
 20
187.9913004355147
 30
0.0
 11
189.2833240538218
 21
187.9913004355147
 31
0.0
  0
LINE
  5
9FC
330
20
100
AcDbEntity
  8
0
100
AcDbLine
 10
183.9833240538219
 20
194.4913004355147
 30
0.0
 11
179.0833240538219
 21
194.4913004355147
 31
0.0
  0
LINE
  5
9FD
330
20
100
AcDbEntity
  8
0
100
AcDbLine
 10
183.9833240538219
 20
189.4913004355147
 30
0.0
 11
179.0833240538219
 21
189.4913004355147
 31
0.0
  0
LINE
  5
9FE
330
20
100
AcDbEntity
  8
0
100
AcDbLine
 10
180.3333240538218
 20
194.8913004355146
 30
0.0
 11
183.2833240538219
 21
194.8913004355146
 31
0.0
  0
LINE
  5
9FF
330
20
100
AcDbEntity
  8
0
100
AcDbLine
 10
183.2833240538219
 20
194.0913004355147
 30
0.0
 11
180.3333240538217
 21
194.0913004355147
 31
0.0
  0
LINE
  5
A00
330
20
100
AcDbEntity
  8
0
100
AcDbLine
 10
180.3333240538217
 20
192.3913004355146
 30
0.0
 11
183.2833240538219
 21
192.3913004355146
 31
0.0
  0
LINE
  5
A01
330
20
100
AcDbEntity
  8
0
100
AcDbLine
 10
183.2833240538219
 20
191.5913004355147
 30
0.0
 11
180.3333240538217
 21
191.5913004355147
 31
0.0
  0
LINE
  5
A02
330
20
100
AcDbEntity
  8
0
100
AcDbLine
 10
180.3333240538217
 20
189.8913004355146
 30
0.0
 11
183.2833240538219
 21
189.8913004355146
 31
0.0
  0
LINE
  5
A03
330
20
100
AcDbEntity
  8
0
100
AcDbLine
 10
183.2833240538219
 20
189.0913004355146
 30
0.0
 11
180.3333240538217
 21
189.0913004355146
 31
0.0
  0
LINE
  5
A04
330
20
100
AcDbEntity
  8
0
100
AcDbLine
 10
183.2833240538219
 20
197.4913004355147
 30
0.0
 11
183.2833240538219
 21
186.4913004355147
 31
0.0
  0
LINE
  5
A05
330
20
100
AcDbEntity
  8
0
100
AcDbLine
 10
188.458461321081
 20
197.4913004355147
 30
0.0
 11
187.8054311557517
 21
195.1526689527665
 31
0.0
  0
LINE
  5
A06
330
20
100
AcDbEntity
  8
0
100
AcDbLine
 10
190.1843975670647
 20
197.347316429954
 30
0.0
 11
188.9238628662889
 21
194.7308819411317
 31
0.0
  0
LINE
  5
A07
330
20
100
AcDbEntity
  8
0
100
AcDbLine
 10
123.4929442083514
 20
186.4578227498158
 30
0.0
 11
123.4929442083514
 21
198.7169638050922
 31
0.0
  0
LINE
  5
A08
330
20
100
AcDbEntity
  8
0
100
AcDbLine
 10
137.8929442083514
 20
204.9913004355147
 30
0.0
 11
137.8929442083514
 21
166.9913004355147
 31
0.0
  0
LINE
  5
A09
330
20
100
AcDbEntity
  8
AT
100
AcDbLine
 10
129.9929442083514
 20
238.3084184408968
 30
0.0
 11
129.9929442083514
 21
141.7355156969961
 31
0.0
  0
LINE
  5
A0A
330
20
100
AcDbEntity
  8
0
100
AcDbLine
 10
139.5929442083514
 20
236.9913004355147
 30
0.0
 11
137.9929442083515
 21
236.9913004355147
 31
0.0
  0
LINE
  5
A0C
330
20
100
AcDbEntity
  8
0
100
AcDbLine
 10
137.9929442083515
 20
236.9913004355147
 30
0.0
 11
137.9929442083514
 21
146.9913004355147
 31
0.0
  0
LINE
  5
A0D
330
20
100
AcDbEntity
  8
0
100
AcDbLine
 10
121.9929442083514
 20
236.9913004355147
 30
0.0
 11
121.9929442083514
 21
146.9913004355147
 31
0.0
  0
LINE
  5
A0E
330
20
100
AcDbEntity
  8
0
100
AcDbLine
 10
139.5929442083514
 20
236.9913004355147
 30
0.0
 11
139.5929442083513
 21
146.9913004355147
 31
0.0
  0
LINE
  5
A0F
330
20
100
AcDbEntity
  8
0
100
AcDbLine
 10
120.3929442083514
 20
236.9913004355147
 30
0.0
 11
120.3929442083514
 21
146.9913004355147
 31
0.0
  0
LINE
  5
A11
330
20
100
AcDbEntity
  8
0
100
AcDbLine
 10
121.9929442083514
 20
236.9913004355147
 30
0.0
 11
120.3929442083514
 21
236.9913004355147
 31
0.0
  0
LINE
  5
A12
330
20
100
AcDbEntity
  8
AT
100
AcDbLine
 10
179.565101396324
 20
161.9913004355147
 30
0.0
 11
217.8580106099619
 21
161.9913004355147
 31
0.0
  0
ARC
  5
A13
330
20
100
AcDbEntity
  8
0
  6
H3
100
AcDbCircle
 10
205.3834669109645
 20
231.6913004355147
 30
0.0
 40
1.199999999999999
100
AcDbArc
 50
0.0
 51
90.0
  0
ARC
  5
A14
330
20
100
AcDbEntity
  8
0
  6
H3
100
AcDbCircle
 10
191.7834669109645
 20
231.6913004355147
 30
0.0
 40
1.199999999999999
100
AcDbArc
 50
90.0
 51
180.0
  0
LINE
  5
A15
330
20
100
AcDbEntity
  8
0
  6
H3
100
AcDbLine
 10
191.7834669109645
 20
204.0913004355147
 30
0.0
 11
205.3834669109645
 21
204.0913004355147
 31
0.0
  0
LINE
  5
A16
330
20
100
AcDbEntity
  8
0
  6
H3
100
AcDbLine
 10
205.3834669109645
 20
202.8913004355147
 30
0.0
 11
205.3834669109645
 21
231.6913004355147
 31
0.0
  0
LINE
  5
A17
330
20
100
AcDbEntity
  8
0
  6
H3
100
AcDbLine
 10
205.3834669109645
 20
231.6913004355147
 30
0.0
 11
191.7834669109645
 21
231.6913004355147
 31
0.0
  0
LINE
  5
A18
330
20
100
AcDbEntity
  8
0
  6
H3
100
AcDbLine
 10
191.7834669109645
 20
231.6913004355147
 30
0.0
 11
191.7834669109645
 21
202.8913004355147
 31
0.0
  0
LINE
  5
A19
330
20
100
AcDbEntity
  8
0
  6
H3
100
AcDbLine
 10
190.5834669109645
 20
202.8913004355147
 30
0.0
 11
206.5834669109645
 21
202.8913004355147
 31
0.0
  0
LINE
  5
A1A
330
20
100
AcDbEntity
  8
0
  6
H3
100
AcDbLine
 10
205.3834669109645
 20
232.8913004355147
 30
0.0
 11
191.7834669109645
 21
232.8913004355147
 31
0.0
  0
LINE
  5
A1B
330
20
100
AcDbEntity
  8
0
  6
H3
100
AcDbLine
 10
206.5834669109645
 20
202.8913004355147
 30
0.0
 11
206.5834669109646
 21
231.6913004355147
 31
0.0
  0
LINE
  5
A1C
330
20
100
AcDbEntity
  8
0
  6
H3
100
AcDbLine
 10
197.5834669109645
 20
190.3913004355148
 30
0.0
 11
195.0834669109645
 21
190.3913004355146
 31
0.0
  0
LINE
  5
A1D
330
20
100
AcDbEntity
  8
0
  6
H3
100
AcDbLine
 10
202.0834669109645
 20
190.3913004355146
 30
0.0
 11
199.5834669109645
 21
190.3913004355148
 31
0.0
  0
LINE
  5
A1E
330
20
100
AcDbEntity
  8
0
  6
H3
100
AcDbLine
 10
197.5834669109645
 20
199.3913004355146
 30
0.0
 11
197.5834669109645
 21
190.3913004355148
 31
0.0
  0
LINE
  5
A1F
330
20
100
AcDbEntity
  8
0
  6
H3
100
AcDbLine
 10
199.5834669109645
 20
199.3913004355146
 30
0.0
 11
197.5834669109645
 21
199.3913004355146
 31
0.0
  0
LINE
  5
A20
330
20
100
AcDbEntity
  8
0
  6
H3
100
AcDbLine
 10
199.5834669109645
 20
190.3913004355148
 30
0.0
 11
199.5834669109645
 21
199.3913004355146
 31
0.0
  0
LINE
  5
A21
330
20
100
AcDbEntity
  8
0
  6
H3
100
AcDbLine
 10
195.0834669109645
 20
190.3913004355146
 30
0.0
 11
195.0834669109645
 21
202.8913004355147
 31
0.0
  0
LINE
  5
A22
330
20
100
AcDbEntity
  8
0
  6
H3
100
AcDbLine
 10
202.0834669109645
 20
202.8913004355147
 30
0.0
 11
202.0834669109645
 21
190.3913004355146
 31
0.0
  0
INSERT
  5
A3D
330
20
100
AcDbEntity
  8
4
100
AcDbBlockReference
  2
SUG-AR06
 10
384.2
 20
267.2000000000001
 30
0.0
  0
ENDSEC
  0
SECTION
  2
OBJECTS
  0
DICTIONARY
  5
C
330
0
100
AcDbDictionary
281
     1
  3
ACAD_COLOR
350
1B
  3
ACAD_GROUP
350
D
  3
ACAD_LAYOUT
350
19
  3
ACAD_MATERIAL
350
1A
  3
ACAD_MLINESTYLE
350
16
  3
ACAD_PLOTSETTINGS
350
18
  3
ACAD_PLOTSTYLENAME
350
E
  3
ACDBHEADERROUNDTRIPXREC
350
A78
  3
AcDbVariableDictionary
350
A63
  0
DICTIONARY
  5
1B
102
{ACAD_REACTORS
330
C
102
}
330
C
100
AcDbDictionary
281
     1
  0
DICTIONARY
  5
D
102
{ACAD_REACTORS
330
C
102
}
330
C
100
AcDbDictionary
281
     1
  0
DICTIONARY
  5
19
102
{ACAD_REACTORS
330
C
102
}
330
C
100
AcDbDictionary
281
     1
  3
Model
350
23
  3
CAEg1
350
1F
  0
DICTIONARY
  5
1A
102
{ACAD_REACTORS
330
C
102
}
330
C
100
AcDbDictionary
281
     1
  0
DICTIONARY
  5
16
102
{ACAD_REACTORS
330
C
102
}
330
C
100
AcDbDictionary
281
     1
  3
Standard
350
17
  0
DICTIONARY
  5
18
102
{ACAD_REACTORS
330
C
102
}
330
C
100
AcDbDictionary
281
     1
  0
ACDBDICTIONARYWDFLT
  5
E
102
{ACAD_REACTORS
330
C
102
}
330
C
100
AcDbDictionary
281
     1
  3
Normal
350
F
100
AcDbDictionaryWithDefault
340
F
  0
DICTIONARY
  5
A78
102
{ACAD_REACTORS
330
C
102
}
330
C
100
AcDbDictionary
281
     1
  3
COLORDICT
350
A7A
  3
MATERIALDICT
350
A79
  0
DICTIONARY
  5
A63
102
{ACAD_REACTORS
330
C
102
}
330
C
100
AcDbDictionary
281
     1
  3
DIMASSOC
350
A65
  3
HIDETEXT
350
A64
  3
PROJECTNAME
350
A66
  0
LAYOUT
  5
23
102
{ACAD_XDICTIONARY
360
A7D
102
}
102
{ACAD_REACTORS
330
19
102
}
330
19
100
AcDbPlotSettings
  1

  2
Adobe PDF
  4
A4
  6
VIEW1
 40
3.174999952316283
 41
3.174999952316283
 42
3.175003051757812
 43
3.17498779296875
 44
209.9098358154297
 45
297.0318298339844
 46
0.0
 47
0.0
 48
-0.0738662110204587
 49
-0.0052279556077792
140
384.3552179483247
141
270.2477558703376
142
1.0
143
1.327634141242373
 70
 11952
 72
     1
 73
     1
 74
     4
  7

 75
     0
147
0.7532195572073939
148
0.0738662110204587
149
0.0052279556077792
100
AcDbLayout
  1
Model
 70
     1
 71
     0
 10
0.0
 20
0.0
 11
12.0
 21
9.0
 12
0.0
 22
0.0
 32
0.0
 14
0.0
 24
0.0
 34
0.0
 15
0.0
 25
0.0
 35
0.0
146
0.0
 13
0.0
 23
0.0
 33
0.0
 16
1.0
 26
0.0
 36
0.0
 17
0.0
 27
1.0
 37
0.0
 76
     0
330
20
  0
LAYOUT
  5
1F
102
{ACAD_XDICTIONARY
360
A7B
102
}
102
{ACAD_REACTORS
330
19
102
}
330
19
100
AcDbPlotSettings
  1

  2
Canon iR C3220 LIPS
  4

  6

 40
0.0
 41
0.0
 42
0.0
 43
0.0
 44
0.0
 45
0.0
 46
0.0
 47
0.0
 48
0.0
 49
0.0
140
0.0
141
0.0
142
1.0
143
1.0
 70
   688
 72
     0
 73
     0
 74
     5
  7

 75
    16
147
1.0
148
0.0
149
0.0
100
AcDbLayout
  1
CAEg1
 70
     0
 71
     1
 10
0.0
 20
0.0
 11
12.0
 21
9.0
 12
0.0
 22
0.0
 32
0.0
 14
1.000000000000000E+20
 24
1.000000000000000E+20
 34
1.000000000000000E+20
 15
-1.000000000000000E+20
 25
-1.000000000000000E+20
 35
-1.000000000000000E+20
146
0.0
 13
0.0
 23
0.0
 33
0.0
 16
1.0
 26
0.0
 36
0.0
 17
0.0
 27
1.0
 37
0.0
 76
     0
330
1C
  0
MLINESTYLE
  5
17
102
{ACAD_REACTORS
330
16
102
}
330
16
100
AcDbMlineStyle
  2
STANDARD
 70
     0
  3

 62
   256
 51
90.0
 52
90.0
 71
     2
 49
0.5
 62
   256
  6
BYLAYER
 49
-0.5
 62
   256
  6
BYLAYER
  0
ACDBPLACEHOLDER
  5
F
102
{ACAD_REACTORS
330
E
102
}
330
E
  0
XRECORD
  5
A7A
102
{ACAD_REACTORS
330
A78
102
}
330
A78
100
AcDbXrecord
280
     1
340
1B
  0
XRECORD
  5
A79
102
{ACAD_REACTORS
330
A78
102
}
330
A78
100
AcDbXrecord
280
     1
340
1A
  0
DICTIONARYVAR
  5
A65
102
{ACAD_REACTORS
330
A63
102
}
330
A63
100
DictionaryVariables
280
     0
  1
2
  0
DICTIONARYVAR
  5
A64
102
{ACAD_REACTORS
330
A63
102
}
330
A63
100
DictionaryVariables
280
     0
  1
1
  0
DICTIONARYVAR
  5
A66
102
{ACAD_REACTORS
330
A63
102
}
330
A63
100
DictionaryVariables
280
     0
  1

  0
DICTIONARY
  5
A7D
330
23
100
AcDbDictionary
280
     1
281
     1
  3
ACAD_XREC_ROUNDTRIP
360
A7E
  0
DICTIONARY
  5
A7B
330
1F
100
AcDbDictionary
280
     1
281
     1
  3
ACAD_XREC_ROUNDTRIP
360
A7C
  0
XRECORD
  5
A7E
102
{ACAD_REACTORS
330
A7D
102
}
330
A7D
100
AcDbXrecord
280
     1
102
SHADEPLOT
 70
     0
102
SHADEPLOTRESLEVEL
 70
     2
102
SHADEPLOTCUSTOMDPI
 70
   300
  0
XRECORD
  5
A7C
102
{ACAD_REACTORS
330
A7B
102
}
330
A7B
100
AcDbXrecord
280
     1
102
SHADEPLOT
 70
     0
102
SHADEPLOTRESLEVEL
 70
     2
102
SHADEPLOTCUSTOMDPI
 70
   300
  0
ENDSEC
  0
EOF
