  0
SECTION
  2
HEADER
  9
$ACADVER
  1
AC1015
  9
$ACADMAINTVER
 70
    20
  9
$DWGCODEPAGE
  3
ANSI_932
  9
$INSBASE
 10
0.0
 20
0.0
 30
0.0
  9
$EXTMIN
 10
-16.16275866951969
 20
-13.87335872028507
 30
0.0
  9
$EXTMAX
 10
397.5874936504321
 20
284.6457413789151
 30
0.0
  9
$LIMMIN
 10
0.0
 20
0.0
  9
$LIMMAX
 10
12.0
 20
9.0
  9
$ORTHOMODE
 70
     0
  9
$REGENMODE
 70
     1
  9
$FILLMODE
 70
     1
  9
$QTEXTMODE
 70
     0
  9
$MIRRTEXT
 70
     1
  9
$LTSCALE
 40
1.0
  9
$ATTMODE
 70
     1
  9
$TEXTSIZE
 40
4.400000000000001
  9
$TRACEWID
 40
0.05
  9
$TEXTSTYLE
  7
SIMPLEX
  9
$CLAYER
  8
4
  9
$CELTYPE
  6
ByLayer
  9
$CECOLOR
 62
   256
  9
$CELTSCALE
 40
1.0
  9
$DISPSILH
 70
     0
  9
$DIMSCALE
 40
1.0
  9
$DIMASZ
 40
0.18
  9
$DIMEXO
 40
0.0625
  9
$DIMDLI
 40
0.3799999999999999
  9
$DIMRND
 40
0.0
  9
$DIMDLE
 40
0.0
  9
$DIMEXE
 40
0.18
  9
$DIMTP
 40
0.0
  9
$DIMTM
 40
0.0
  9
$DIMTXT
 40
0.18
  9
$DIMCEN
 40
0.09
  9
$DIMTSZ
 40
0.0
  9
$DIMTOL
 70
     0
  9
$DIMLIM
 70
     0
  9
$DIMTIH
 70
     1
  9
$DIMTOH
 70
     1
  9
$DIMSE1
 70
     0
  9
$DIMSE2
 70
     0
  9
$DIMTAD
 70
     0
  9
$DIMZIN
 70
     0
  9
$DIMBLK
  1

  9
$DIMASO
 70
     1
  9
$DIMSHO
 70
     0
  9
$DIMPOST
  1

  9
$DIMAPOST
  1

  9
$DIMALT
 70
     0
  9
$DIMALTD
 70
     2
  9
$DIMALTF
 40
25.4
  9
$DIMLFAC
 40
1.0
  9
$DIMTOFL
 70
     0
  9
$DIMTVP
 40
0.0
  9
$DIMTIX
 70
     0
  9
$DIMSOXD
 70
     0
  9
$DIMSAH
 70
     0
  9
$DIMBLK1
  1

  9
$DIMBLK2
  1

  9
$DIMSTYLE
  2
Standard
  9
$DIMCLRD
 70
     0
  9
$DIMCLRE
 70
     0
  9
$DIMCLRT
 70
     0
  9
$DIMTFAC
 40
1.0
  9
$DIMGAP
 40
0.09
  9
$DIMJUST
 70
     0
  9
$DIMSD1
 70
     0
  9
$DIMSD2
 70
     0
  9
$DIMTOLJ
 70
     1
  9
$DIMTZIN
 70
     0
  9
$DIMALTZ
 70
     0
  9
$DIMALTTZ
 70
     0
  9
$DIMUPT
 70
     0
  9
$DIMDEC
 70
     3
  9
$DIMTDEC
 70
     3
  9
$DIMALTU
 70
     2
  9
$DIMALTTD
 70
     2
  9
$DIMTXSTY
  7
STANDARD
  9
$DIMAUNIT
 70
     0
  9
$DIMADEC
 70
     0
  9
$DIMALTRND
 40
0.0
  9
$DIMAZIN
 70
     0
  9
$DIMDSEP
 70
    46
  9
$DIMATFIT
 70
     3
  9
$DIMFRAC
 70
     0
  9
$DIMLDRBLK
  1

  9
$DIMLUNIT
 70
     2
  9
$DIMLWD
 70
    -2
  9
$DIMLWE
 70
    -2
  9
$DIMTMOVE
 70
     2
  9
$LUNITS
 70
     2
  9
$LUPREC
 70
     3
  9
$SKETCHINC
 40
0.1
  9
$FILLETRAD
 40
0.0
  9
$AUNITS
 70
     0
  9
$AUPREC
 70
     0
  9
$MENU
  1
Z:SANPOU-1
  9
$ELEVATION
 40
0.0
  9
$PELEVATION
 40
0.0
  9
$THICKNESS
 40
0.0
  9
$LIMCHECK
 70
     0
  9
$CHAMFERA
 40
0.0
  9
$CHAMFERB
 40
0.0
  9
$CHAMFERC
 40
0.0
  9
$CHAMFERD
 40
0.0
  9
$SKPOLY
 70
     0
  9
$TDCREATE
 40
2450989.537002315
  9
$TDUCREATE
 40
2450989.162002315
  9
$TDUPDATE
 40
2455896.742527489
  9
$TDUUPDATE
 40
2455896.367527489
  9
$TDINDWG
 40
0.0352023727
  9
$TDUSRTIMER
 40
0.0352021875
  9
$USRTIMER
 70
     1
  9
$ANGBASE
 50
0.0
  9
$ANGDIR
 70
     0
  9
$PDMODE
 70
     0
  9
$PDSIZE
 40
0.0
  9
$PLINEWID
 40
0.0
  9
$SPLFRAME
 70
     0
  9
$SPLINETYPE
 70
     6
  9
$SPLINESEGS
 70
     8
  9
$HANDSEED
  5
A2F
  9
$SURFTAB1
 70
     6
  9
$SURFTAB2
 70
     6
  9
$SURFTYPE
 70
     6
  9
$SURFU
 70
     6
  9
$SURFV
 70
     6
  9
$UCSBASE
  2

  9
$UCSNAME
  2

  9
$UCSORG
 10
0.0
 20
0.0
 30
0.0
  9
$UCSXDIR
 10
1.0
 20
0.0
 30
0.0
  9
$UCSYDIR
 10
0.0
 20
1.0
 30
0.0
  9
$UCSORTHOREF
  2

  9
$UCSORTHOVIEW
 70
     0
  9
$UCSORGTOP
 10
0.0
 20
0.0
 30
0.0
  9
$UCSORGBOTTOM
 10
0.0
 20
0.0
 30
0.0
  9
$UCSORGLEFT
 10
0.0
 20
0.0
 30
0.0
  9
$UCSORGRIGHT
 10
0.0
 20
0.0
 30
0.0
  9
$UCSORGFRONT
 10
0.0
 20
0.0
 30
0.0
  9
$UCSORGBACK
 10
0.0
 20
0.0
 30
0.0
  9
$PUCSBASE
  2

  9
$PUCSNAME
  2

  9
$PUCSORG
 10
0.0
 20
0.0
 30
0.0
  9
$PUCSXDIR
 10
1.0
 20
0.0
 30
0.0
  9
$PUCSYDIR
 10
0.0
 20
1.0
 30
0.0
  9
$PUCSORTHOREF
  2

  9
$PUCSORTHOVIEW
 70
     0
  9
$PUCSORGTOP
 10
0.0
 20
0.0
 30
0.0
  9
$PUCSORGBOTTOM
 10
0.0
 20
0.0
 30
0.0
  9
$PUCSORGLEFT
 10
0.0
 20
0.0
 30
0.0
  9
$PUCSORGRIGHT
 10
0.0
 20
0.0
 30
0.0
  9
$PUCSORGFRONT
 10
0.0
 20
0.0
 30
0.0
  9
$PUCSORGBACK
 10
0.0
 20
0.0
 30
0.0
  9
$USERI1
 70
     0
  9
$USERI2
 70
     0
  9
$USERI3
 70
     0
  9
$USERI4
 70
     0
  9
$USERI5
 70
     0
  9
$USERR1
 40
0.0
  9
$USERR2
 40
0.0
  9
$USERR3
 40
0.0
  9
$USERR4
 40
0.0
  9
$USERR5
 40
0.0
  9
$WORLDVIEW
 70
     1
  9
$SHADEDGE
 70
     3
  9
$SHADEDIF
 70
    70
  9
$TILEMODE
 70
     1
  9
$MAXACTVP
 70
    16
  9
$PINSBASE
 10
0.0
 20
0.0
 30
0.0
  9
$PLIMCHECK
 70
     0
  9
$PEXTMIN
 10
1.000000000000000E+20
 20
1.000000000000000E+20
 30
1.000000000000000E+20
  9
$PEXTMAX
 10
-1.000000000000000E+20
 20
-1.000000000000000E+20
 30
-1.000000000000000E+20
  9
$PLIMMIN
 10
0.0
 20
0.0
  9
$PLIMMAX
 10
12.0
 20
9.0
  9
$UNITMODE
 70
     0
  9
$VISRETAIN
 70
     0
  9
$PLINEGEN
 70
     0
  9
$PSLTSCALE
 70
     0
  9
$TREEDEPTH
 70
  3020
  9
$CMLSTYLE
  2
Standard
  9
$CMLJUST
 70
     0
  9
$CMLSCALE
 40
1.0
  9
$PROXYGRAPHICS
 70
     1
  9
$MEASUREMENT
 70
     0
  9
$CELWEIGHT
370
    -1
  9
$ENDCAPS
280
     0
  9
$JOINSTYLE
280
     0
  9
$LWDISPLAY
290
     0
  9
$INSUNITS
 70
     0
  9
$HYPERLINKBASE
  1

  9
$STYLESHEET
  1

  9
$XEDIT
290
     1
  9
$CEPSNTYPE
380
     0
  9
$PSTYLEMODE
290
     1
  9
$FINGERPRINTGUID
  2
{2C7D7F38-788B-4475-8295-0EE5F8CECF90}
  9
$VERSIONGUID
  2
{54D6F860-5B32-4CD4-AD85-5CEA1DCCB8FE}
  9
$EXTNAMES
290
     1
  9
$PSVPSCALE
 40
0.0
  9
$OLESTARTUP
290
     0
  0
ENDSEC
  0
SECTION
  2
CLASSES
  0
CLASS
  1
ACDBDICTIONARYWDFLT
  2
AcDbDictionaryWithDefault
  3
ObjectDBX Classes
 90
        0
280
     0
281
     0
  0
CLASS
  1
DICTIONARYVAR
  2
AcDbDictionaryVar
  3
ObjectDBX Classes
 90
        0
280
     0
281
     0
  0
CLASS
  1
ACDBPLACEHOLDER
  2
AcDbPlaceHolder
  3
ObjectDBX Classes
 90
        0
280
     0
281
     0
  0
CLASS
  1
LAYOUT
  2
AcDbLayout
  3
ObjectDBX Classes
 90
        0
280
     0
281
     0
  0
ENDSEC
  0
SECTION
  2
TABLES
  0
TABLE
  2
VPORT
  5
8
330
0
100
AcDbSymbolTable
 70
     2
  0
VPORT
  5
A27
330
8
100
AcDbSymbolTableRecord
100
AcDbViewportTableRecord
  2
*Active
 70
     0
 10
0.0
 20
0.0
 11
1.0
 21
1.0
 12
116.2374743048694
 22
210.7955665146419
 13
0.0
 23
0.0
 14
6.0
 24
6.0
 15
6.0
 25
6.0
 16
0.0
 26
0.0
 36
1.0
 17
0.0
 27
0.0
 37
0.0
 40
604.1322360765776
 41
1.538265306122448
 42
50.0
 43
0.0
 44
0.0
 50
0.0
 51
0.0
 71
     0
 72
 20000
 73
     1
 74
     0
 75
     0
 76
     1
 77
     0
 78
     0
281
     0
 65
     1
110
0.0
120
0.0
130
0.0
111
1.0
121
0.0
131
0.0
112
0.0
122
1.0
132
0.0
 79
     0
146
0.0
  0
ENDTAB
  0
TABLE
  2
LTYPE
  5
5
330
0
100
AcDbSymbolTable
 70
     4
  0
LTYPE
  5
13
330
5
100
AcDbSymbolTableRecord
100
AcDbLinetypeTableRecord
  2
ByBlock
 70
     0
  3

 72
    65
 73
     0
 40
0.0
  0
LTYPE
  5
14
330
5
100
AcDbSymbolTableRecord
100
AcDbLinetypeTableRecord
  2
ByLayer
 70
     0
  3

 72
    65
 73
     0
 40
0.0
  0
LTYPE
  5
15
330
5
100
AcDbSymbolTableRecord
100
AcDbLinetypeTableRecord
  2
CONTINUOUS
 70
     0
  3
Àü
 72
    65
 73
     0
 40
0.0
  0
LTYPE
  5
2B
330
5
100
AcDbSymbolTableRecord
100
AcDbLinetypeTableRecord
  2
C5
 70
     0
  3
\\\\\  ¥  \\\\\  ¥  \\\\\  ¥  \
 72
    65
 73
     4
 40
16.64
 49
12.8
 74
     0
 49
-1.28
 74
     0
 49
1.28
 74
     0
 49
-1.28
 74
     0
  0
LTYPE
  5
2C
330
5
100
AcDbSymbolTableRecord
100
AcDbLinetypeTableRecord
  2
P4
 70
     0
  3
\\\\  ¥ ¥  \\\\  ¥ ¥  \\\\  ¥ ¥ \

 72
    65
 73
     6
 40
12.0
 49
8.0
 74
     0
 49
-0.8
 74
     0
 49
0.8
 74
     0
 49
-0.8
 74
     0
 49
0.8
 74
     0
 49
-0.8
 74
     0
  0
LTYPE
  5
2D
330
5
100
AcDbSymbolTableRecord
100
AcDbLinetypeTableRecord
  2
H5
 70
     0
  3
\\\\\@@@\\\\\@@@\\\\\@@

 72
    65
 73
     2
 40
3.799999999999999
 49
2.2
 74
     0
 49
-1.6
 74
     0
  0
ENDTAB
  0
TABLE
  2
LAYER
  5
2
102
{ACAD_XDICTIONARY
360
99A
102
}
330
0
100
AcDbSymbolTable
 70
     3
  0
LAYER
  5
10
330
2
100
AcDbSymbolTableRecord
100
AcDbLayerTableRecord
  2
0
 70
     0
 62
     7
  6
CONTINUOUS
370
    -3
390
F
  0
LAYER
  5
37
330
2
100
AcDbSymbolTableRecord
100
AcDbLayerTableRecord
  2
4
 70
     0
 62
     4
  6
CONTINUOUS
370
    -3
390
F
  0
LAYER
  5
3B
330
2
100
AcDbSymbolTableRecord
100
AcDbLayerTableRecord
  2
T
 70
     0
 62
     5
  6
C5
370
    -3
390
F
  0
ENDTAB
  0
TABLE
  2
STYLE
  5
3
330
0
100
AcDbSymbolTable
 70
     2
  0
STYLE
  5
11
330
3
100
AcDbSymbolTableRecord
100
AcDbTextStyleTableRecord
  2
STANDARD
 70
     0
 40
0.0
 41
1.0
 50
0.0
 71
     0
 42
0.2
  3
T:TXT
  4
T:SUG-BIG1
  0
STYLE
  5
27
330
3
100
AcDbSymbolTableRecord
100
AcDbTextStyleTableRecord
  2
SIMPLEX
 70
     0
 40
0.0
 41
1.0
 50
0.0
 71
     0
 42
4.400000000000001
  3
T:SIMPLEX
  4
T:SUG-BIG1
  0
ENDTAB
  0
TABLE
  2
VIEW
  5
6
330
0
100
AcDbSymbolTable
 70
     1
  0
VIEW
  5
31
330
6
100
AcDbSymbolTableRecord
100
AcDbViewTableRecord
  2
VIEW1
 70
     0
 40
299.4607767235265
 10
189.8369534307679
 20
135.5143545686234
 41
415.0386344587436
 11
0.0
 21
0.0
 31
1.0
 12
0.0
 22
0.0
 32
0.0
 42
50.0
 43
0.0
 44
0.0
 50
0.0
 71
     0
281
     0
 72
     0
  0
ENDTAB
  0
TABLE
  2
UCS
  5
7
330
0
100
AcDbSymbolTable
 70
     0
  0
ENDTAB
  0
TABLE
  2
APPID
  5
9
330
0
100
AcDbSymbolTable
 70
     1
  0
APPID
  5
12
330
9
100
AcDbSymbolTableRecord
100
AcDbRegAppTableRecord
  2
ACAD
 70
     0
  0
ENDTAB
  0
TABLE
  2
DIMSTYLE
  5
A
330
0
100
AcDbSymbolTable
 70
     1
100
AcDbDimStyleTable
 71
     0
  0
DIMSTYLE
105
997
330
A
100
AcDbSymbolTableRecord
100
AcDbDimStyleTableRecord
  2
Standard
 70
     0
340
11
  0
ENDTAB
  0
TABLE
  2
BLOCK_RECORD
  5
1
330
0
100
AcDbSymbolTable
 70
     2
  0
BLOCK_RECORD
  5
20
330
1
100
AcDbSymbolTableRecord
100
AcDbBlockTableRecord
  2
*Model_Space
340
23
  0
BLOCK_RECORD
  5
1C
330
1
100
AcDbSymbolTableRecord
100
AcDbBlockTableRecord
  2
*Paper_Space
340
1F
  0
BLOCK_RECORD
  5
24
330
1
100
AcDbSymbolTableRecord
100
AcDbBlockTableRecord
  2
SUG-AR01
340
0
102
{BLKREFS
331
669
102
}
  0
BLOCK_RECORD
  5
26
330
1
100
AcDbSymbolTableRecord
100
AcDbBlockTableRecord
  2
SUG-AR06
340
0
102
{BLKREFS
331
2F3
102
}
  0
ENDTAB
  0
ENDSEC
  0
SECTION
  2
BLOCKS
  0
BLOCK
  5
48
330
20
100
AcDbEntity
  8
0
100
AcDbBlockBegin
  2
*Model_Space
 70
     0
 10
0.0
 20
0.0
 30
0.0
  3
*Model_Space
  1

  0
ENDBLK
  5
49
330
20
100
AcDbEntity
  8
0
100
AcDbBlockEnd
  0
BLOCK
  5
46
330
1C
100
AcDbEntity
 67
     1
  8
0
100
AcDbBlockBegin
  2
*Paper_Space
 70
     0
 10
0.0
 20
0.0
 30
0.0
  3
*Paper_Space
  1

  0
ENDBLK
  5
47
330
1C
100
AcDbEntity
 67
     1
  8
0
100
AcDbBlockEnd
  0
BLOCK
  5
4A
330
24
100
AcDbEntity
  8
0
100
AcDbBlockBegin
  2
SUG-AR01
 70
     0
 10
0.0
 20
0.0
 30
0.0
  3
SUG-AR01
  1

  0
LINE
  5
4B
330
24
100
AcDbEntity
  8
0
100
AcDbLine
 10
0.0
 20
0.0
 30
0.0
 11
5.0
 21
1.339745962155659
 31
0.0
  0
LINE
  5
4C
330
24
100
AcDbEntity
  8
0
100
AcDbLine
 10
5.0
 20
-1.339745962155659
 30
0.0
 11
5.0
 21
1.339745962155659
 31
0.0
  0
LINE
  5
4D
330
24
100
AcDbEntity
  8
0
100
AcDbLine
 10
0.0
 20
0.0
 30
0.0
 11
5.0
 21
-1.339745962155659
 31
0.0
  0
ENDBLK
  5
4E
330
24
100
AcDbEntity
  8
0
100
AcDbBlockEnd
  0
BLOCK
  5
52
330
26
100
AcDbEntity
  8
0
100
AcDbBlockBegin
  2
SUG-AR06
 70
     0
 10
0.0
 20
0.0
 30
0.0
  3
SUG-AR06
  1

  0
ENDBLK
  5
53
330
26
100
AcDbEntity
  8
0
100
AcDbBlockEnd
  0
ENDSEC
  0
SECTION
  2
ENTITIES
  0
LINE
  5
54
330
20
100
AcDbEntity
  8
0
100
AcDbLine
 10
0.0
 20
0.0
 30
0.0
 11
0.0
 21
-13.87335872028507
 31
0.0
  0
LINE
  5
55
330
20
100
AcDbEntity
  8
0
100
AcDbLine
 10
0.0
 20
0.0
 30
0.0
 11
-16.16275866951969
 21
0.0
 31
0.0
  0
LINE
  5
EC
330
20
100
AcDbEntity
  8
0
100
AcDbLine
 10
384.4000000000002
 20
270.4
 30
0.0
 11
384.4000000000002
 21
284.6457413789151
 31
0.0
  0
LINE
  5
ED
330
20
100
AcDbEntity
  8
0
100
AcDbLine
 10
384.4000000000002
 20
270.4
 30
0.0
 11
397.5874936504321
 21
270.4
 31
0.0
  0
TEXT
  5
145
330
20
100
AcDbEntity
  8
0
100
AcDbText
 10
286.2
 20
2.700000000000044
 30
0.0
 40
4.0
  1
DE20B-10i*j
  7
SIMPLEX
100
AcDbText
  0
TEXT
  5
146
330
20
100
AcDbEntity
  8
0
100
AcDbText
 10
286.2
 20
11.70000000000004
 30
0.0
 40
4.0
  1
JbN
  7
SIMPLEX
100
AcDbText
  0
INSERT
  5
2F3
330
20
100
AcDbEntity
  8
4
100
AcDbBlockReference
  2
SUG-AR06
 10
1213.909532097131
 20
266.5726364524267
 30
0.0
  0
LINE
  5
319
330
20
100
AcDbEntity
  8
0
100
AcDbLine
 10
159.0671874436258
 20
185.4615584916904
 30
0.0
 11
161.0671874436258
 21
185.4615584916904
 31
0.0
  0
LINE
  5
31A
330
20
100
AcDbEntity
  8
0
100
AcDbLine
 10
161.5671874436261
 20
191.7115584916904
 30
0.0
 11
161.0671874436258
 21
191.7115584916904
 31
0.0
  0
LINE
  5
31B
330
20
100
AcDbEntity
  8
0
100
AcDbLine
 10
161.5671874436261
 20
189.2115584916904
 30
0.0
 11
161.0671874436258
 21
189.2115584916904
 31
0.0
  0
LINE
  5
31C
330
20
100
AcDbEntity
  8
0
100
AcDbLine
 10
161.5671874436261
 20
189.2115584916904
 30
0.0
 11
161.5671874436261
 21
191.7115584916904
 31
0.0
  0
ARC
  5
31D
330
20
100
AcDbEntity
  8
0
100
AcDbCircle
 10
154.2671874436261
 20
185.9615584916904
 30
0.0
 40
0.5
100
AcDbArc
 50
180.0000000000002
 51
270.0
  0
LINE
  5
31E
330
20
100
AcDbEntity
  8
0
100
AcDbLine
 10
154.2671874436261
 20
185.4615584916904
 30
0.0
 11
159.0671874436258
 21
185.4615584916904
 31
0.0
  0
CIRCLE
  5
31F
330
20
100
AcDbEntity
  8
0
100
AcDbCircle
 10
220.6788217359421
 20
190.4615584916904
 30
0.0
 40
2.2
  0
CIRCLE
  5
320
330
20
100
AcDbEntity
  8
0
100
AcDbCircle
 10
192.6788217359419
 20
190.4615584916904
 30
0.0
 40
2.2
  0
CIRCLE
  5
321
330
20
100
AcDbEntity
  8
0
100
AcDbCircle
 10
214.6788217359421
 20
190.4615584916904
 30
0.0
 40
1.35
  0
ARC
  5
322
330
20
100
AcDbEntity
  8
0
100
AcDbCircle
 10
192.6788217359419
 20
190.4615584916904
 30
0.0
 40
5.0
100
AcDbArc
 50
180.0
 51
270.0
  0
ARC
  5
323
330
20
100
AcDbEntity
  8
0
100
AcDbCircle
 10
220.6788217359421
 20
190.4615584916904
 30
0.0
 40
5.0
100
AcDbArc
 50
270.0
 51
0.0
  0
LINE
  5
324
330
20
100
AcDbEntity
  8
0
100
AcDbLine
 10
192.6788217359419
 20
185.4615584916905
 30
0.0
 11
220.6788217359421
 21
185.4615584916905
 31
0.0
  0
ARC
  5
325
330
20
100
AcDbEntity
  8
0
100
AcDbCircle
 10
244.5632659263892
 20
192.4615584916904
 30
0.0
 40
2.0
100
AcDbArc
 50
269.9999999999992
 51
341.5139853209126
  0
LINE
  5
326
330
20
100
AcDbEntity
  8
0
100
AcDbLine
 10
241.6788217359421
 20
190.4615584916905
 30
0.0
 11
244.5632659263892
 21
190.4615584916904
 31
0.0
  0
ARC
  5
327
330
20
100
AcDbEntity
  8
0
100
AcDbCircle
 10
241.6788217359421
 20
191.4615584916905
 30
0.0
 40
1.0
100
AcDbArc
 50
180.0
 51
270.0
  0
ARC
  5
33D
330
20
100
AcDbEntity
  8
0
100
AcDbCircle
 10
87.21183870687429
 20
190.4615584916904
 30
0.0
 40
5.0
100
AcDbArc
 50
269.9999999999999
 51
0.0
  0
CIRCLE
  5
33E
330
20
100
AcDbEntity
  8
0
100
AcDbCircle
 10
87.21183870687429
 20
190.4615584916904
 30
0.0
 40
2.1
  0
ARC
  5
33F
330
20
100
AcDbEntity
  8
0
100
AcDbCircle
 10
81.96183870687429
 20
147.2097818489285
 30
0.0
 40
0.5
100
AcDbArc
 50
0.0
 51
90.0
  0
ARC
  5
340
330
20
100
AcDbEntity
  8
0
100
AcDbCircle
 10
66.46183870687429
 20
147.2097818489285
 30
0.0
 40
0.5
100
AcDbArc
 50
90.0
 51
180.0
  0
LINE
  5
341
330
20
100
AcDbEntity
  8
0
100
AcDbLine
 10
81.96183870687429
 20
147.7097818489285
 30
0.0
 11
66.46183870687429
 21
147.7097818489285
 31
0.0
  0
LINE
  5
342
330
20
100
AcDbEntity
  8
0
100
AcDbLine
 10
85.96183870687429
 20
112.1097818489286
 30
0.0
 11
88.46183870687429
 21
112.1097818489286
 31
0.0
  0
LINE
  5
343
330
20
100
AcDbEntity
  8
0
100
AcDbLine
 10
85.96183870687429
 20
112.1097818489286
 30
0.0
 11
85.96183870687429
 21
112.6097818489286
 31
0.0
  0
LINE
  5
344
330
20
100
AcDbEntity
  8
0
100
AcDbLine
 10
88.46183870687429
 20
112.1097818489286
 30
0.0
 11
88.46183870687429
 21
112.6097818489286
 31
0.0
  0
LINE
  5
345
330
20
100
AcDbEntity
  8
0
100
AcDbLine
 10
66.46183870687429
 20
112.1097818489286
 30
0.0
 11
66.46183870687429
 21
112.6097818489286
 31
0.0
  0
LINE
  5
346
330
20
100
AcDbEntity
  8
0
100
AcDbLine
 10
63.96183870687428
 20
112.1097818489286
 30
0.0
 11
63.96183870687428
 21
112.6097818489286
 31
0.0
  0
LINE
  5
347
330
20
100
AcDbEntity
  8
0
100
AcDbLine
 10
63.96183870687428
 20
112.1097818489286
 30
0.0
 11
66.46183870687429
 21
112.1097818489286
 31
0.0
  0
ARC
  5
348
330
20
100
AcDbEntity
  8
0
100
AcDbCircle
 10
84.61183870687426
 20
120.4097818489286
 30
0.0
 40
0.5
100
AcDbArc
 50
180.0
 51
270.0000000000002
  0
ARC
  5
349
330
20
100
AcDbEntity
  8
0
100
AcDbCircle
 10
63.81183870687419
 20
120.4097818489285
 30
0.0
 40
0.5
100
AcDbArc
 50
270.0000000000002
 51
0.0
  0
ARC
  5
34A
330
20
100
AcDbEntity
  8
0
100
AcDbCircle
 10
83.61183870687426
 20
146.7097818489285
 30
0.0
 40
0.5
100
AcDbArc
 50
0.0
 51
90.0
  0
ARC
  5
34B
330
20
100
AcDbEntity
  8
0
100
AcDbCircle
 10
64.8118387068742
 20
146.7097818489285
 30
0.0
 40
0.5
100
AcDbArc
 50
90.0
 51
180.0
  0
LINE
  5
34C
330
20
100
AcDbEntity
  8
0
100
AcDbLine
 10
83.61183870687426
 20
147.2097818489285
 30
0.0
 11
64.8118387068742
 21
147.2097818489285
 31
0.0
  0
LINE
  5
34D
330
20
100
AcDbEntity
  8
0
100
AcDbLine
 10
84.11183870687427
 20
146.7097818489285
 30
0.0
 11
84.11183870687427
 21
120.4097818489286
 31
0.0
  0
LINE
  5
34E
330
20
100
AcDbEntity
  8
0
100
AcDbLine
 10
64.31183870687418
 20
146.7097818489285
 30
0.0
 11
64.31183870687418
 21
120.4097818489285
 31
0.0
  0
ARC
  5
34F
330
20
100
AcDbEntity
  8
0
100
AcDbCircle
 10
91.71183870687427
 20
119.4097818489286
 30
0.0
 40
0.5
100
AcDbArc
 50
0.0
 51
90.00000000000019
  0
LINE
  5
350
330
20
100
AcDbEntity
  8
0
100
AcDbLine
 10
92.21183870687427
 20
119.4097818489286
 30
0.0
 11
92.21183870687427
 21
114.6097818489286
 31
0.0
  0
LINE
  5
351
330
20
100
AcDbEntity
  8
0
100
AcDbLine
 10
84.21183870687428
 20
114.6097818489286
 30
0.0
 11
89.71183870687406
 21
114.6097818489286
 31
0.0
  0
LINE
  5
352
330
20
100
AcDbEntity
  8
0
100
AcDbLine
 10
64.2118387068745
 20
114.6097818489286
 30
0.0
 11
66.71183870687428
 21
114.6097818489286
 31
0.0
  0
LINE
  5
353
330
20
100
AcDbEntity
  8
0
100
AcDbLine
 10
92.21183870687427
 20
114.6097818489286
 30
0.0
 11
92.21183870687427
 21
112.6097818489286
 31
0.0
  0
ARC
  5
370
330
20
100
AcDbEntity
  8
0
100
AcDbCircle
 10
38.21183870687429
 20
191.4615584916905
 30
0.0
 40
1.0
100
AcDbArc
 50
270.0
 51
0.0
  0
LINE
  5
371
330
20
100
AcDbEntity
  8
0
100
AcDbLine
 10
38.21183870687429
 20
190.4615584916905
 30
0.0
 11
35.32739451642715
 21
190.4615584916904
 31
0.0
  0
LINE
  5
372
330
20
100
AcDbEntity
  8
0
100
AcDbLine
 10
87.21183870687429
 20
185.4615584916904
 30
0.0
 11
59.21183870687428
 21
185.4615584916904
 31
0.0
  0
CIRCLE
  5
373
330
20
100
AcDbEntity
  8
0
100
AcDbCircle
 10
59.21183870687428
 20
190.4615584916904
 30
0.0
 40
2.1
  0
ARC
  5
374
330
20
100
AcDbEntity
  8
0
100
AcDbCircle
 10
54.71183870687428
 20
119.4097818489285
 30
0.0
 40
0.5
100
AcDbArc
 50
90.00000000000019
 51
180.0
  0
LINE
  5
375
330
20
100
AcDbEntity
  8
0
100
AcDbLine
 10
54.21183870687428
 20
119.4097818489285
 30
0.0
 11
54.21183870687428
 21
114.6097818489286
 31
0.0
  0
LINE
  5
376
330
20
100
AcDbEntity
  8
0
100
AcDbLine
 10
54.71183870687428
 20
119.9097818489285
 30
0.0
 11
91.71183870687427
 21
119.9097818489287
 31
0.0
  0
LINE
  5
377
330
20
100
AcDbEntity
  8
0
100
AcDbLine
 10
54.21183870687428
 20
114.6097818489286
 30
0.0
 11
92.21183870687427
 21
114.6097818489286
 31
0.0
  0
LINE
  5
378
330
20
100
AcDbEntity
  8
0
100
AcDbLine
 10
31.21183870687429
 20
117.8097818489286
 30
0.0
 11
31.21183870687429
 21
114.6097818489286
 31
0.0
  0
LINE
  5
379
330
20
100
AcDbEntity
  8
0
100
AcDbLine
 10
39.21183870687429
 20
117.8097818489286
 30
0.0
 11
39.21183870687429
 21
114.6097818489286
 31
0.0
  0
LINE
  5
37A
330
20
100
AcDbEntity
  8
0
100
AcDbLine
 10
48.053273147904
 20
117.8097818489286
 30
0.0
 11
48.053273147904
 21
114.6097818489286
 31
0.0
  0
LINE
  5
37B
330
20
100
AcDbEntity
  8
0
100
AcDbLine
 10
51.20846174912589
 20
117.8097818489286
 30
0.0
 11
51.20846174912589
 21
114.6097818489286
 31
0.0
  0
LINE
  5
37C
330
20
100
AcDbEntity
  8
0
100
AcDbLine
 10
31.21183870687429
 20
117.8097818489286
 30
0.0
 11
54.21183870687428
 21
117.8097818489286
 31
0.0
  0
LINE
  5
37D
330
20
100
AcDbEntity
  8
0
100
AcDbLine
 10
54.21183870687428
 20
114.6097818489286
 30
0.0
 11
31.21183870687429
 21
114.6097818489286
 31
0.0
  0
LINE
  5
37E
330
20
100
AcDbEntity
  8
0
100
AcDbLine
 10
54.21183870687428
 20
112.6097818489286
 30
0.0
 11
92.21183870687427
 21
112.6097818489286
 31
0.0
  0
LINE
  5
37F
330
20
100
AcDbEntity
  8
0
100
AcDbLine
 10
54.21183870687428
 20
114.6097818489286
 30
0.0
 11
54.21183870687428
 21
112.6097818489286
 31
0.0
  0
ARC
  5
39D
330
20
100
AcDbEntity
  8
0
100
AcDbCircle
 10
35.32739451642709
 20
192.4615584916904
 30
0.0
 40
2.0
100
AcDbArc
 50
198.4860146790874
 51
270.0000000000008
  0
TEXT
  5
46E
330
20
100
AcDbEntity
  8
0
100
AcDbText
 10
164.64325926556
 20
36.83425582164148
 30
0.0
 40
2.5
  1
AAAAA0
 50
180.0
  7
SIMPLEX
 72
     4
 11
157.2623068846076
 21
35.58425582164148
 31
0.0
100
AcDbText
  0
ARC
  5
47B
330
20
100
AcDbEntity
  8
0
100
AcDbCircle
 10
157.2623068719009
 20
72.13425582164146
 30
0.0
 40
0.7
100
AcDbArc
 50
34.99999999999988
 51
145.0
  0
LINE
  5
47C
330
20
100
AcDbEntity
  8
0
100
AcDbLine
 10
157.8357133029031
 20
72.53575932708715
 30
0.0
 11
160.8623068846078
 21
68.21333573615721
 31
0.0
  0
LINE
  5
47D
330
20
100
AcDbEntity
  8
0
100
AcDbLine
 10
156.6889004408985
 20
72.53575932708715
 30
0.0
 11
153.6623068846077
 21
68.21333577245207
 31
0.0
  0
LINE
  5
47E
330
20
100
AcDbEntity
  8
0
100
AcDbLine
 10
158.5375749924786
 20
33.23425582164146
 30
0.0
 11
158.506170035681
 21
33.20285086484387
 31
0.0
  0
LINE
  5
47F
330
20
100
AcDbEntity
  8
0
100
AcDbLine
 10
160.8623068846078
 20
47.5342558216414
 30
0.0
 11
160.8623068846078
 21
68.21333573615721
 31
0.0
  0
LINE
  5
480
330
20
100
AcDbEntity
  8
0
100
AcDbLine
 10
153.6623068846077
 20
47.5342558216414
 30
0.0
 11
153.6623068846077
 21
68.21333577245207
 31
0.0
  0
LINE
  5
481
330
20
100
AcDbEntity
  8
0
100
AcDbLine
 10
161.0623068846078
 20
47.33425582164146
 30
0.0
 11
161.7623068846079
 21
47.33425582164146
 31
0.0
  0
LINE
  5
482
330
20
100
AcDbEntity
  8
0
100
AcDbLine
 10
152.7623068846079
 20
47.33425582164146
 30
0.0
 11
153.4623068846077
 21
47.33425582164146
 31
0.0
  0
LINE
  5
483
330
20
100
AcDbEntity
  8
0
100
AcDbLine
 10
163.0717819039189
 20
28.53425582164141
 30
0.0
 11
151.4528318652968
 21
28.53425582164141
 31
0.0
  0
LINE
  5
484
330
20
100
AcDbEntity
  8
0
100
AcDbLine
 10
163.0717819039189
 20
32.53425582164141
 30
0.0
 11
159.2623068846078
 21
32.53425582164141
 31
0.0
  0
ARC
  5
485
330
20
100
AcDbEntity
  8
0
100
AcDbCircle
 10
157.2623068846079
 20
30.53425582164142
 30
0.0
 40
6.5
100
AcDbArc
 50
345.5224878140701
 51
14.47751218592994
  0
ARC
  5
486
330
20
100
AcDbEntity
  8
0
100
AcDbCircle
 10
157.2623068846079
 20
30.53425582164142
 30
0.0
 40
6.5
100
AcDbArc
 50
165.5224878140701
 51
194.4775121859299
  0
ARC
  5
487
330
20
100
AcDbEntity
  8
0
100
AcDbCircle
 10
157.2623068846079
 20
31.03425582164141
 30
0.0
 40
2.5
100
AcDbArc
 50
36.86989764584403
 51
143.130102354156
  0
ARC
  5
488
330
20
100
AcDbEntity
  8
0
100
AcDbCircle
 10
161.7623068846079
 20
46.83425582164146
 30
0.0
 40
0.5
100
AcDbArc
 50
0.0
 51
90.0
  0
ARC
  5
489
330
20
100
AcDbEntity
  8
0
100
AcDbCircle
 10
152.7623068846079
 20
46.83425582164146
 30
0.0
 40
0.5
100
AcDbArc
 50
90.0
 51
180.0
  0
ARC
  5
48A
330
20
100
AcDbEntity
  8
0
100
AcDbCircle
 10
163.0717819039189
 20
29.03425582164141
 30
0.0
 40
0.5
100
AcDbArc
 50
269.9999999999996
 51
345.5224878140701
  0
ARC
  5
48B
330
20
100
AcDbEntity
  8
0
100
AcDbCircle
 10
163.0717819039189
 20
32.03425582164141
 30
0.0
 40
0.5
100
AcDbArc
 50
14.47751218592986
 51
89.9999999999996
  0
ARC
  5
48C
330
20
100
AcDbEntity
  8
0
100
AcDbCircle
 10
151.4528318652968
 20
32.03425582164141
 30
0.0
 40
0.5
100
AcDbArc
 50
90.0
 51
165.5224878140701
  0
ARC
  5
48D
330
20
100
AcDbEntity
  8
0
100
AcDbCircle
 10
151.4528318652968
 20
29.03425582164141
 30
0.0
 40
0.5
100
AcDbArc
 50
194.4775121859299
 51
270.0
  0
ARC
  5
48E
330
20
100
AcDbEntity
  8
0
100
AcDbCircle
 10
161.0623068846078
 20
47.5342558216414
 30
0.0
 40
0.2
100
AcDbArc
 50
180.0
 51
269.9999999999995
  0
ARC
  5
48F
330
20
100
AcDbEntity
  8
0
100
AcDbCircle
 10
153.4623068846077
 20
47.5342558216414
 30
0.0
 40
0.2
100
AcDbArc
 50
270.0000000000005
 51
0.0
  0
ARC
  5
490
330
20
100
AcDbEntity
  8
0
100
AcDbCircle
 10
147.2623068846079
 20
46.7630123769644
 30
0.0
 40
5.0
100
AcDbArc
 50
318.5903778907289
 51
359.9999999999998
  0
ARC
  5
491
330
20
100
AcDbEntity
  8
0
100
AcDbCircle
 10
162.2623068846078
 20
33.53425582164141
 30
0.0
 40
15.0
100
AcDbArc
 50
138.5903778907293
 51
180.0
  0
LINE
  5
492
330
20
100
AcDbEntity
  8
0
100
AcDbLine
 10
147.2623068846079
 20
33.53425582164141
 30
0.0
 11
147.2623068846079
 21
28.83425582164148
 31
0.0
  0
LINE
  5
493
330
20
100
AcDbEntity
  8
0
100
AcDbLine
 10
167.2623068846078
 20
28.83425582164136
 30
0.0
 11
167.2623068846078
 21
33.53425582164141
 31
0.0
  0
ARC
  5
494
330
20
100
AcDbEntity
  8
0
100
AcDbCircle
 10
152.2623068846079
 20
33.53425582164141
 30
0.0
 40
15.0
100
AcDbArc
 50
0.0
 51
41.40962210927078
  0
ARC
  5
495
330
20
100
AcDbEntity
  8
0
100
AcDbCircle
 10
167.2623068846078
 20
46.7630123769644
 30
0.0
 40
4.999999999999983
100
AcDbArc
 50
180.0
 51
221.4096221092709
  0
LINE
  5
496
330
20
100
AcDbEntity
  8
0
100
AcDbLine
 10
155.2623068846079
 20
32.53425582164141
 30
0.0
 11
151.4528318652968
 21
32.53425582164141
 31
0.0
  0
LINE
  5
497
330
20
100
AcDbEntity
  8
0
100
AcDbLine
 10
150.2623068846076
 20
25.83425582164148
 30
0.0
 11
164.2623068846079
 21
25.83425582164136
 31
0.0
  0
ARC
  5
498
330
20
100
AcDbEntity
  8
0
100
AcDbCircle
 10
164.2623068846079
 20
28.83425582164136
 30
0.0
 40
3.0
100
AcDbArc
 50
269.9999999999996
 51
0.0
  0
ARC
  5
499
330
20
100
AcDbEntity
  8
0
100
AcDbCircle
 10
150.2623068846079
 20
28.83425582164148
 30
0.0
 40
3.0
100
AcDbArc
 50
180.0
 51
269.9999999999996
  0
LINE
  5
49A
330
20
100
AcDbEntity
  8
0
100
AcDbLine
 10
164.0264863638227
 20
40.67543999093993
 30
0.0
 11
162.2853021945241
 21
38.9342558216414
 31
0.0
  0
LINE
  5
49B
330
20
100
AcDbEntity
  8
0
100
AcDbLine
 10
151.8853021945243
 20
28.53425582164141
 30
0.0
 11
150.1867306461186
 21
26.83568427323587
 31
0.0
  0
LINE
  5
49C
330
20
100
AcDbEntity
  8
0
100
AcDbLine
 10
164.4456995942126
 20
40.38754644014318
 30
0.0
 11
162.9924089757106
 21
38.9342558216414
 31
0.0
  0
LINE
  5
49D
330
20
100
AcDbEntity
  8
0
100
AcDbLine
 10
152.5924089757106
 20
28.53425582164141
 30
0.0
 11
150.8924089757107
 21
26.83425582164148
 31
0.0
  0
LINE
  5
49E
330
20
100
AcDbEntity
  8
0
100
AcDbLine
 10
164.7089560332011
 20
39.94369609794512
 30
0.0
 11
163.6995157568972
 21
38.9342558216414
 31
0.0
  0
LINE
  5
49F
330
20
100
AcDbEntity
  8
0
100
AcDbLine
 10
153.2995157568974
 20
28.53425582164141
 30
0.0
 11
151.5995157568973
 21
26.83425582164148
 31
0.0
  0
LINE
  5
4A0
330
20
100
AcDbEntity
  8
0
100
AcDbLine
 10
164.9419107321642
 20
39.46954401572191
 30
0.0
 11
164.4066225380837
 21
38.9342558216414
 31
0.0
  0
LINE
  5
4A1
330
20
100
AcDbEntity
  8
0
100
AcDbLine
 10
154.0066225380838
 20
28.53425582164141
 30
0.0
 11
152.3066225380838
 21
26.83425582164148
 31
0.0
  0
LINE
  5
4A2
330
20
100
AcDbEntity
  8
0
100
AcDbLine
 10
165.1596633066536
 20
38.98018980902475
 30
0.0
 11
165.1137293192704
 21
38.9342558216414
 31
0.0
  0
LINE
  5
4A3
330
20
100
AcDbEntity
  8
0
100
AcDbLine
 10
154.7137293192703
 20
28.53425582164141
 30
0.0
 11
153.0137293192704
 21
26.83425582164148
 31
0.0
  0
LINE
  5
4A4
330
20
100
AcDbEntity
  8
0
100
AcDbLine
 10
160.120836100457
 20
33.23425582164146
 30
0.0
 11
159.4208361004569
 21
32.53425582164141
 31
0.0
  0
LINE
  5
4A5
330
20
100
AcDbEntity
  8
0
100
AcDbLine
 10
155.4208361004569
 20
28.53425582164141
 30
0.0
 11
153.7208361004569
 21
26.83425582164148
 31
0.0
  0
LINE
  5
4A6
330
20
100
AcDbEntity
  8
0
100
AcDbLine
 10
160.8279428816434
 20
33.23425582164146
 30
0.0
 11
160.1279428816433
 21
32.53425582164141
 31
0.0
  0
LINE
  5
4A7
330
20
100
AcDbEntity
  8
0
100
AcDbLine
 10
156.1279428816433
 20
28.53425582164141
 30
0.0
 11
154.4279428816435
 21
26.83425582164148
 31
0.0
  0
LINE
  5
4A8
330
20
100
AcDbEntity
  8
0
100
AcDbLine
 10
161.5350496628301
 20
33.23425582164146
 30
0.0
 11
160.83504966283
 21
32.53425582164141
 31
0.0
  0
LINE
  5
4A9
330
20
100
AcDbEntity
  8
0
100
AcDbLine
 10
156.83504966283
 20
28.53425582164141
 30
0.0
 11
155.13504966283
 21
26.83425582164148
 31
0.0
  0
LINE
  5
4AA
330
20
100
AcDbEntity
  8
0
100
AcDbLine
 10
162.2421564440165
 20
33.23425582164134
 30
0.0
 11
161.5421564440165
 21
32.53425582164141
 31
0.0
  0
LINE
  5
4AB
330
20
100
AcDbEntity
  8
0
100
AcDbLine
 10
157.5421564440167
 20
28.53425582164141
 30
0.0
 11
155.8421564440165
 21
26.83425582164148
 31
0.0
  0
LINE
  5
4AC
330
20
100
AcDbEntity
  8
0
100
AcDbLine
 10
162.9492632252032
 20
33.23425582164146
 30
0.0
 11
162.2492632252031
 21
32.53425582164141
 31
0.0
  0
LINE
  5
4AD
330
20
100
AcDbEntity
  8
0
100
AcDbLine
 10
158.2492632252031
 20
28.53425582164141
 30
0.0
 11
156.5492632252031
 21
26.83425582164148
 31
0.0
  0
LINE
  5
4AE
330
20
100
AcDbEntity
  8
0
100
AcDbLine
 10
163.6563700063896
 20
33.23425582164134
 30
0.0
 11
162.9563700063896
 21
32.53425582164141
 31
0.0
  0
LINE
  5
4AF
330
20
100
AcDbEntity
  8
0
100
AcDbLine
 10
158.9563700063896
 20
28.53425582164141
 30
0.0
 11
157.2563700063895
 21
26.83425582164148
 31
0.0
  0
LINE
  5
4B0
330
20
100
AcDbEntity
  8
0
100
AcDbLine
 10
164.3634767875763
 20
33.23425582164134
 30
0.0
 11
163.4681974661471
 21
32.33897650021243
 31
0.0
  0
LINE
  5
4B1
330
20
100
AcDbEntity
  8
0
100
AcDbLine
 10
159.6634767875761
 20
28.53425582164141
 30
0.0
 11
157.9634767875762
 21
26.83425582164137
 31
0.0
  0
LINE
  5
4B2
330
20
100
AcDbEntity
  8
0
100
AcDbLine
 10
165.0705835687627
 20
33.23425582164134
 30
0.0
 11
163.6376200785494
 21
31.80129233142805
 31
0.0
  0
LINE
  5
4B3
330
20
100
AcDbEntity
  8
0
100
AcDbLine
 10
160.3705835687627
 20
28.53425582164141
 30
0.0
 11
158.6705835687626
 21
26.83425582164137
 31
0.0
  0
LINE
  5
4B4
330
20
100
AcDbEntity
  8
0
100
AcDbLine
 10
165.7776903499492
 20
33.23425582164134
 30
0.0
 11
163.7295391361629
 21
31.18610460785499
 31
0.0
  0
LINE
  5
4B5
330
20
100
AcDbEntity
  8
0
100
AcDbLine
 10
161.0776903499493
 20
28.53425582164141
 30
0.0
 11
159.3776903499493
 21
26.83425582164137
 31
0.0
  0
LINE
  5
4B6
330
20
100
AcDbEntity
  8
0
100
AcDbLine
 10
166.2623068719009
 20
33.01176556240637
 30
0.0
 11
163.7622678279756
 21
30.51172651848129
 31
0.0
  0
LINE
  5
4B7
330
20
100
AcDbEntity
  8
0
100
AcDbLine
 10
161.7847971311358
 20
28.53425582164141
 30
0.0
 11
160.0847971311357
 21
26.83425582164137
 31
0.0
  0
LINE
  5
4B8
330
20
100
AcDbEntity
  8
0
100
AcDbLine
 10
166.2623068719009
 20
32.30465878121981
 30
0.0
 11
163.7158078524413
 21
29.75815976176034
 31
0.0
  0
LINE
  5
4B9
330
20
100
AcDbEntity
  8
0
100
AcDbLine
 10
162.4919039123224
 20
28.53425582164141
 30
0.0
 11
160.7919039123224
 21
26.83425582164137
 31
0.0
  0
LINE
  5
4BA
330
20
100
AcDbEntity
  8
0
100
AcDbLine
 10
166.2623068719009
 20
31.59755200003326
 30
0.0
 11
163.5486323404389
 21
28.88387746857132
 31
0.0
  0
LINE
  5
4BB
330
20
100
AcDbEntity
  8
0
100
AcDbLine
 10
163.2221602442819
 20
28.55740537241445
 30
0.0
 11
161.4990106935088
 21
26.83425582164137
 31
0.0
  0
LINE
  5
4BC
330
20
100
AcDbEntity
  8
0
100
AcDbLine
 10
166.2623068719009
 20
30.89044521884671
 30
0.0
 11
162.2061174746955
 21
26.83425582164137
 31
0.0
  0
LINE
  5
4BD
330
20
100
AcDbEntity
  8
0
100
AcDbLine
 10
166.2623068719009
 20
30.18333843766015
 30
0.0
 11
162.9132242558819
 21
26.83425582164137
 31
0.0
  0
LINE
  5
4BE
330
20
100
AcDbEntity
  8
0
100
AcDbLine
 10
166.2623068719009
 20
29.47623165647361
 30
0.0
 11
163.6203310370686
 21
26.83425582164137
 31
0.0
  0
LINE
  5
4BF
330
20
100
AcDbEntity
  8
0
100
AcDbLine
 10
166.2612100415393
 20
28.7680280449257
 30
0.0
 11
164.3285346486164
 21
26.83535265200283
 31
0.0
  0
LINE
  5
4C0
330
20
100
AcDbEntity
  8
0
100
AcDbLine
 10
165.9289154779074
 20
27.72862670010727
 30
0.0
 11
165.367935993435
 21
27.1676472156347
 31
0.0
  0
LINE
  5
4C1
330
20
100
AcDbEntity
  8
0
100
AcDbLine
 10
163.3781954133375
 20
40.73425582164145
 30
0.0
 11
161.5781954133377
 21
38.9342558216414
 31
0.0
  0
LINE
  5
4C2
330
20
100
AcDbEntity
  8
0
100
AcDbLine
 10
151.2303975092516
 20
28.58645791755544
 30
0.0
 11
149.5933784928609
 21
26.94943890116474
 31
0.0
  0
LINE
  5
4C3
330
20
100
AcDbEntity
  8
0
100
AcDbLine
 10
162.671088632151
 20
40.73425582164145
 30
0.0
 11
160.871088632151
 21
38.9342558216414
 31
0.0
  0
LINE
  5
4C4
330
20
100
AcDbEntity
  8
0
100
AcDbLine
 10
150.9441912899825
 20
29.00735847947283
 30
0.0
 11
149.1255524396632
 21
27.18871962915341
 31
0.0
  0
LINE
  5
4C5
330
20
100
AcDbEntity
  8
0
100
AcDbLine
 10
161.9639818509645
 20
40.73425582164145
 30
0.0
 11
160.1639818509646
 21
38.9342558216414
 31
0.0
  0
LINE
  5
4C6
330
20
100
AcDbEntity
  8
0
100
AcDbLine
 10
150.8297891666357
 20
29.60006313731276
 30
0.0
 11
148.7524116452467
 21
27.52268561592349
 31
0.0
  0
LINE
  5
4C7
330
20
100
AcDbEntity
  8
0
100
AcDbLine
 10
161.2568750697779
 20
40.73425582164145
 30
0.0
 11
159.4568750697779
 21
38.9342558216414
 31
0.0
  0
LINE
  5
4C8
330
20
100
AcDbEntity
  8
0
100
AcDbLine
 10
150.7686981625512
 20
30.24607891441462
 30
0.0
 11
148.4697968400394
 21
27.9471775919028
 31
0.0
  0
LINE
  5
4C9
330
20
100
AcDbEntity
  8
0
100
AcDbLine
 10
160.5497682885914
 20
40.73425582164145
 30
0.0
 11
158.7497682885915
 21
38.9342558216414
 31
0.0
  0
LINE
  5
4CA
330
20
100
AcDbEntity
  8
0
100
AcDbLine
 10
150.7763176949159
 20
30.96080522796592
 30
0.0
 11
148.2941727734228
 21
28.47866030647276
 31
0.0
  0
LINE
  5
4CB
330
20
100
AcDbEntity
  8
0
100
AcDbLine
 10
159.8426615074048
 20
40.73425582164145
 30
0.0
 11
158.0426615074048
 21
38.9342558216414
 31
0.0
  0
LINE
  5
4CC
330
20
100
AcDbEntity
  8
0
100
AcDbLine
 10
150.8814433245889
 20
31.77303763882537
 30
0.0
 11
148.2623068719008
 21
29.15390118613732
 31
0.0
  0
LINE
  5
4CD
330
20
100
AcDbEntity
  8
0
100
AcDbLine
 10
159.1355547262183
 20
40.73425582164145
 30
0.0
 11
157.3355547262184
 21
38.9342558216414
 31
0.0
  0
LINE
  5
4CE
330
20
100
AcDbEntity
  8
0
100
AcDbLine
 10
158.4284479450319
 20
40.73425582164145
 30
0.0
 11
156.6284479450317
 21
38.9342558216414
 31
0.0
  0
LINE
  5
4CF
330
20
100
AcDbEntity
  8
0
100
AcDbLine
 10
157.7213411638451
 20
40.73425582164145
 30
0.0
 11
155.9213411638453
 21
38.9342558216414
 31
0.0
  0
LINE
  5
4D0
330
20
100
AcDbEntity
  8
0
100
AcDbLine
 10
157.0142343826588
 20
40.73425582164145
 30
0.0
 11
155.2142343826586
 21
38.9342558216414
 31
0.0
  0
LINE
  5
4D1
330
20
100
AcDbEntity
  8
0
100
AcDbLine
 10
156.3071276014721
 20
40.73425582164145
 30
0.0
 11
154.5071276014722
 21
38.9342558216414
 31
0.0
  0
LINE
  5
4D2
330
20
100
AcDbEntity
  8
0
100
AcDbLine
 10
155.6000208202857
 20
40.73425582164145
 30
0.0
 11
153.8000208202855
 21
38.9342558216414
 31
0.0
  0
LINE
  5
4D3
330
20
100
AcDbEntity
  8
0
100
AcDbLine
 10
154.892914039099
 20
40.73425582164145
 30
0.0
 11
153.092914039099
 21
38.9342558216414
 31
0.0
  0
LINE
  5
4D4
330
20
100
AcDbEntity
  8
0
100
AcDbLine
 10
154.1858072579126
 20
40.73425582164145
 30
0.0
 11
152.3858072579126
 21
38.9342558216414
 31
0.0
  0
LINE
  5
4D5
330
20
100
AcDbEntity
  8
0
100
AcDbLine
 10
153.4787004767259
 20
40.73425582164145
 30
0.0
 11
151.6787004767259
 21
38.9342558216414
 31
0.0
  0
LINE
  5
4D6
330
20
100
AcDbEntity
  8
0
100
AcDbLine
 10
152.7715936955394
 20
40.73425582164145
 30
0.0
 11
150.9715936955395
 21
38.9342558216414
 31
0.0
  0
LINE
  5
4D7
330
20
100
AcDbEntity
  8
0
100
AcDbLine
 10
152.0644869143528
 20
40.73425582164145
 30
0.0
 11
150.2644869143528
 21
38.9342558216414
 31
0.0
  0
LINE
  5
4D8
330
20
100
AcDbEntity
  8
0
100
AcDbLine
 10
151.3573801331664
 20
40.73425582164145
 30
0.0
 11
149.5573801331664
 21
38.9342558216414
 31
0.0
  0
LINE
  5
4D9
330
20
100
AcDbEntity
  8
0
100
AcDbLine
 10
150.6285048652269
 20
40.71248733488868
 30
0.0
 11
149.7697307473171
 21
39.85371321697892
 31
0.0
  0
LINE
  5
4DA
330
20
100
AcDbEntity
  8
0
100
AcDbLine
 10
150.4052486606588
 20
40.63671626891993
 30
0.0
 11
152.1077091079374
 21
38.9342558216414
 31
0.0
  0
LINE
  5
4DB
330
20
100
AcDbEntity
  8
0
100
AcDbLine
 10
162.5077091079373
 20
28.53425582164141
 30
0.0
 11
164.2077091079373
 21
26.83425582164137
 31
0.0
  0
LINE
  5
4DC
330
20
100
AcDbEntity
  8
0
100
AcDbLine
 10
151.0148158891239
 20
40.73425582164145
 30
0.0
 11
152.8148158891238
 21
38.9342558216414
 31
0.0
  0
LINE
  5
4DD
330
20
100
AcDbEntity
  8
0
100
AcDbLine
 10
163.1984936121706
 20
28.55057809859466
 30
0.0
 11
164.8319708114055
 21
26.91710089935987
 31
0.0
  0
LINE
  5
4DE
330
20
100
AcDbEntity
  8
0
100
AcDbLine
 10
151.7219226703103
 20
40.73425582164145
 30
0.0
 11
153.5219226703105
 21
38.9342558216414
 31
0.0
  0
LINE
  5
4DF
330
20
100
AcDbEntity
  8
0
100
AcDbLine
 10
163.5540173157229
 20
28.9021611762289
 30
0.0
 11
165.3196041607521
 21
27.13657433119988
 31
0.0
  0
LINE
  5
4E0
330
20
100
AcDbEntity
  8
0
100
AcDbLine
 10
152.429029451497
 20
40.73425582164145
 30
0.0
 11
154.2290294514969
 21
38.9342558216414
 31
0.0
  0
LINE
  5
4E1
330
20
100
AcDbEntity
  8
0
100
AcDbLine
 10
163.6772324701911
 20
29.48605280294727
 30
0.0
 11
165.7094881729957
 21
27.45379710014276
 31
0.0
  0
LINE
  5
4E2
330
20
100
AcDbEntity
  8
0
100
AcDbLine
 10
153.1361362326834
 20
40.73425582164145
 30
0.0
 11
154.9361362326836
 21
38.9342558216414
 31
0.0
  0
LINE
  5
4E3
330
20
100
AcDbEntity
  8
0
100
AcDbLine
 10
163.7491707148195
 20
30.12122133950537
 30
0.0
 11
166.0094777892187
 21
27.8609142651062
 31
0.0
  0
LINE
  5
4E4
330
20
100
AcDbEntity
  8
0
100
AcDbLine
 10
153.8432430138701
 20
40.73425582164145
 30
0.0
 11
155.6432430138699
 21
38.9342558216414
 31
0.0
  0
LINE
  5
4E5
330
20
100
AcDbEntity
  8
0
100
AcDbLine
 10
163.7559549666085
 20
30.82154386890306
 30
0.0
 11
166.2076430003308
 21
28.36985583518071
 31
0.0
  0
LINE
  5
4E6
330
20
100
AcDbEntity
  8
0
100
AcDbLine
 10
154.5503497950565
 20
40.73425582164145
 30
0.0
 11
156.3503497950567
 21
38.9342558216414
 31
0.0
  0
LINE
  5
4E7
330
20
100
AcDbEntity
  8
0
100
AcDbLine
 10
163.6722809390672
 20
31.61232467763091
 30
0.0
 11
166.2623068719009
 21
29.02229874479724
 31
0.0
  0
LINE
  5
4E8
330
20
100
AcDbEntity
  8
0
100
AcDbLine
 10
155.2574565762432
 20
40.73425582164145
 30
0.0
 11
157.0574565762431
 21
38.9342558216414
 31
0.0
  0
LINE
  5
4E9
330
20
100
AcDbEntity
  8
0
100
AcDbLine
 10
155.9645633574296
 20
40.73425582164145
 30
0.0
 11
157.7645633574298
 21
38.9342558216414
 31
0.0
  0
LINE
  5
4EA
330
20
100
AcDbEntity
  8
0
100
AcDbLine
 10
156.6716701386163
 20
40.73425582164145
 30
0.0
 11
158.4716701386162
 21
38.9342558216414
 31
0.0
  0
LINE
  5
4EB
330
20
100
AcDbEntity
  8
0
100
AcDbLine
 10
157.3787769198027
 20
40.73425582164145
 30
0.0
 11
159.1787769198029
 21
38.9342558216414
 31
0.0
  0
LINE
  5
4EC
330
20
100
AcDbEntity
  8
0
100
AcDbLine
 10
158.0858837009894
 20
40.73425582164145
 30
0.0
 11
159.8858837009894
 21
38.9342558216414
 31
0.0
  0
LINE
  5
4ED
330
20
100
AcDbEntity
  8
0
100
AcDbLine
 10
158.7929904821758
 20
40.73425582164145
 30
0.0
 11
160.592990482176
 21
38.9342558216414
 31
0.0
  0
LINE
  5
4EE
330
20
100
AcDbEntity
  8
0
100
AcDbLine
 10
159.5000972633625
 20
40.73425582164145
 30
0.0
 11
161.3000972633625
 21
38.9342558216414
 31
0.0
  0
LINE
  5
4EF
330
20
100
AcDbEntity
  8
0
100
AcDbLine
 10
160.207204044549
 20
40.73425582164145
 30
0.0
 11
162.0072040445491
 21
38.9342558216414
 31
0.0
  0
LINE
  5
4F0
330
20
100
AcDbEntity
  8
0
100
AcDbLine
 10
160.9143108257356
 20
40.73425582164145
 30
0.0
 11
162.7143108257356
 21
38.9342558216414
 31
0.0
  0
LINE
  5
4F1
330
20
100
AcDbEntity
  8
0
100
AcDbLine
 10
161.621417606922
 20
40.73425582164145
 30
0.0
 11
163.421417606922
 21
38.9342558216414
 31
0.0
  0
LINE
  5
4F2
330
20
100
AcDbEntity
  8
0
100
AcDbLine
 10
162.3285243881087
 20
40.73425582164145
 30
0.0
 11
164.1285243881087
 21
38.9342558216414
 31
0.0
  0
LINE
  5
4F3
330
20
100
AcDbEntity
  8
0
100
AcDbLine
 10
163.0356311692952
 20
40.73425582164145
 30
0.0
 11
164.8356311692954
 21
38.9342558216414
 31
0.0
  0
LINE
  5
4F4
330
20
100
AcDbEntity
  8
0
100
AcDbLine
 10
163.7442902849078
 20
40.73270348721542
 30
0.0
 11
164.8828232631859
 21
39.59417050893728
 31
0.0
  0
LINE
  5
4F5
330
20
100
AcDbEntity
  8
0
100
AcDbLine
 10
150.0210712476567
 20
40.31378690073539
 30
0.0
 11
151.4006023267507
 21
38.9342558216414
 31
0.0
  0
LINE
  5
4F6
330
20
100
AcDbEntity
  8
0
100
AcDbLine
 10
161.8006023267508
 20
28.53425582164141
 30
0.0
 11
163.5006023267508
 21
26.83425582164137
 31
0.0
  0
LINE
  5
4F7
330
20
100
AcDbEntity
  8
0
100
AcDbLine
 10
149.7711779904692
 20
39.85657337673661
 30
0.0
 11
150.6934955455643
 21
38.9342558216414
 31
0.0
  0
LINE
  5
4F8
330
20
100
AcDbEntity
  8
0
100
AcDbLine
 10
161.0934955455642
 20
28.53425582164141
 30
0.0
 11
162.7934955455642
 21
26.83425582164137
 31
0.0
  0
LINE
  5
4F9
330
20
100
AcDbEntity
  8
0
100
AcDbLine
 10
149.5410058797713
 20
39.37963870624776
 30
0.0
 11
149.9863887643776
 21
38.9342558216414
 31
0.0
  0
LINE
  5
4FA
330
20
100
AcDbEntity
  8
0
100
AcDbLine
 10
160.3863887643777
 20
28.53425582164141
 30
0.0
 11
162.0863887643777
 21
26.83425582164137
 31
0.0
  0
LINE
  5
4FB
330
20
100
AcDbEntity
  8
0
100
AcDbLine
 10
154.9792819831912
 20
33.23425582164146
 30
0.0
 11
155.4535149663459
 21
32.76002283848664
 31
0.0
  0
LINE
  5
4FC
330
20
100
AcDbEntity
  8
0
100
AcDbLine
 10
159.679281983191
 20
28.53425582164141
 30
0.0
 11
161.3792819831911
 21
26.83425582164137
 31
0.0
  0
LINE
  5
4FD
330
20
100
AcDbEntity
  8
0
100
AcDbLine
 10
154.2721752020046
 20
33.23425582164146
 30
0.0
 11
154.9721752020046
 21
32.53425582164141
 31
0.0
  0
LINE
  5
4FE
330
20
100
AcDbEntity
  8
0
100
AcDbLine
 10
158.9721752020046
 20
28.53425582164141
 30
0.0
 11
160.6721752020046
 21
26.83425582164137
 31
0.0
  0
LINE
  5
4FF
330
20
100
AcDbEntity
  8
0
100
AcDbLine
 10
153.5650684208181
 20
33.23425582164146
 30
0.0
 11
154.2650684208179
 21
32.53425582164141
 31
0.0
  0
LINE
  5
500
330
20
100
AcDbEntity
  8
0
100
AcDbLine
 10
158.2650684208179
 20
28.53425582164141
 30
0.0
 11
159.965068420818
 21
26.83425582164137
 31
0.0
  0
LINE
  5
501
330
20
100
AcDbEntity
  8
0
100
AcDbLine
 10
152.8579616396315
 20
33.23425582164146
 30
0.0
 11
153.5579616396315
 21
32.53425582164141
 31
0.0
  0
LINE
  5
502
330
20
100
AcDbEntity
  8
0
100
AcDbLine
 10
157.5579616396315
 20
28.53425582164141
 30
0.0
 11
159.2579616396315
 21
26.83425582164137
 31
0.0
  0
LINE
  5
503
330
20
100
AcDbEntity
  8
0
100
AcDbLine
 10
152.150854858445
 20
33.23425582164146
 30
0.0
 11
152.850854858445
 21
32.53425582164141
 31
0.0
  0
LINE
  5
504
330
20
100
AcDbEntity
  8
0
100
AcDbLine
 10
156.8508548584448
 20
28.53425582164141
 30
0.0
 11
158.5508548584449
 21
26.83425582164137
 31
0.0
  0
LINE
  5
505
330
20
100
AcDbEntity
  8
0
100
AcDbLine
 10
151.4437480772583
 20
33.23425582164146
 30
0.0
 11
152.1437480772584
 21
32.53425582164141
 31
0.0
  0
LINE
  5
506
330
20
100
AcDbEntity
  8
0
100
AcDbLine
 10
156.1437480772584
 20
28.53425582164141
 30
0.0
 11
157.8437480772584
 21
26.83425582164148
 31
0.0
  0
LINE
  5
507
330
20
100
AcDbEntity
  8
0
100
AcDbLine
 10
150.7366412960719
 20
33.23425582164146
 30
0.0
 11
151.4368953332553
 21
32.53400178445804
 31
0.0
  0
LINE
  5
508
330
20
100
AcDbEntity
  8
0
100
AcDbLine
 10
155.4366412960719
 20
28.53425582164141
 30
0.0
 11
157.136641296072
 21
26.83425582164148
 31
0.0
  0
LINE
  5
509
330
20
100
AcDbEntity
  8
0
100
AcDbLine
 10
150.0295345148852
 20
33.23425582164146
 30
0.0
 11
151.0057214500873
 21
32.25806888643933
 31
0.0
  0
LINE
  5
50A
330
20
100
AcDbEntity
  8
0
100
AcDbLine
 10
154.7295345148853
 20
28.53425582164141
 30
0.0
 11
156.4295345148853
 21
26.83425582164148
 31
0.0
  0
LINE
  5
50B
330
20
100
AcDbEntity
  8
0
100
AcDbLine
 10
149.3224277336988
 20
33.23425582164146
 30
0.0
 11
150.8660044158067
 21
31.69067913953347
 31
0.0
  0
LINE
  5
50C
330
20
100
AcDbEntity
  8
0
100
AcDbLine
 10
154.0224277336989
 20
28.53425582164141
 30
0.0
 11
155.7224277336989
 21
26.83425582164148
 31
0.0
  0
LINE
  5
50D
330
20
100
AcDbEntity
  8
0
100
AcDbLine
 10
148.6153209525121
 20
33.23425582164146
 30
0.0
 11
150.7840543457528
 21
31.06552242840087
 31
0.0
  0
LINE
  5
50E
330
20
100
AcDbEntity
  8
0
100
AcDbLine
 10
153.3153209525122
 20
28.53425582164141
 30
0.0
 11
155.0153209525122
 21
26.83425582164148
 31
0.0
  0
LINE
  5
50F
330
20
100
AcDbEntity
  8
0
100
AcDbLine
 10
148.2623068719008
 20
32.88016312106629
 30
0.0
 11
150.7641782800059
 21
30.3782917129613
 31
0.0
  0
LINE
  5
510
330
20
100
AcDbEntity
  8
0
100
AcDbLine
 10
152.6082141713257
 20
28.53425582164141
 30
0.0
 11
154.3082141713258
 21
26.83425582164148
 31
0.0
  0
LINE
  5
511
330
20
100
AcDbEntity
  8
0
100
AcDbLine
 10
148.2623068719008
 20
32.17305633987974
 30
0.0
 11
150.8288566905804
 21
29.60650652120012
 31
0.0
  0
LINE
  5
512
330
20
100
AcDbEntity
  8
0
100
AcDbLine
 10
151.9011073901391
 20
28.53425582164141
 30
0.0
 11
153.6011073901391
 21
26.83425582164148
 31
0.0
  0
LINE
  5
513
330
20
100
AcDbEntity
  8
0
100
AcDbLine
 10
148.2623068719008
 20
31.46594955869318
 30
0.0
 11
152.8940006089527
 21
26.83425582164148
 31
0.0
  0
LINE
  5
514
330
20
100
AcDbEntity
  8
0
100
AcDbLine
 10
148.2623068719008
 20
30.75884277750674
 30
0.0
 11
152.186893827766
 21
26.83425582164148
 31
0.0
  0
LINE
  5
515
330
20
100
AcDbEntity
  8
0
100
AcDbLine
 10
148.2623068719008
 20
30.05173599632008
 30
0.0
 11
151.4797870465793
 21
26.83425582164148
 31
0.0
  0
LINE
  5
516
330
20
100
AcDbEntity
  8
0
100
AcDbLine
 10
148.2623068719008
 20
29.34462921513352
 30
0.0
 11
150.7726802653929
 21
26.83425582164148
 31
0.0
  0
LINE
  5
517
330
20
100
AcDbEntity
  8
0
100
AcDbLine
 10
148.2731031526403
 20
28.62672615320753
 30
0.0
 11
150.0547772034668
 21
26.84505210238103
 31
0.0
  0
LINE
  5
518
330
20
100
AcDbEntity
  8
0
100
AcDbLine
 10
165.5858837009894
 20
33.23425582164134
 30
0.0
 11
166.2623068719009
 21
32.55783265073001
 31
0.0
  0
LINE
  5
519
330
20
100
AcDbEntity
  8
0
100
AcDbLine
 10
159.4137293192703
 20
33.23425582164146
 30
0.0
 11
159.0056181853959
 21
32.82614468776694
 31
0.0
  0
LINE
  5
51A
330
20
100
AcDbEntity
  8
0
100
AcDbLine
 10
158.7066225380838
 20
33.23425582164146
 30
0.0
 11
158.6113796751193
 21
33.13901295867686
 31
0.0
  0
LINE
  5
51B
330
20
100
AcDbEntity
  8
0
100
AcDbLine
 10
155.8781954133376
 20
33.23425582164146
 30
0.0
 11
155.1781954133376
 21
32.53425582164141
 31
0.0
  0
LINE
  5
51C
330
20
100
AcDbEntity
  8
0
100
AcDbLine
 10
155.171088632151
 20
33.23425582164146
 30
0.0
 11
154.4710886321511
 21
32.53425582164141
 31
0.0
  0
LINE
  5
51D
330
20
100
AcDbEntity
  8
0
100
AcDbLine
 10
154.4639818509645
 20
33.23425582164146
 30
0.0
 11
153.7639818509645
 21
32.53425582164141
 31
0.0
  0
LINE
  5
51E
330
20
100
AcDbEntity
  8
0
100
AcDbLine
 10
164.878776919803
 20
33.23425582164134
 30
0.0
 11
166.2623068719009
 21
31.85072586954345
 31
0.0
  0
LINE
  5
51F
330
20
100
AcDbEntity
  8
0
100
AcDbLine
 10
164.1716701386163
 20
33.23425582164134
 30
0.0
 11
166.2623068719009
 21
31.1436190883569
 31
0.0
  0
LINE
  5
520
330
20
100
AcDbEntity
  8
0
100
AcDbLine
 10
153.7568750697779
 20
33.23425582164146
 30
0.0
 11
153.056875069778
 21
32.53425582164141
 31
0.0
  0
LINE
  5
521
330
20
100
AcDbEntity
  8
0
100
AcDbLine
 10
163.4645633574299
 20
33.23425582164134
 30
0.0
 11
166.2623068719009
 21
30.43651230717035
 31
0.0
  0
LINE
  5
522
330
20
100
AcDbEntity
  8
0
100
AcDbLine
 10
153.0497682885914
 20
33.23425582164146
 30
0.0
 11
152.3497682885914
 21
32.53425582164141
 31
0.0
  0
LINE
  5
523
330
20
100
AcDbEntity
  8
0
100
AcDbLine
 10
152.3426615074048
 20
33.23425582164146
 30
0.0
 11
151.6426615074049
 21
32.53425582164141
 31
0.0
  0
LINE
  5
524
330
20
100
AcDbEntity
  8
0
100
AcDbLine
 10
162.0503497950565
 20
33.23425582164146
 30
0.0
 11
162.7503497950566
 21
32.53425582164141
 31
0.0
  0
LINE
  5
525
330
20
100
AcDbEntity
  8
0
100
AcDbLine
 10
151.6355547262183
 20
33.23425582164146
 30
0.0
 11
148.2623068719008
 21
29.86100796732387
 31
0.0
  0
LINE
  5
526
330
20
100
AcDbEntity
  8
0
100
AcDbLine
 10
162.7574565762432
 20
33.23425582164146
 30
0.0
 11
166.2623068719009
 21
29.72940552598379
 31
0.0
  0
LINE
  5
527
330
20
100
AcDbEntity
  8
0
100
AcDbLine
 10
161.3432430138701
 20
33.23425582164146
 30
0.0
 11
162.0432430138701
 21
32.53425582164141
 31
0.0
  0
LINE
  5
528
330
20
100
AcDbEntity
  8
0
100
AcDbLine
 10
150.9284479450319
 20
33.23425582164146
 30
0.0
 11
148.2623068719008
 21
30.56811474851043
 31
0.0
  0
LINE
  5
529
330
20
100
AcDbEntity
  8
0
100
AcDbLine
 10
160.6361362326834
 20
33.23425582164146
 30
0.0
 11
161.3361362326835
 21
32.53425582164141
 31
0.0
  0
LINE
  5
52A
330
20
100
AcDbEntity
  8
0
100
AcDbLine
 10
150.2213411638452
 20
33.23425582164146
 30
0.0
 11
148.2623068719008
 21
31.27522152969698
 31
0.0
  0
LINE
  5
52B
330
20
100
AcDbEntity
  8
0
100
AcDbLine
 10
159.929029451497
 20
33.23425582164146
 30
0.0
 11
160.629029451497
 21
32.53425582164141
 31
0.0
  0
LINE
  5
52C
330
20
100
AcDbEntity
  8
0
100
AcDbLine
 10
149.5142343826588
 20
33.23425582164146
 30
0.0
 11
148.2623068719008
 21
31.98232831088353
 31
0.0
  0
LINE
  5
52D
330
20
100
AcDbEntity
  8
0
100
AcDbLine
 10
159.2219226703105
 20
33.23425582164146
 30
0.0
 11
159.9219226703104
 21
32.53425582164141
 31
0.0
  0
LINE
  5
52E
330
20
100
AcDbEntity
  8
0
100
AcDbLine
 10
148.8071276014721
 20
33.23425582164146
 30
0.0
 11
148.2623068719008
 21
32.68943509207009
 31
0.0
  0
LINE
  5
52F
330
20
100
AcDbEntity
  8
0
100
AcDbLine
 10
158.5148158891239
 20
33.23425582164146
 30
0.0
 11
158.6077131317382
 21
33.14135857902716
 31
0.0
  0
LINE
  5
530
330
20
100
AcDbEntity
  8
0
100
AcDbLine
 10
155.6863887643777
 20
33.23425582164146
 30
0.0
 11
155.8343390739871
 21
33.08630551203191
 31
0.0
  0
LINE
  5
531
330
20
100
AcDbEntity
  8
0
100
AcDbLine
 10
162.2623068846078
 20
46.7630123769644
 30
0.0
 11
162.2623068846078
 21
46.83425582164146
 31
0.0
  0
LINE
  5
532
330
20
100
AcDbEntity
  8
0
100
AcDbLine
 10
152.2623068846079
 20
46.7630123769644
 30
0.0
 11
152.2623068846079
 21
46.83425582164146
 31
0.0
  0
LINE
  5
533
330
20
100
AcDbEntity
  8
T
  6
C5
100
AcDbLine
 10
250.0671685070001
 20
137.1663151019489
 30
0.0
 11
218.0671685070001
 21
137.1663151019489
 31
0.0
  0
LINE
  5
534
330
20
100
AcDbEntity
  8
T
  6
C5
100
AcDbLine
 10
234.0671685070001
 20
153.1663151019489
 30
0.0
 11
234.0671685070001
 21
121.1663151019489
 31
0.0
  0
CIRCLE
  5
535
330
20
100
AcDbEntity
  8
0
100
AcDbCircle
 10
234.0671685070001
 20
137.1663151019489
 30
0.0
 40
11.0
  0
CIRCLE
  5
536
330
20
100
AcDbEntity
  8
0
100
AcDbCircle
 10
219.0671685070001
 20
122.1663151019489
 30
0.0
 40
2.2
  0
CIRCLE
  5
537
330
20
100
AcDbEntity
  8
0
100
AcDbCircle
 10
247.0671685070001
 20
122.1663151019489
 30
0.0
 40
2.2
  0
CIRCLE
  5
538
330
20
100
AcDbEntity
  8
0
100
AcDbCircle
 10
247.0671685070001
 20
145.6663151019489
 30
0.0
 40
2.2
  0
ARC
  5
539
330
20
100
AcDbEntity
  8
0
100
AcDbCircle
 10
247.0671685070001
 20
145.6663151019489
 30
0.0
 40
5.0
100
AcDbArc
 50
0.0
 51
90.0
  0
ARC
  5
53A
330
20
100
AcDbEntity
  8
0
100
AcDbCircle
 10
247.0671685070001
 20
122.1663151019489
 30
0.0
 40
5.0
100
AcDbArc
 50
270.0
 51
0.0
  0
ARC
  5
53B
330
20
100
AcDbEntity
  8
0
100
AcDbCircle
 10
219.0671685070001
 20
122.1663151019489
 30
0.0
 40
5.0
100
AcDbArc
 50
180.0
 51
270.0
  0
ARC
  5
53C
330
20
100
AcDbEntity
  8
0
100
AcDbCircle
 10
234.0671685070001
 20
137.1663151019489
 30
0.0
 40
20.0
100
AcDbArc
 50
145.4818921589387
 51
180.0
  0
LINE
  5
53D
330
20
100
AcDbEntity
  8
0
100
AcDbLine
 10
214.0671685070001
 20
122.1663151019489
 30
0.0
 11
214.0671685070001
 21
137.1663151019489
 31
0.0
  0
LINE
  5
53E
330
20
100
AcDbEntity
  8
0
100
AcDbLine
 10
247.0671685070001
 20
150.6663151019489
 30
0.0
 11
221.707961412692
 21
150.6663151019489
 31
0.0
  0
LINE
  5
53F
330
20
100
AcDbEntity
  8
0
100
AcDbLine
 10
252.0671685070001
 20
122.1663151019489
 30
0.0
 11
252.0671685070001
 21
145.6663151019489
 31
0.0
  0
LINE
  5
540
330
20
100
AcDbEntity
  8
0
100
AcDbLine
 10
247.0671685070001
 20
117.1663151019489
 30
0.0
 11
219.0671685070001
 21
117.1663151019489
 31
0.0
  0
ARC
  5
541
330
20
100
AcDbEntity
  8
0
100
AcDbCircle
 10
221.707961412692
 20
145.6663151019489
 30
0.0
 40
5.0
100
AcDbArc
 50
90.0
 51
145.4818921589387
  0
LINE
  5
542
330
20
100
AcDbEntity
  8
0
100
AcDbLine
 10
252.0671685070001
 20
165.1148396997177
 30
0.0
 11
252.0671685070001
 21
167.1148396997178
 31
0.0
  0
LINE
  5
543
330
20
100
AcDbEntity
  8
0
100
AcDbLine
 10
214.0671685070001
 20
165.1148396997177
 30
0.0
 11
214.0671685070001
 21
167.1148396997178
 31
0.0
  0
LINE
  5
544
330
20
100
AcDbEntity
  8
0
100
AcDbLine
 10
252.0671685070001
 20
165.1148396997177
 30
0.0
 11
214.0671685070001
 21
165.1148396997177
 31
0.0
  0
LINE
  5
545
330
20
100
AcDbEntity
  8
0
100
AcDbLine
 10
252.0671685070001
 20
167.1148396997178
 30
0.0
 11
214.0671685070001
 21
167.1148396997178
 31
0.0
  0
CIRCLE
  5
57D
330
20
100
AcDbEntity
  8
0
100
AcDbCircle
 10
334.7782465474602
 20
153.2259915760221
 30
0.0
 40
2.0
  0
CIRCLE
  5
57E
330
20
100
AcDbEntity
  8
0
100
AcDbCircle
 10
306.7782465474601
 20
153.2259915760221
 30
0.0
 40
2.0
  0
CIRCLE
  5
57F
330
20
100
AcDbEntity
  8
0
100
AcDbCircle
 10
306.7782465474601
 20
176.7259915760221
 30
0.0
 40
2.0
  0
CIRCLE
  5
580
330
20
100
AcDbEntity
  8
0
  6
H5
100
AcDbCircle
 10
334.7782465474602
 20
153.2259915760221
 30
0.0
 40
2.799999999999998
  0
CIRCLE
  5
581
330
20
100
AcDbEntity
  8
0
  6
H5
100
AcDbCircle
 10
306.7782465474601
 20
153.2259915760221
 30
0.0
 40
2.799999999999998
  0
CIRCLE
  5
582
330
20
100
AcDbEntity
  8
0
  6
H5
100
AcDbCircle
 10
306.7782465474601
 20
176.7259915760221
 30
0.0
 40
2.799999999999998
  0
LINE
  5
583
330
20
100
AcDbEntity
  8
0
100
AcDbLine
 10
341.7782465474601
 20
181.7259915760221
 30
0.0
 11
341.7782465474601
 21
148.2259915760221
 31
0.0
  0
LINE
  5
584
330
20
100
AcDbEntity
  8
0
100
AcDbLine
 10
350.7782465474601
 20
148.2259915760221
 30
0.0
 11
290.7782465474601
 21
148.2259915760221
 31
0.0
  0
LINE
  5
585
330
20
100
AcDbEntity
  8
0
100
AcDbLine
 10
299.7782465474601
 20
148.2259915760221
 30
0.0
 11
299.7782465474601
 21
181.7259915760221
 31
0.0
  0
LINE
  5
586
330
20
100
AcDbEntity
  8
0
100
AcDbLine
 10
290.7782465474601
 20
181.7259915760221
 30
0.0
 11
350.7782465474601
 21
181.7259915760221
 31
0.0
  0
LINE
  5
587
330
20
100
AcDbEntity
  8
0
100
AcDbLine
 10
351.7782465474601
 20
180.7259915760221
 30
0.0
 11
351.7782465474601
 21
149.2259915760221
 31
0.0
  0
LINE
  5
588
330
20
100
AcDbEntity
  8
0
100
AcDbLine
 10
289.7782465474601
 20
149.2259915760221
 30
0.0
 11
289.7782465474601
 21
180.7259915760221
 31
0.0
  0
LINE
  5
589
330
20
100
AcDbEntity
  8
0
  6
H5
100
AcDbLine
 10
340.9782465474602
 20
181.7259915760221
 30
0.0
 11
340.9782465474602
 21
148.2259915760221
 31
0.0
  0
LINE
  5
58A
330
20
100
AcDbEntity
  8
0
  6
H5
100
AcDbLine
 10
300.5782465474601
 20
148.2259915760221
 30
0.0
 11
300.5782465474601
 21
181.7259915760221
 31
0.0
  0
LINE
  5
58B
330
20
100
AcDbEntity
  8
0
100
AcDbLine
 10
350.7782465474601
 20
181.7259915760221
 30
0.0
 11
351.7782465474601
 21
180.7259915760221
 31
0.0
  0
LINE
  5
58C
330
20
100
AcDbEntity
  8
0
100
AcDbLine
 10
351.7782465474601
 20
149.2259915760221
 30
0.0
 11
350.7782465474601
 21
148.2259915760221
 31
0.0
  0
LINE
  5
58D
330
20
100
AcDbEntity
  8
0
100
AcDbLine
 10
290.7782465474601
 20
148.2259915760221
 30
0.0
 11
289.7782465474601
 21
149.2259915760221
 31
0.0
  0
LINE
  5
58E
330
20
100
AcDbEntity
  8
0
100
AcDbLine
 10
289.7782465474601
 20
180.7259915760221
 30
0.0
 11
290.7782465474601
 21
181.7259915760221
 31
0.0
  0
LINE
  5
58F
330
20
100
AcDbEntity
  8
0
100
AcDbLine
 10
340.9782465474602
 20
124.6089320874764
 30
0.0
 11
300.5782465474601
 21
124.6089320874761
 31
0.0
  0
LINE
  5
590
330
20
100
AcDbEntity
  8
0
100
AcDbLine
 10
340.9782465474602
 20
125.4089320874764
 30
0.0
 11
300.5782465474601
 21
125.4089320874761
 31
0.0
  0
LINE
  5
591
330
20
100
AcDbEntity
  8
0
100
AcDbLine
 10
337.5782465474602
 20
123.8089320874763
 30
0.0
 11
337.5782465474602
 21
124.6089320874763
 31
0.0
  0
LINE
  5
592
330
20
100
AcDbEntity
  8
0
100
AcDbLine
 10
331.9782465474602
 20
123.8089320874763
 30
0.0
 11
331.9782465474602
 21
124.6089320874763
 31
0.0
  0
LINE
  5
593
330
20
100
AcDbEntity
  8
0
100
AcDbLine
 10
337.5782465474602
 20
123.8089320874763
 30
0.0
 11
331.9782465474602
 21
123.8089320874763
 31
0.0
  0
LINE
  5
594
330
20
100
AcDbEntity
  8
0
100
AcDbLine
 10
309.5782465474601
 20
123.8089320874762
 30
0.0
 11
303.9782465474602
 21
123.8089320874762
 31
0.0
  0
LINE
  5
595
330
20
100
AcDbEntity
  8
0
100
AcDbLine
 10
303.9782465474602
 20
123.8089320874762
 30
0.0
 11
303.9782465474602
 21
124.6089320874762
 31
0.0
  0
LINE
  5
596
330
20
100
AcDbEntity
  8
0
100
AcDbLine
 10
309.5782465474601
 20
123.8089320874762
 30
0.0
 11
309.5782465474601
 21
124.6089320874762
 31
0.0
  0
LINE
  5
597
330
20
100
AcDbEntity
  8
0
100
AcDbLine
 10
340.9782465474602
 20
102.2089320874762
 30
0.0
 11
340.9782465474602
 21
124.6089320874764
 31
0.0
  0
LINE
  5
598
330
20
100
AcDbEntity
  8
0
100
AcDbLine
 10
300.5782465474601
 20
102.2089320874763
 30
0.0
 11
300.5782465474601
 21
124.6089320874761
 31
0.0
  0
LINE
  5
599
330
20
100
AcDbEntity
  8
0
100
AcDbLine
 10
341.7782465474601
 20
102.2089320874762
 30
0.0
 11
341.7782465474601
 21
124.6089320874764
 31
0.0
  0
LINE
  5
59A
330
20
100
AcDbEntity
  8
0
100
AcDbLine
 10
299.7782465474601
 20
102.2089320874763
 30
0.0
 11
299.7782465474601
 21
124.6089320874761
 31
0.0
  0
ARC
  5
59B
330
20
100
AcDbEntity
  8
0
100
AcDbCircle
 10
340.9782465474602
 20
124.6089320874764
 30
0.0
 40
0.8
100
AcDbArc
 50
0.0
 51
90.00000000000026
  0
ARC
  5
59C
330
20
100
AcDbEntity
  8
0
100
AcDbCircle
 10
300.5782465474601
 20
124.6089320874761
 30
0.0
 40
0.8
100
AcDbArc
 50
90.0000000000003
 51
180.0
  0
LINE
  5
59D
330
20
100
AcDbEntity
  8
0
100
AcDbLine
 10
351.7782465474601
 20
101.4089320874763
 30
0.0
 11
351.7782465474601
 21
102.2089320874762
 31
0.0
  0
LINE
  5
59E
330
20
100
AcDbEntity
  8
0
100
AcDbLine
 10
289.7782465474601
 20
101.4089320874763
 30
0.0
 11
289.7782465474601
 21
102.2089320874763
 31
0.0
  0
LINE
  5
59F
330
20
100
AcDbEntity
  8
0
100
AcDbLine
 10
351.7782465474601
 20
102.2089320874762
 30
0.0
 11
341.7782465474601
 21
102.2089320874762
 31
0.0
  0
LINE
  5
5A0
330
20
100
AcDbEntity
  8
0
100
AcDbLine
 10
351.7782465474601
 20
101.4089320874763
 30
0.0
 11
341.7782465474601
 21
101.4089320874762
 31
0.0
  0
LINE
  5
5A1
330
20
100
AcDbEntity
  8
0
100
AcDbLine
 10
299.7782465474601
 20
101.4089320874763
 30
0.0
 11
289.7782465474601
 21
101.4089320874763
 31
0.0
  0
LINE
  5
5A2
330
20
100
AcDbEntity
  8
0
100
AcDbLine
 10
299.7782465474601
 20
102.2089320874763
 30
0.0
 11
289.7782465474601
 21
102.2089320874763
 31
0.0
  0
ARC
  5
5A3
330
20
100
AcDbEntity
  8
0
100
AcDbCircle
 10
341.7782465474601
 20
102.2089320874762
 30
0.0
 40
0.8
100
AcDbArc
 50
180.0
 51
270.0000000000001
  0
ARC
  5
5A4
330
20
100
AcDbEntity
  8
0
100
AcDbCircle
 10
299.7782465474601
 20
102.2089320874763
 30
0.0
 40
0.8
100
AcDbArc
 50
270.0
 51
0.0
  0
LINE
  5
5A5
330
20
100
AcDbEntity
  8
T
100
AcDbLine
 10
304.2782465474601
 20
168.2259915760221
 30
0.0
 11
335.2782465474601
 21
168.2259915760221
 31
0.0
  0
LINE
  5
5A6
330
20
100
AcDbEntity
  8
T
100
AcDbLine
 10
319.7782465474601
 20
152.7259915760221
 30
0.0
 11
319.7782465474601
 21
183.7259915760221
 31
0.0
  0
CIRCLE
  5
5C4
330
20
100
AcDbEntity
  8
0
100
AcDbCircle
 10
319.7782465474601
 20
168.2259915760221
 30
0.0
 40
11.0
  0
LINE
  5
5C8
330
20
100
AcDbEntity
  8
0
100
AcDbLine
 10
167.1702979134915
 20
114.4913281108461
 30
0.0
 11
167.4908750500855
 21
114.4913281108461
 31
0.0
  0
LINE
  5
5C9
330
20
100
AcDbEntity
  8
0
100
AcDbLine
 10
169.1702979134913
 20
114.9413281108461
 30
0.0
 11
170.6702979134913
 21
114.9413281108461
 31
0.0
  0
LINE
  5
5CA
330
20
100
AcDbEntity
  8
0
100
AcDbLine
 10
167.4908750500855
 20
136.9913281108461
 30
0.0
 11
167.4908750500855
 21
114.4913281108461
 31
0.0
  0
LINE
  5
5CB
330
20
100
AcDbEntity
  8
0
100
AcDbLine
 10
165.4908750500855
 20
136.9913281108461
 30
0.0
 11
165.4908750500855
 21
114.4913281108461
 31
0.0
  0
LINE
  5
5CC
330
20
100
AcDbEntity
  8
0
100
AcDbLine
 10
167.1702979134913
 20
114.9413281108461
 30
0.0
 11
165.4908750500855
 21
114.4913281108461
 31
0.0
  0
LINE
  5
5CD
330
20
100
AcDbEntity
  8
0
100
AcDbLine
 10
169.1702979134913
 20
114.9413281108461
 30
0.0
 11
167.4908750500855
 21
114.4913281108461
 31
0.0
  0
LINE
  5
5CE
330
20
100
AcDbEntity
  8
0
100
AcDbLine
 10
165.1702979134915
 20
136.9913281108461
 30
0.0
 11
165.1702979134913
 21
114.4913281108461
 31
0.0
  0
LINE
  5
5CF
330
20
100
AcDbEntity
  8
0
100
AcDbLine
 10
167.1702979134913
 20
136.9913281108461
 30
0.0
 11
167.1702979134913
 21
114.4913281108461
 31
0.0
  0
LINE
  5
5D0
330
20
100
AcDbEntity
  8
0
100
AcDbLine
 10
169.1702979134913
 20
136.5413281108461
 30
0.0
 11
169.1702979134913
 21
114.9413281108461
 31
0.0
  0
LINE
  5
5D1
330
20
100
AcDbEntity
  8
0
100
AcDbLine
 10
165.1702979134913
 20
114.4913281108461
 30
0.0
 11
165.4908750500855
 21
114.4913281108461
 31
0.0
  0
LINE
  5
5D2
330
20
100
AcDbEntity
  8
0
100
AcDbLine
 10
170.6702979134913
 20
114.9413281108461
 30
0.0
 11
170.6702979134915
 21
136.5413281108461
 31
0.0
  0
LINE
  5
5D3
330
20
100
AcDbEntity
  8
0
100
AcDbLine
 10
170.6702979134913
 20
114.9413281108461
 30
0.0
 11
171.1702979134913
 21
115.4413281108461
 31
0.0
  0
LINE
  5
5D4
330
20
100
AcDbEntity
  8
0
100
AcDbLine
 10
171.1702979134913
 20
135.7413281108461
 30
0.0
 11
171.1702979134913
 21
115.4413281108461
 31
0.0
  0
LINE
  5
5D5
330
20
100
AcDbEntity
  8
0
100
AcDbLine
 10
161.1702979134915
 20
139.141328110846
 30
0.0
 11
161.1702979134915
 21
112.3413281108461
 31
0.0
  0
LINE
  5
5D6
330
20
100
AcDbEntity
  8
0
100
AcDbLine
 10
161.1702979134915
 20
114.9413281108461
 30
0.0
 11
165.1702979134913
 21
114.9413281108461
 31
0.0
  0
ARC
  5
5D7
330
20
100
AcDbEntity
  8
0
100
AcDbCircle
 10
160.1702979134915
 20
114.3413281108461
 30
0.0
 40
2.0
100
AcDbArc
 50
180.0000000000001
 51
270.0
  0
LINE
  5
5D8
330
20
100
AcDbEntity
  8
0
100
AcDbLine
 10
160.1702979134915
 20
112.3413281108461
 30
0.0
 11
161.1702979134915
 21
112.3413281108461
 31
0.0
  0
LINE
  5
5D9
330
20
100
AcDbEntity
  8
0
100
AcDbLine
 10
158.1702979134913
 20
137.141328110846
 30
0.0
 11
158.1702979134915
 21
114.3413281108461
 31
0.0
  0
CIRCLE
  5
5DA
330
20
100
AcDbEntity
  8
0
100
AcDbCircle
 10
133.146852776377
 20
125.7413281108461
 30
0.0
 40
10.0
  0
LINE
  5
5DB
330
20
100
AcDbEntity
  8
T
100
AcDbLine
 10
190.6911408637946
 20
125.7413281108461
 30
0.0
 11
113.5569364943969
 21
125.7413281108461
 31
0.0
  0
CIRCLE
  5
5EF
330
20
100
AcDbEntity
  8
0
100
AcDbCircle
 10
133.146852776377
 20
125.7413281108461
 30
0.0
 40
13.4
  0
LINE
  5
5F6
330
20
100
AcDbEntity
  8
0
100
AcDbLine
 10
160.1702979134915
 20
139.141328110846
 30
0.0
 11
161.1702979134915
 21
139.141328110846
 31
0.0
  0
ARC
  5
5F7
330
20
100
AcDbEntity
  8
0
100
AcDbCircle
 10
160.1702979134915
 20
137.141328110846
 30
0.0
 40
2.0
100
AcDbArc
 50
90.0
 51
180.0
  0
LINE
  5
5F8
330
20
100
AcDbEntity
  8
0
100
AcDbLine
 10
161.1702979134915
 20
136.541328110846
 30
0.0
 11
165.1702979134913
 21
136.541328110846
 31
0.0
  0
LINE
  5
5F9
330
20
100
AcDbEntity
  8
0
100
AcDbLine
 10
170.6702979134913
 20
136.5413281108461
 30
0.0
 11
171.1702979134913
 21
136.0413281108461
 31
0.0
  0
LINE
  5
5FA
330
20
100
AcDbEntity
  8
0
100
AcDbLine
 10
165.1702979134913
 20
136.9913281108461
 30
0.0
 11
165.4908750500855
 21
136.9913281108461
 31
0.0
  0
LINE
  5
5FB
330
20
100
AcDbEntity
  8
0
100
AcDbLine
 10
169.1702979134913
 20
136.5413281108461
 30
0.0
 11
167.4908750500855
 21
136.9913281108461
 31
0.0
  0
LINE
  5
5FC
330
20
100
AcDbEntity
  8
0
100
AcDbLine
 10
167.1702979134913
 20
136.541328110846
 30
0.0
 11
165.4908750500855
 21
136.9913281108461
 31
0.0
  0
LINE
  5
5FD
330
20
100
AcDbEntity
  8
0
100
AcDbLine
 10
169.1702979134913
 20
136.5413281108461
 30
0.0
 11
170.6702979134913
 21
136.5413281108461
 31
0.0
  0
LINE
  5
5FE
330
20
100
AcDbEntity
  8
0
100
AcDbLine
 10
167.1702979134915
 20
136.9913281108461
 30
0.0
 11
167.4908750500855
 21
136.9913281108461
 31
0.0
  0
INSERT
  5
669
330
20
100
AcDbEntity
  8
0
100
AcDbBlockReference
  2
SUG-AR01
 10
81.24878100083106
 20
204.0429687949991
 30
0.0
 41
0.5
 42
0.5
 43
0.5
 50
352.2529017650343
  0
LINE
  5
682
330
20
100
AcDbEntity
  8
0
100
AcDbLine
 10
159.0671874436261
 20
218.9615584916904
 30
0.0
 11
161.0671874436261
 21
218.9615584916904
 31
0.0
  0
LINE
  5
683
330
20
100
AcDbEntity
  8
0
100
AcDbLine
 10
161.0671874436258
 20
185.4615584916904
 30
0.0
 11
161.0671874436261
 21
218.9615584916904
 31
0.0
  0
ARC
  5
684
330
20
100
AcDbEntity
  8
0
100
AcDbCircle
 10
154.2671874436259
 20
218.4615584916904
 30
0.0
 40
0.5
100
AcDbArc
 50
90.0
 51
180.0000000000002
  0
LINE
  5
685
330
20
100
AcDbEntity
  8
0
100
AcDbLine
 10
159.0671874436261
 20
218.9615584916904
 30
0.0
 11
154.2671874436259
 21
218.9615584916904
 31
0.0
  0
ARC
  5
686
330
20
100
AcDbEntity
  8
0
100
AcDbCircle
 10
126.4671874436259
 20
213.2115584916904
 30
0.0
 40
0.5
100
AcDbArc
 50
90.0
 51
180.0
  0
ARC
  5
687
330
20
100
AcDbEntity
  8
0
100
AcDbCircle
 10
126.4671874436259
 20
197.7115584916904
 30
0.0
 40
0.5
100
AcDbArc
 50
180.0
 51
270.0
  0
LINE
  5
688
330
20
100
AcDbEntity
  8
0
100
AcDbLine
 10
125.9671874436259
 20
213.2115584916904
 30
0.0
 11
125.9671874436259
 21
197.7115584916904
 31
0.0
  0
LINE
  5
689
330
20
100
AcDbEntity
  8
0
100
AcDbLine
 10
161.5671874436261
 20
206.7115584916904
 30
0.0
 11
161.5671874436261
 21
209.2115584916904
 31
0.0
  0
LINE
  5
68A
330
20
100
AcDbEntity
  8
0
100
AcDbLine
 10
161.5671874436261
 20
206.7115584916904
 30
0.0
 11
161.0671874436258
 21
206.7115584916904
 31
0.0
  0
LINE
  5
68B
330
20
100
AcDbEntity
  8
0
100
AcDbLine
 10
161.5671874436261
 20
209.2115584916904
 30
0.0
 11
161.0671874436258
 21
209.2115584916904
 31
0.0
  0
ARC
  5
68C
330
20
100
AcDbEntity
  8
0
100
AcDbCircle
 10
153.2671874436259
 20
215.8615584916905
 30
0.0
 40
0.5
100
AcDbArc
 50
270.0
 51
0.0000000000002163
  0
ARC
  5
68D
330
20
100
AcDbEntity
  8
0
100
AcDbCircle
 10
153.2671874436261
 20
195.0615584916904
 30
0.0
 40
0.5
100
AcDbArc
 50
0.0000000000002544
 51
90.0
  0
ARC
  5
68E
330
20
100
AcDbEntity
  8
0
100
AcDbCircle
 10
126.9671874436259
 20
214.8615584916905
 30
0.0
 40
0.5
100
AcDbArc
 50
90.0
 51
180.0
  0
ARC
  5
68F
330
20
100
AcDbEntity
  8
0
100
AcDbCircle
 10
126.9671874436259
 20
196.0615584916904
 30
0.0
 40
0.5
100
AcDbArc
 50
180.0
 51
270.0
  0
LINE
  5
690
330
20
100
AcDbEntity
  8
0
100
AcDbLine
 10
126.4671874436259
 20
214.8615584916905
 30
0.0
 11
126.4671874436259
 21
196.0615584916904
 31
0.0
  0
LINE
  5
691
330
20
100
AcDbEntity
  8
0
100
AcDbLine
 10
126.9671874436259
 20
215.3615584916905
 30
0.0
 11
153.2671874436259
 21
215.3615584916905
 31
0.0
  0
LINE
  5
692
330
20
100
AcDbEntity
  8
0
100
AcDbLine
 10
126.9671874436259
 20
195.5615584916904
 30
0.0
 11
153.2671874436261
 21
195.5615584916904
 31
0.0
  0
LINE
  5
693
330
20
100
AcDbEntity
  8
0
100
AcDbLine
 10
153.7671874436261
 20
185.9615584916904
 30
0.0
 11
153.7671874436259
 21
218.4615584916904
 31
0.0
  0
LINE
  5
694
330
20
100
AcDbEntity
  8
0
100
AcDbLine
 10
159.0671874436258
 20
185.4615584916904
 30
0.0
 11
159.0671874436261
 21
218.9615584916904
 31
0.0
  0
TEXT
  5
698
330
20
100
AcDbEntity
  8
0
100
AcDbText
 10
73.59094860245017
 20
211.4625935370909
 30
0.0
 40
1.5
  1
AAAAA0
 50
315.0
  7
SIMPLEX
100
AcDbText
  0
LINE
  5
6A8
330
20
100
AcDbEntity
  8
T
100
AcDbLine
 10
74.21183870687428
 20
221.9615584916904
 30
0.0
 11
74.21183870687428
 21
188.9615584916904
 31
0.0
  0
LINE
  5
6A9
330
20
100
AcDbEntity
  8
0
100
AcDbLine
 10
87.21183870687429
 20
218.9615584916904
 30
0.0
 11
85.21183870687513
 21
218.9615584916904
 31
0.0
  0
ARC
  5
6AA
330
20
100
AcDbEntity
  8
0
100
AcDbCircle
 10
87.21183870687429
 20
213.9615584916904
 30
0.0
 40
5.0
100
AcDbArc
 50
0.0
 51
89.99999999999998
  0
CIRCLE
  5
6AB
330
20
100
AcDbEntity
  8
0
100
AcDbCircle
 10
87.21183870687429
 20
213.9615584916904
 30
0.0
 40
2.1
  0
LINE
  5
6AC
330
20
100
AcDbEntity
  8
0
100
AcDbLine
 10
92.21183870687427
 20
190.4615584916904
 30
0.0
 11
92.21183870687427
 21
213.9615584916904
 31
0.0
  0
CIRCLE
  5
6AD
330
20
100
AcDbEntity
  8
0
100
AcDbCircle
 10
74.21183870687428
 20
205.4615584916904
 30
0.0
 40
8.5
  0
CIRCLE
  5
6AE
330
20
100
AcDbEntity
  8
0
100
AcDbCircle
 10
74.21183870687428
 20
205.4615584916904
 30
0.0
 40
9.9
  0
CIRCLE
  5
6AF
330
20
100
AcDbEntity
  8
0
100
AcDbCircle
 10
74.21183870687428
 20
205.4615584916904
 30
0.0
 40
8.25
  0
LINE
  5
6B0
330
20
100
AcDbEntity
  8
0
100
AcDbLine
 10
69.29744657762774
 20
208.6081836679704
 30
0.0
 11
77.3584638831543
 21
200.5471663624439
 31
0.0
  0
LINE
  5
6B1
330
20
100
AcDbEntity
  8
0
100
AcDbLine
 10
71.06521353059419
 20
210.3759506209369
 30
0.0
 11
79.12623083612072
 21
202.3149333154103
 31
0.0
  0
LINE
  5
6B2
330
20
100
AcDbEntity
  8
0
100
AcDbLine
 10
77.71201727374762
 20
203.7291468777834
 30
0.0
 11
75.94425032078118
 21
201.961379924817
 31
0.0
  0
LINE
  5
6B3
330
20
100
AcDbEntity
  8
0
100
AcDbLine
 10
72.47942709296729
 20
208.9617370585638
 30
0.0
 11
70.71166014000084
 21
207.1939701055973
 31
0.0
  0
LINE
  5
6B4
330
20
100
AcDbEntity
  8
0
100
AcDbLine
 10
71.06521353059419
 20
210.3759506209369
 30
0.0
 11
69.29744657762774
 21
208.6081836679704
 31
0.0
  0
LINE
  5
6B5
330
20
100
AcDbEntity
  8
0
100
AcDbLine
 10
79.12623083612072
 20
202.3149333154103
 30
0.0
 11
77.3584638831543
 21
200.5471663624439
 31
0.0
  0
ARC
  5
6B6
330
20
100
AcDbEntity
  8
0
100
AcDbCircle
 10
74.21183870687423
 20
205.4615584916904
 30
0.0
 40
2.25
100
AcDbArc
 50
168.74898859589
 51
281.2510114041099
  0
ARC
  5
6B7
330
20
100
AcDbEntity
  8
0
100
AcDbCircle
 10
74.21183870687423
 20
205.4615584916904
 30
0.0
 40
2.25
100
AcDbArc
 50
348.7489885958888
 51
101.2510114041112
  0
LINE
  5
6B8
330
20
100
AcDbEntity
  8
0
  6
P4
100
AcDbLine
 10
74.21183870687428
 20
232.2288854796693
 30
0.0
 11
74.21183870687428
 21
239.4615584916904
 31
0.0
  0
LINE
  5
6B9
330
20
100
AcDbEntity
  8
0
  6
P4
100
AcDbLine
 10
84.21183870687428
 20
218.9615584916904
 30
0.0
 11
84.21183870687428
 21
243.155538390442
 31
0.0
  0
LINE
  5
6BA
330
20
100
AcDbEntity
  8
0
  6
P4
100
AcDbLine
 10
64.21183870687428
 20
212.0948080724014
 30
0.0
 11
64.21183870687428
 21
227.2474125914213
 31
0.0
  0
LINE
  5
6BB
330
20
100
AcDbEntity
  8
0
  6
P4
100
AcDbLine
 10
73.47065775197683
 20
231.2629596533803
 30
0.0
 11
65.69420061666921
 21
229.1792642439993
 31
0.0
  0
ARC
  5
6BC
330
20
100
AcDbEntity
  8
0
  6
P4
100
AcDbCircle
 10
66.21183870687429
 20
227.2474125914213
 30
0.0
 40
2.0
100
AcDbArc
 50
105.0
 51
180.0
  0
ARC
  5
6BD
330
20
100
AcDbEntity
  8
0
  6
P4
100
AcDbCircle
 10
73.21183870687429
 20
239.4615584916904
 30
0.0
 40
1.0
100
AcDbArc
 50
0.0
 51
90.0
  0
ARC
  5
6BE
330
20
100
AcDbEntity
  8
0
  6
P4
100
AcDbCircle
 10
73.21183870687429
 20
232.2288854796693
 30
0.0
 40
1.0
100
AcDbArc
 50
285.0
 51
0.0
  0
ARC
  5
6C5
330
20
100
AcDbEntity
  8
0
  6
P4
100
AcDbCircle
 10
79.21183870687428
 20
243.1311748953651
 30
0.0
 40
5.0
100
AcDbArc
 50
0.0
 51
82.43915682332785
  0
LINE
  5
6C6
330
20
100
AcDbEntity
  8
0
100
AcDbLine
 10
74.21183870687428
 20
217.4615584916904
 30
0.0
 11
83.71183870687429
 21
217.4615584916904
 31
0.0
  0
ARC
  5
6C7
330
20
100
AcDbEntity
  8
0
100
AcDbCircle
 10
83.71183870687429
 20
217.9615584916904
 30
0.0
 40
0.5
100
AcDbArc
 50
270.0
 51
0.0
  0
ARC
  5
6C8
330
20
100
AcDbEntity
  8
0
100
AcDbCircle
 10
85.21183870687513
 20
217.9615584916904
 30
0.0
 40
1.0
100
AcDbArc
 50
90.0
 51
180.0
  0
LINE
  5
6DE
330
20
100
AcDbEntity
  8
T
100
AcDbLine
 10
90.71183870687423
 20
205.4615584916904
 30
0.0
 11
57.71183870687433
 21
205.4615584916904
 31
0.0
  0
ARC
  5
6DF
330
20
100
AcDbEntity
  8
0
100
AcDbCircle
 10
47.44451171889529
 20
204.4615584916904
 30
0.0
 40
1.0
100
AcDbArc
 50
14.99999999999993
 51
90.0
  0
ARC
  5
6E0
330
20
100
AcDbEntity
  8
0
100
AcDbCircle
 10
40.21183870687429
 20
204.4615584916904
 30
0.0
 40
1.0
100
AcDbArc
 50
90.0
 51
180.0
  0
ARC
  5
6E1
330
20
100
AcDbEntity
  8
0
100
AcDbCircle
 10
52.42598460714333
 20
197.4615584916904
 30
0.0
 40
2.0
100
AcDbArc
 50
195.0
 51
270.0
  0
LINE
  5
6E2
330
20
100
AcDbEntity
  8
0
100
AcDbLine
 10
48.41043754518437
 20
204.7203775367929
 30
0.0
 11
50.49413295456526
 21
196.9439204014854
 31
0.0
  0
LINE
  5
6E3
330
20
100
AcDbEntity
  8
0
100
AcDbLine
 10
39.21183870687429
 20
204.4615584916904
 30
0.0
 11
39.21183870687429
 21
191.4615584916905
 31
0.0
  0
LINE
  5
6E4
330
20
100
AcDbEntity
  8
0
100
AcDbLine
 10
59.21183870687428
 20
195.4615584916904
 30
0.0
 11
52.42598460714333
 21
195.4615584916904
 31
0.0
  0
LINE
  5
6E5
330
20
100
AcDbEntity
  8
0
100
AcDbLine
 10
67.57858912616331
 20
215.4615584916904
 30
0.0
 11
36.51785880812264
 21
215.4615584916904
 31
0.0
  0
LINE
  5
6E6
330
20
100
AcDbEntity
  8
0
100
AcDbLine
 10
47.44451171889529
 20
205.4615584916904
 30
0.0
 11
40.21183870687429
 21
205.4615584916904
 31
0.0
  0
ARC
  5
6E7
330
20
100
AcDbEntity
  8
0
100
AcDbCircle
 10
59.21183870687428
 20
190.4615584916904
 30
0.0
 40
5.0
100
AcDbArc
 50
89.99999999999998
 51
269.9999999999999
  0
LINE
  5
6E8
330
20
100
AcDbEntity
  8
0
100
AcDbLine
 10
61.21183870687428
 20
195.4615584916904
 30
0.0
 11
59.21183870687428
 21
195.4615584916904
 31
0.0
  0
ARC
  5
6E9
330
20
100
AcDbEntity
  8
0
100
AcDbCircle
 10
61.85263161256596
 20
213.9615584916904
 30
0.0
 40
5.0
100
AcDbArc
 50
90.0
 51
145.4818921589387
  0
LINE
  5
6EA
330
20
100
AcDbEntity
  8
0
100
AcDbLine
 10
85.21183870687513
 20
218.9615584916904
 30
0.0
 11
61.85263161256596
 21
218.9615584916904
 31
0.0
  0
ARC
  5
6EB
330
20
100
AcDbEntity
  8
0
100
AcDbCircle
 10
74.21183870687428
 20
205.4615584916904
 30
0.0
 40
20.0
100
AcDbArc
 50
145.4818921589387
 51
150.0
  0
LINE
  5
6EC
330
20
100
AcDbEntity
  8
0
100
AcDbLine
 10
54.21183870687428
 20
190.4615584916904
 30
0.0
 11
54.21183870687428
 21
195.4615584916904
 31
0.0
  0
LINE
  5
6ED
330
20
100
AcDbEntity
  8
0
  6
P4
100
AcDbLine
 10
59.21183870687428
 20
241.4615584916904
 30
0.0
 11
59.21183870687428
 21
244.4972576056577
 31
0.0
  0
LINE
  5
6EE
330
20
100
AcDbEntity
  8
0
  6
P4
100
AcDbLine
 10
73.21183870687429
 20
240.4615584916904
 30
0.0
 11
60.21183870687428
 21
240.4615584916904
 31
0.0
  0
ARC
  5
6EF
330
20
100
AcDbEntity
  8
0
  6
P4
100
AcDbCircle
 10
60.21183870687428
 20
241.4615584916904
 30
0.0
 40
1.0
100
AcDbArc
 50
180.0
 51
270.0
  0
ARC
  5
6F0
330
20
100
AcDbEntity
  8
0
  6
P4
100
AcDbCircle
 10
74.21183870687428
 20
205.4615584916904
 30
0.0
 40
43.0
100
AcDbArc
 50
82.43915682332788
 51
108.4860146790876
  0
ARC
  5
6F1
330
20
100
AcDbEntity
  8
0
100
AcDbCircle
 10
36.54222230319954
 20
210.4615584916904
 30
0.0
 40
5.0
100
AcDbArc
 50
90.0
 51
172.4391568233281
  0
ARC
  5
6F2
330
20
100
AcDbEntity
  8
0
  6
P4
100
AcDbCircle
 10
61.21183870687428
 20
244.3460026821376
 30
0.0
 40
2.0
100
AcDbArc
 50
108.4860146790876
 51
180.0000000000008
  0
ARC
  5
6F3
330
20
100
AcDbEntity
  8
0
100
AcDbCircle
 10
74.21183870687428
 20
205.4615584916904
 30
0.0
 40
43.0
100
AcDbArc
 50
172.4391568233279
 51
198.4860146790876
  0
ARC
  5
6F5
330
20
100
AcDbEntity
  8
0
100
AcDbCircle
 10
74.21183870687428
 20
205.4615584916904
 30
0.0
 40
12.0
100
AcDbArc
 50
90.0
 51
180.0
  0
LINE
  5
6F6
330
20
100
AcDbEntity
  8
0
100
AcDbLine
 10
62.21183870687428
 20
205.4615584916904
 30
0.0
 11
62.21183870687428
 21
196.4615584916904
 31
0.0
  0
ARC
  5
6F7
330
20
100
AcDbEntity
  8
0
100
AcDbCircle
 10
61.21183870687428
 20
196.4615584916904
 30
0.0
 40
1.0
100
AcDbArc
 50
270.0
 51
0.0
  0
TEXT
  5
709
330
20
100
AcDbEntity
  8
0
100
AcDbText
 10
199.6961766150268
 20
212.9596142992708
 30
0.0
 40
1.5
  1
SANPO LOCK
 41
0.9399999999999998
  7
SIMPLEX
100
AcDbText
  0
CIRCLE
  5
70A
330
20
100
AcDbEntity
  8
0
100
AcDbCircle
 10
205.6788217359419
 20
205.4615584916904
 30
0.0
 40
1.5
  0
CIRCLE
  5
70B
330
20
100
AcDbEntity
  8
0
100
AcDbCircle
 10
192.6788217359419
 20
213.9615584916904
 30
0.0
 40
2.2
  0
CIRCLE
  5
70C
330
20
100
AcDbEntity
  8
0
100
AcDbCircle
 10
192.6788217359419
 20
207.9615584916904
 30
0.0
 40
1.35
  0
ARC
  5
70D
330
20
100
AcDbEntity
  8
0
100
AcDbCircle
 10
192.6788217359419
 20
213.9615584916904
 30
0.0
 40
5.0
100
AcDbArc
 50
90.0
 51
180.0
  0
ARC
  5
70E
330
20
100
AcDbEntity
  8
0
100
AcDbCircle
 10
205.6788217359419
 20
205.4615584916904
 30
0.0
 40
20.0
100
AcDbArc
 50
0.0
 51
34.51810784106128
  0
LINE
  5
70F
330
20
100
AcDbEntity
  8
0
100
AcDbLine
 10
225.6788217359421
 20
190.4615584916904
 30
0.0
 11
225.6788217359421
 21
205.4615584916904
 31
0.0
  0
LINE
  5
710
330
20
100
AcDbEntity
  8
0
100
AcDbLine
 10
192.6788217359419
 20
218.9615584916904
 30
0.0
 11
218.0380288302503
 21
218.9615584916904
 31
0.0
  0
LINE
  5
711
330
20
100
AcDbEntity
  8
0
100
AcDbLine
 10
187.6788217359418
 20
190.4615584916904
 30
0.0
 11
187.6788217359418
 21
213.9615584916904
 31
0.0
  0
ARC
  5
712
330
20
100
AcDbEntity
  8
0
100
AcDbCircle
 10
218.0380288302503
 20
213.9615584916904
 30
0.0
 40
5.0
100
AcDbArc
 50
34.51810784106128
 51
90.0
  0
ARC
  5
713
330
20
100
AcDbEntity
  8
0
100
AcDbCircle
 10
205.6788217359421
 20
205.4615584916904
 30
0.0
 40
43.0
100
AcDbArc
 50
341.5139853209124
 51
7.560843176672063
  0
ARC
  5
714
330
20
100
AcDbEntity
  8
0
100
AcDbCircle
 10
243.3484381396167
 20
210.4615584916904
 30
0.0
 40
5.0
100
AcDbArc
 50
7.560843176671839
 51
90.0
  0
LINE
  5
715
330
20
100
AcDbEntity
  8
0
100
AcDbLine
 10
232.4461487239209
 20
205.4615584916904
 30
0.0
 11
239.6788217359421
 21
205.4615584916904
 31
0.0
  0
LINE
  5
716
330
20
100
AcDbEntity
  8
0
100
AcDbLine
 10
240.6788217359421
 20
204.4615584916904
 30
0.0
 11
240.6788217359421
 21
191.4615584916905
 31
0.0
  0
LINE
  5
717
330
20
100
AcDbEntity
  8
0
100
AcDbLine
 10
231.480222897632
 20
204.7203775367931
 30
0.0
 11
229.3965274882509
 21
196.9439204014854
 31
0.0
  0
ARC
  5
718
330
20
100
AcDbEntity
  8
0
100
AcDbCircle
 10
227.464675835673
 20
197.4615584916904
 30
0.0
 40
2.0
100
AcDbArc
 50
270.0
 51
345.0
  0
ARC
  5
719
330
20
100
AcDbEntity
  8
0
100
AcDbCircle
 10
239.6788217359421
 20
204.4615584916904
 30
0.0
 40
1.0
100
AcDbArc
 50
0.0
 51
90.0
  0
ARC
  5
71A
330
20
100
AcDbEntity
  8
0
100
AcDbCircle
 10
232.4461487239209
 20
204.4615584916904
 30
0.0
 40
1.0
100
AcDbArc
 50
90.0
 51
165.0
  0
LINE
  5
71B
330
20
100
AcDbEntity
  8
0
100
AcDbLine
 10
222.9993298116307
 20
215.4615584916904
 30
0.0
 11
243.3728016346935
 21
215.4615584916904
 31
0.0
  0
LINE
  5
71C
330
20
100
AcDbEntity
  8
0
100
AcDbLine
 10
225.6788217359421
 20
195.4615584916904
 30
0.0
 11
227.464675835673
 21
195.4615584916904
 31
0.0
  0
ENDSEC
  0
SECTION
  2
OBJECTS
  0
DICTIONARY
  5
C
330
0
100
AcDbDictionary
281
     1
  3
ACAD_COLOR
350
1B
  3
ACAD_GROUP
350
D
  3
ACAD_LAYOUT
350
19
  3
ACAD_MATERIAL
350
1A
  3
ACAD_MLINESTYLE
350
16
  3
ACAD_PLOTSETTINGS
350
18
  3
ACAD_PLOTSTYLENAME
350
E
  3
ACDBHEADERROUNDTRIPXREC
350
A28
  3
AcDbVariableDictionary
350
A15
  0
DICTIONARY
  5
99A
330
2
100
AcDbDictionary
280
     1
281
     1
  3
ACAD_LAYERSTATES
360
99B
  0
DICTIONARY
  5
1B
102
{ACAD_REACTORS
330
C
102
}
330
C
100
AcDbDictionary
281
     1
  0
DICTIONARY
  5
D
102
{ACAD_REACTORS
330
C
102
}
330
C
100
AcDbDictionary
281
     1
  0
DICTIONARY
  5
19
102
{ACAD_REACTORS
330
C
102
}
330
C
100
AcDbDictionary
281
     1
  3
Model
350
23
  3
CAEg1
350
1F
  0
DICTIONARY
  5
1A
102
{ACAD_REACTORS
330
C
102
}
330
C
100
AcDbDictionary
281
     1
  0
DICTIONARY
  5
16
102
{ACAD_REACTORS
330
C
102
}
330
C
100
AcDbDictionary
281
     1
  3
Standard
350
17
  0
DICTIONARY
  5
18
102
{ACAD_REACTORS
330
C
102
}
330
C
100
AcDbDictionary
281
     1
  0
ACDBDICTIONARYWDFLT
  5
E
102
{ACAD_REACTORS
330
C
102
}
330
C
100
AcDbDictionary
281
     1
  3
Normal
350
F
100
AcDbDictionaryWithDefault
340
F
  0
DICTIONARY
  5
A28
102
{ACAD_REACTORS
330
C
102
}
330
C
100
AcDbDictionary
281
     1
  3
COLORDICT
350
A2A
  3
MATERIALDICT
350
A29
  0
DICTIONARY
  5
A15
102
{ACAD_REACTORS
330
C
102
}
330
C
100
AcDbDictionary
281
     1
  3
DIMASSOC
350
A17
  3
HIDETEXT
350
A16
  3
PROJECTNAME
350
A18
  0
DICTIONARY
  5
99B
102
{ACAD_REACTORS
330
99A
102
}
330
99A
100
AcDbDictionary
281
     1
  0
LAYOUT
  5
23
102
{ACAD_XDICTIONARY
360
A2D
102
}
102
{ACAD_REACTORS
330
19
102
}
330
19
100
AcDbPlotSettings
  1

  2
Adobe PDF
  4
A4
  6
VIEW1
 40
3.174999952316283
 41
3.174999952316283
 42
3.175003051757812
 43
3.17498779296875
 44
209.9098358154297
 45
297.0318298339844
 46
0.0
 47
0.0
 48
-0.0341917643386296
 49
0.0165593869601253
140
384.4711554243452
141
270.3721766035619
142
1.0
143
1.32813833398629
 70
 11952
 72
     1
 73
     1
 74
     4
  7

 75
     0
147
0.7529336172374359
148
0.0341917643386296
149
-0.0165593869601253
100
AcDbLayout
  1
Model
 70
     1
 71
     0
 10
0.0
 20
0.0
 11
12.0
 21
9.0
 12
0.0
 22
0.0
 32
0.0
 14
0.0
 24
0.0
 34
0.0
 15
0.0
 25
0.0
 35
0.0
146
0.0
 13
0.0
 23
0.0
 33
0.0
 16
1.0
 26
0.0
 36
0.0
 17
0.0
 27
1.0
 37
0.0
 76
     0
330
20
  0
LAYOUT
  5
1F
102
{ACAD_XDICTIONARY
360
A2B
102
}
102
{ACAD_REACTORS
330
19
102
}
330
19
100
AcDbPlotSettings
  1

  2
C:\Documents and Settings\sekkei\Application Data\Autodesk\AutoCAD LT 2004\R9\jpn\plotters\Default Windows System Printer.pc3
  4

  6

 40
0.0
 41
0.0
 42
0.0
 43
0.0
 44
0.0
 45
0.0
 46
0.0
 47
0.0
 48
0.0
 49
0.0
140
0.0
141
0.0
142
1.0
143
1.0
 70
   688
 72
     0
 73
     0
 74
     5
  7

 75
    16
147
1.0
148
0.0
149
0.0
100
AcDbLayout
  1
CAEg1
 70
     0
 71
     1
 10
0.0
 20
0.0
 11
12.0
 21
9.0
 12
0.0
 22
0.0
 32
0.0
 14
1.000000000000000E+20
 24
1.000000000000000E+20
 34
1.000000000000000E+20
 15
-1.000000000000000E+20
 25
-1.000000000000000E+20
 35
-1.000000000000000E+20
146
0.0
 13
0.0
 23
0.0
 33
0.0
 16
1.0
 26
0.0
 36
0.0
 17
0.0
 27
1.0
 37
0.0
 76
     0
330
1C
  0
MLINESTYLE
  5
17
102
{ACAD_REACTORS
330
16
102
}
330
16
100
AcDbMlineStyle
  2
STANDARD
 70
     0
  3

 62
   256
 51
90.0
 52
90.0
 71
     2
 49
0.5
 62
   256
  6
BYLAYER
 49
-0.5
 62
   256
  6
BYLAYER
  0
ACDBPLACEHOLDER
  5
F
102
{ACAD_REACTORS
330
E
102
}
330
E
  0
XRECORD
  5
A2A
102
{ACAD_REACTORS
330
A28
102
}
330
A28
100
AcDbXrecord
280
     1
340
1B
  0
XRECORD
  5
A29
102
{ACAD_REACTORS
330
A28
102
}
330
A28
100
AcDbXrecord
280
     1
340
1A
  0
DICTIONARYVAR
  5
A17
102
{ACAD_REACTORS
330
A15
102
}
330
A15
100
DictionaryVariables
280
     0
  1
2
  0
DICTIONARYVAR
  5
A16
102
{ACAD_REACTORS
330
A15
102
}
330
A15
100
DictionaryVariables
280
     0
  1
1
  0
DICTIONARYVAR
  5
A18
102
{ACAD_REACTORS
330
A15
102
}
330
A15
100
DictionaryVariables
280
     0
  1

  0
DICTIONARY
  5
A2D
330
23
100
AcDbDictionary
280
     1
281
     1
  3
ACAD_XREC_ROUNDTRIP
360
A2E
  0
DICTIONARY
  5
A2B
330
1F
100
AcDbDictionary
280
     1
281
     1
  3
ACAD_XREC_ROUNDTRIP
360
A2C
  0
XRECORD
  5
A2E
102
{ACAD_REACTORS
330
A2D
102
}
330
A2D
100
AcDbXrecord
280
     1
102
SHADEPLOT
 70
     0
102
SHADEPLOTRESLEVEL
 70
     2
102
SHADEPLOTCUSTOMDPI
 70
   300
  0
XRECORD
  5
A2C
102
{ACAD_REACTORS
330
A2B
102
}
330
A2B
100
AcDbXrecord
280
     1
102
SHADEPLOT
 70
     0
102
SHADEPLOTRESLEVEL
 70
     2
102
SHADEPLOTCUSTOMDPI
 70
   300
  0
ENDSEC
  0
EOF
