  0
SECTION
  2
HEADER
  9
$ACADVER
  1
AC1015
  9
$ACADMAINTVER
 70
    20
  9
$DWGCODEPAGE
  3
ANSI_932
  9
$INSBASE
 10
0.0
 20
0.0
 30
0.0
  9
$EXTMIN
 10
-16.16275866951969
 20
-13.87335872028505
 30
0.0
  9
$EXTMAX
 10
397.5874936504322
 20
284.6457413789151
 30
0.0
  9
$LIMMIN
 10
0.0
 20
0.0
  9
$LIMMAX
 10
12.0
 20
9.0
  9
$ORTHOMODE
 70
     0
  9
$REGENMODE
 70
     1
  9
$FILLMODE
 70
     1
  9
$QTEXTMODE
 70
     0
  9
$MIRRTEXT
 70
     1
  9
$LTSCALE
 40
1.0
  9
$ATTMODE
 70
     1
  9
$TEXTSIZE
 40
3.0
  9
$TRACEWID
 40
0.05
  9
$TEXTSTYLE
  7
SIMPLEX
  9
$CLAYER
  8
4
  9
$CELTYPE
  6
ByLayer
  9
$CECOLOR
 62
   256
  9
$CELTSCALE
 40
1.0
  9
$DISPSILH
 70
     0
  9
$DIMSCALE
 40
1.0
  9
$DIMASZ
 40
0.18
  9
$DIMEXO
 40
0.0625
  9
$DIMDLI
 40
0.3799999999999999
  9
$DIMRND
 40
0.0
  9
$DIMDLE
 40
0.0
  9
$DIMEXE
 40
0.18
  9
$DIMTP
 40
0.0
  9
$DIMTM
 40
0.0
  9
$DIMTXT
 40
0.18
  9
$DIMCEN
 40
0.09
  9
$DIMTSZ
 40
0.0
  9
$DIMTOL
 70
     0
  9
$DIMLIM
 70
     0
  9
$DIMTIH
 70
     1
  9
$DIMTOH
 70
     1
  9
$DIMSE1
 70
     0
  9
$DIMSE2
 70
     0
  9
$DIMTAD
 70
     0
  9
$DIMZIN
 70
     0
  9
$DIMBLK
  1

  9
$DIMASO
 70
     1
  9
$DIMSHO
 70
     0
  9
$DIMPOST
  1

  9
$DIMAPOST
  1

  9
$DIMALT
 70
     0
  9
$DIMALTD
 70
     2
  9
$DIMALTF
 40
25.4
  9
$DIMLFAC
 40
1.0
  9
$DIMTOFL
 70
     0
  9
$DIMTVP
 40
0.0
  9
$DIMTIX
 70
     0
  9
$DIMSOXD
 70
     0
  9
$DIMSAH
 70
     0
  9
$DIMBLK1
  1

  9
$DIMBLK2
  1

  9
$DIMSTYLE
  2
Standard
  9
$DIMCLRD
 70
     0
  9
$DIMCLRE
 70
     0
  9
$DIMCLRT
 70
     0
  9
$DIMTFAC
 40
1.0
  9
$DIMGAP
 40
0.09
  9
$DIMJUST
 70
     0
  9
$DIMSD1
 70
     0
  9
$DIMSD2
 70
     0
  9
$DIMTOLJ
 70
     1
  9
$DIMTZIN
 70
     0
  9
$DIMALTZ
 70
     0
  9
$DIMALTTZ
 70
     0
  9
$DIMUPT
 70
     0
  9
$DIMDEC
 70
     3
  9
$DIMTDEC
 70
     3
  9
$DIMALTU
 70
     2
  9
$DIMALTTD
 70
     2
  9
$DIMTXSTY
  7
STANDARD
  9
$DIMAUNIT
 70
     0
  9
$DIMADEC
 70
     0
  9
$DIMALTRND
 40
0.0
  9
$DIMAZIN
 70
     0
  9
$DIMDSEP
 70
    46
  9
$DIMATFIT
 70
     3
  9
$DIMFRAC
 70
     0
  9
$DIMLDRBLK
  1

  9
$DIMLUNIT
 70
     2
  9
$DIMLWD
 70
    -2
  9
$DIMLWE
 70
    -2
  9
$DIMTMOVE
 70
     2
  9
$LUNITS
 70
     2
  9
$LUPREC
 70
     3
  9
$SKETCHINC
 40
0.1
  9
$FILLETRAD
 40
0.0
  9
$AUNITS
 70
     0
  9
$AUPREC
 70
     0
  9
$MENU
  1
Z:SANPOU-1
  9
$ELEVATION
 40
0.0
  9
$PELEVATION
 40
0.0
  9
$THICKNESS
 40
0.0
  9
$LIMCHECK
 70
     0
  9
$CHAMFERA
 40
0.0
  9
$CHAMFERB
 40
0.0
  9
$CHAMFERC
 40
0.0
  9
$CHAMFERD
 40
0.0
  9
$SKPOLY
 70
     0
  9
$TDCREATE
 40
2450989.487569445
  9
$TDUCREATE
 40
2450989.112569444
  9
$TDUPDATE
 40
2455896.740501296
  9
$TDUUPDATE
 40
2455896.365501296
  9
$TDINDWG
 40
0.0262556250
  9
$TDUSRTIMER
 40
0.0262516435
  9
$USRTIMER
 70
     1
  9
$ANGBASE
 50
0.0
  9
$ANGDIR
 70
     0
  9
$PDMODE
 70
     0
  9
$PDSIZE
 40
0.0
  9
$PLINEWID
 40
0.0
  9
$SPLFRAME
 70
     0
  9
$SPLINETYPE
 70
     6
  9
$SPLINESEGS
 70
     8
  9
$HANDSEED
  5
A47
  9
$SURFTAB1
 70
     6
  9
$SURFTAB2
 70
     6
  9
$SURFTYPE
 70
     6
  9
$SURFU
 70
     6
  9
$SURFV
 70
     6
  9
$UCSBASE
  2

  9
$UCSNAME
  2

  9
$UCSORG
 10
0.0
 20
0.0
 30
0.0
  9
$UCSXDIR
 10
1.0
 20
0.0
 30
0.0
  9
$UCSYDIR
 10
0.0
 20
1.0
 30
0.0
  9
$UCSORTHOREF
  2

  9
$UCSORTHOVIEW
 70
     0
  9
$UCSORGTOP
 10
0.0
 20
0.0
 30
0.0
  9
$UCSORGBOTTOM
 10
0.0
 20
0.0
 30
0.0
  9
$UCSORGLEFT
 10
0.0
 20
0.0
 30
0.0
  9
$UCSORGRIGHT
 10
0.0
 20
0.0
 30
0.0
  9
$UCSORGFRONT
 10
0.0
 20
0.0
 30
0.0
  9
$UCSORGBACK
 10
0.0
 20
0.0
 30
0.0
  9
$PUCSBASE
  2

  9
$PUCSNAME
  2

  9
$PUCSORG
 10
0.0
 20
0.0
 30
0.0
  9
$PUCSXDIR
 10
1.0
 20
0.0
 30
0.0
  9
$PUCSYDIR
 10
0.0
 20
1.0
 30
0.0
  9
$PUCSORTHOREF
  2

  9
$PUCSORTHOVIEW
 70
     0
  9
$PUCSORGTOP
 10
0.0
 20
0.0
 30
0.0
  9
$PUCSORGBOTTOM
 10
0.0
 20
0.0
 30
0.0
  9
$PUCSORGLEFT
 10
0.0
 20
0.0
 30
0.0
  9
$PUCSORGRIGHT
 10
0.0
 20
0.0
 30
0.0
  9
$PUCSORGFRONT
 10
0.0
 20
0.0
 30
0.0
  9
$PUCSORGBACK
 10
0.0
 20
0.0
 30
0.0
  9
$USERI1
 70
     0
  9
$USERI2
 70
     0
  9
$USERI3
 70
     0
  9
$USERI4
 70
     0
  9
$USERI5
 70
     0
  9
$USERR1
 40
0.0
  9
$USERR2
 40
0.0
  9
$USERR3
 40
0.0
  9
$USERR4
 40
0.0
  9
$USERR5
 40
0.0
  9
$WORLDVIEW
 70
     1
  9
$SHADEDGE
 70
     3
  9
$SHADEDIF
 70
    70
  9
$TILEMODE
 70
     1
  9
$MAXACTVP
 70
    16
  9
$PINSBASE
 10
0.0
 20
0.0
 30
0.0
  9
$PLIMCHECK
 70
     0
  9
$PEXTMIN
 10
1.000000000000000E+20
 20
1.000000000000000E+20
 30
1.000000000000000E+20
  9
$PEXTMAX
 10
-1.000000000000000E+20
 20
-1.000000000000000E+20
 30
-1.000000000000000E+20
  9
$PLIMMIN
 10
0.0
 20
0.0
  9
$PLIMMAX
 10
12.0
 20
9.0
  9
$UNITMODE
 70
     0
  9
$VISRETAIN
 70
     0
  9
$PLINEGEN
 70
     0
  9
$PSLTSCALE
 70
     0
  9
$TREEDEPTH
 70
  3020
  9
$CMLSTYLE
  2
Standard
  9
$CMLJUST
 70
     0
  9
$CMLSCALE
 40
1.0
  9
$PROXYGRAPHICS
 70
     1
  9
$MEASUREMENT
 70
     0
  9
$CELWEIGHT
370
    -1
  9
$ENDCAPS
280
     0
  9
$JOINSTYLE
280
     0
  9
$LWDISPLAY
290
     0
  9
$INSUNITS
 70
     0
  9
$HYPERLINKBASE
  1

  9
$STYLESHEET
  1

  9
$XEDIT
290
     1
  9
$CEPSNTYPE
380
     0
  9
$PSTYLEMODE
290
     1
  9
$FINGERPRINTGUID
  2
{B318CE7F-D141-4B6C-AEAB-1BCDA6AB77CC}
  9
$VERSIONGUID
  2
{938E13E9-5E9E-4D87-B5B3-43B3F64C9544}
  9
$EXTNAMES
290
     1
  9
$PSVPSCALE
 40
0.0
  9
$OLESTARTUP
290
     0
  0
ENDSEC
  0
SECTION
  2
CLASSES
  0
CLASS
  1
ACDBDICTIONARYWDFLT
  2
AcDbDictionaryWithDefault
  3
ObjectDBX Classes
 90
        0
280
     0
281
     0
  0
CLASS
  1
DICTIONARYVAR
  2
AcDbDictionaryVar
  3
ObjectDBX Classes
 90
        0
280
     0
281
     0
  0
CLASS
  1
ACDBPLACEHOLDER
  2
AcDbPlaceHolder
  3
ObjectDBX Classes
 90
        0
280
     0
281
     0
  0
CLASS
  1
LAYOUT
  2
AcDbLayout
  3
ObjectDBX Classes
 90
        0
280
     0
281
     0
  0
ENDSEC
  0
SECTION
  2
TABLES
  0
TABLE
  2
VPORT
  5
8
330
0
100
AcDbSymbolTable
 70
     2
  0
VPORT
  5
A3F
330
8
100
AcDbSymbolTableRecord
100
AcDbViewportTableRecord
  2
*Active
 70
     0
 10
0.0
 20
0.0
 11
1.0
 21
1.0
 12
199.1092482678801
 22
183.0494406260845
 13
0.0
 23
0.0
 14
0.3
 24
3.0
 15
0.0
 25
0.0
 16
0.0
 26
0.0
 36
1.0
 17
0.0
 27
0.0
 37
0.0
 40
473.8746448460343
 41
1.538265306122448
 42
50.0
 43
0.0
 44
0.0
 50
0.0
 51
0.0
 71
     0
 72
 20000
 73
     1
 74
     0
 75
     0
 76
     0
 77
     0
 78
     0
281
     0
 65
     1
110
0.0
120
0.0
130
0.0
111
1.0
121
0.0
131
0.0
112
0.0
122
1.0
132
0.0
 79
     0
146
0.0
  0
ENDTAB
  0
TABLE
  2
LTYPE
  5
5
330
0
100
AcDbSymbolTable
 70
     5
  0
LTYPE
  5
13
330
5
100
AcDbSymbolTableRecord
100
AcDbLinetypeTableRecord
  2
ByBlock
 70
     0
  3

 72
    65
 73
     0
 40
0.0
  0
LTYPE
  5
14
330
5
100
AcDbSymbolTableRecord
100
AcDbLinetypeTableRecord
  2
ByLayer
 70
     0
  3

 72
    65
 73
     0
 40
0.0
  0
LTYPE
  5
15
330
5
100
AcDbSymbolTableRecord
100
AcDbLinetypeTableRecord
  2
CONTINUOUS
 70
     0
  3
Àü
 72
    65
 73
     0
 40
0.0
  0
LTYPE
  5
2B
330
5
100
AcDbSymbolTableRecord
100
AcDbLinetypeTableRecord
  2
C5
 70
     0
  3
\\\\\  ¥  \\\\\  ¥  \\\\\  ¥  \
 72
    65
 73
     4
 40
16.64
 49
12.8
 74
     0
 49
-1.28
 74
     0
 49
1.28
 74
     0
 49
-1.28
 74
     0
  0
LTYPE
  5
2C
330
5
100
AcDbSymbolTableRecord
100
AcDbLinetypeTableRecord
  2
H5
 70
     0
  3
\\\\\@@@\\\\\@@@\\\\\@@74C84}
 72
    65
 73
     2
 40
3.799999999999999
 49
2.2
 74
     0
 49
-1.6
 74
     0
  0
LTYPE
  5
2D
330
5
100
AcDbSymbolTableRecord
100
AcDbLinetypeTableRecord
  2
H3
 70
     0
  3
\\\@@\\\@@\\\@@\\\@@\\\74C84}
 72
    65
 73
     2
 40
1.9
 49
1.1
 74
     0
 49
-0.8
 74
     0
  0
LTYPE
  5
2E
330
5
100
AcDbSymbolTableRecord
100
AcDbLinetypeTableRecord
  2
P3
 70
     0
  3
\\\  ¥ ¥  \\\  ¥ ¥  \\\  ¥ ¥  \\\  
 72
    65
 73
     6
 40
8.4
 49
5.599999999999998
 74
     0
 49
-0.5600000000000001
 74
     0
 49
0.5600000000000001
 74
     0
 49
-0.5600000000000001
 74
     0
 49
0.5600000000000001
 74
     0
 49
-0.5600000000000001
 74
     0
  0
ENDTAB
  0
TABLE
  2
LAYER
  5
2
102
{ACAD_XDICTIONARY
360
9AA
102
}
330
0
100
AcDbSymbolTable
 70
     4
  0
LAYER
  5
10
330
2
100
AcDbSymbolTableRecord
100
AcDbLayerTableRecord
  2
0
 70
     0
 62
     7
  6
CONTINUOUS
370
    -3
390
F
  0
LAYER
  5
39
330
2
100
AcDbSymbolTableRecord
100
AcDbLayerTableRecord
  2
4
 70
     0
 62
     4
  6
CONTINUOUS
370
    -3
390
F
  0
LAYER
  5
3E
330
2
100
AcDbSymbolTableRecord
100
AcDbLayerTableRecord
  2
T
 70
     0
 62
     5
  6
C5
370
    -3
390
F
  0
LAYER
  5
3F
330
2
100
AcDbSymbolTableRecord
100
AcDbLayerTableRecord
  2
W
 70
     0
 62
     7
  6
CONTINUOUS
370
    -3
390
F
  0
ENDTAB
  0
TABLE
  2
STYLE
  5
3
330
0
100
AcDbSymbolTable
 70
     2
  0
STYLE
  5
11
330
3
100
AcDbSymbolTableRecord
100
AcDbTextStyleTableRecord
  2
STANDARD
 70
     0
 40
0.0
 41
1.0
 50
0.0
 71
     0
 42
0.2
  3
T:TXT
  4
T:SUG-BIG1
  0
STYLE
  5
27
330
3
100
AcDbSymbolTableRecord
100
AcDbTextStyleTableRecord
  2
SIMPLEX
 70
     0
 40
0.0
 41
1.0
 50
0.0
 71
     0
 42
3.0
  3
T:SIMPLEX
  4
T:SUG-BIG1
  0
ENDTAB
  0
TABLE
  2
VIEW
  5
6
330
0
100
AcDbSymbolTable
 70
     2
  0
VIEW
  5
31
330
6
100
AcDbSymbolTableRecord
100
AcDbViewTableRecord
  2
VIEW1
 70
     0
 40
299.7729059984666
 10
191.3663909445352
 20
134.531325686157
 41
415.1723606169833
 11
0.0
 21
0.0
 31
1.0
 12
0.0
 22
0.0
 32
0.0
 42
50.0
 43
0.0
 44
0.0
 50
0.0
 71
     0
281
     0
 72
     0
  0
VIEW
  5
32
330
6
100
AcDbSymbolTableRecord
100
AcDbViewTableRecord
  2
VIEW2
 70
     0
 40
295.3371967256676
 10
391.4533234574096
 20
137.3575185915354
 41
814.4881406120838
 11
0.0
 21
0.0
 31
1.0
 12
0.0
 22
0.0
 32
0.0
 42
50.0
 43
0.0
 44
0.0
 50
0.0
 71
     0
281
     0
 72
     0
  0
ENDTAB
  0
TABLE
  2
UCS
  5
7
330
0
100
AcDbSymbolTable
 70
     0
  0
ENDTAB
  0
TABLE
  2
APPID
  5
9
330
0
100
AcDbSymbolTable
 70
     1
  0
APPID
  5
12
330
9
100
AcDbSymbolTableRecord
100
AcDbRegAppTableRecord
  2
ACAD
 70
     0
  0
ENDTAB
  0
TABLE
  2
DIMSTYLE
  5
A
330
0
100
AcDbSymbolTable
 70
     1
100
AcDbDimStyleTable
 71
     0
  0
DIMSTYLE
105
9A0
330
A
100
AcDbSymbolTableRecord
100
AcDbDimStyleTableRecord
  2
Standard
 70
     0
340
11
  0
ENDTAB
  0
TABLE
  2
BLOCK_RECORD
  5
1
330
0
100
AcDbSymbolTable
 70
     2
  0
BLOCK_RECORD
  5
20
330
1
100
AcDbSymbolTableRecord
100
AcDbBlockTableRecord
  2
*Model_Space
340
23
  0
BLOCK_RECORD
  5
1C
330
1
100
AcDbSymbolTableRecord
100
AcDbBlockTableRecord
  2
*Paper_Space
340
1F
  0
BLOCK_RECORD
  5
24
330
1
100
AcDbSymbolTableRecord
100
AcDbBlockTableRecord
  2
SUG-AR01
340
0
102
{BLKREFS
331
85D
331
85E
331
861
331
862
102
}
  0
BLOCK_RECORD
  5
26
330
1
100
AcDbSymbolTableRecord
100
AcDbBlockTableRecord
  2
SUG-AR06
340
0
102
{BLKREFS
331
872
331
873
102
}
  0
ENDTAB
  0
ENDSEC
  0
SECTION
  2
BLOCKS
  0
BLOCK
  5
4A
330
20
100
AcDbEntity
  8
0
100
AcDbBlockBegin
  2
*Model_Space
 70
     0
 10
0.0
 20
0.0
 30
0.0
  3
*Model_Space
  1

  0
ENDBLK
  5
4B
330
20
100
AcDbEntity
  8
0
100
AcDbBlockEnd
  0
BLOCK
  5
48
330
1C
100
AcDbEntity
 67
     1
  8
0
100
AcDbBlockBegin
  2
*Paper_Space
 70
     0
 10
0.0
 20
0.0
 30
0.0
  3
*Paper_Space
  1

  0
ENDBLK
  5
49
330
1C
100
AcDbEntity
 67
     1
  8
0
100
AcDbBlockEnd
  0
BLOCK
  5
4C
330
24
100
AcDbEntity
  8
0
100
AcDbBlockBegin
  2
SUG-AR01
 70
     0
 10
0.0
 20
0.0
 30
0.0
  3
SUG-AR01
  1

  0
LINE
  5
4D
330
24
100
AcDbEntity
  8
0
100
AcDbLine
 10
0.0
 20
0.0
 30
0.0
 11
5.0
 21
1.339745962155659
 31
0.0
  0
LINE
  5
4E
330
24
100
AcDbEntity
  8
0
100
AcDbLine
 10
5.0
 20
-1.339745962155659
 30
0.0
 11
5.0
 21
1.339745962155659
 31
0.0
  0
LINE
  5
4F
330
24
100
AcDbEntity
  8
0
100
AcDbLine
 10
0.0
 20
0.0
 30
0.0
 11
5.0
 21
-1.339745962155659
 31
0.0
  0
ENDBLK
  5
50
330
24
100
AcDbEntity
  8
0
100
AcDbBlockEnd
  0
BLOCK
  5
54
330
26
100
AcDbEntity
  8
0
100
AcDbBlockBegin
  2
SUG-AR06
 70
     0
 10
0.0
 20
0.0
 30
0.0
  3
SUG-AR06
  1

  0
ENDBLK
  5
55
330
26
100
AcDbEntity
  8
0
100
AcDbBlockEnd
  0
ENDSEC
  0
SECTION
  2
ENTITIES
  0
TEXT
  5
20F
330
20
100
AcDbEntity
  8
0
100
AcDbText
 10
168.9333036681199
 20
161.931277584134
 30
0.0
 40
1.5
  1
AAAAA0
 50
315.0
  7
SIMPLEX
100
AcDbText
  0
LINE
  5
219
330
20
100
AcDbEntity
  8
T
100
AcDbLine
 10
169.5541937725442
 20
172.4302425387335
 30
0.0
 11
169.5541937725442
 21
139.4302425387335
 31
0.0
  0
LINE
  5
21A
330
20
100
AcDbEntity
  8
T
100
AcDbLine
 10
186.0541937725441
 20
155.9302425387335
 30
0.0
 11
153.0541937725442
 21
155.9302425387335
 31
0.0
  0
LINE
  5
21B
330
20
100
AcDbEntity
  8
0
100
AcDbLine
 10
137.0541937725443
 20
252.2801475024981
 30
0.0
 11
179.3305343856464
 21
252.2801475024981
 31
0.0
  0
LINE
  5
21C
330
20
100
AcDbEntity
  8
0
100
AcDbLine
 10
137.0541937725443
 20
249.9801475024982
 30
0.0
 11
179.3305343856464
 21
249.9801475024982
 31
0.0
  0
ARC
  5
21D
330
20
100
AcDbEntity
  8
0
100
AcDbCircle
 10
180.0541937725442
 20
155.9302425387335
 30
0.0
 40
43.0
100
AcDbArc
 50
172.439156823328
 51
198.4860146790877
  0
ARC
  5
21E
330
20
100
AcDbEntity
  8
0
100
AcDbCircle
 10
141.169749582097
 20
142.9302425387334
 30
0.0
 40
2.0
100
AcDbArc
 50
198.4860146790879
 51
270.0
  0
ARC
  5
21F
330
20
100
AcDbEntity
  8
0
100
AcDbCircle
 10
144.0541937725444
 20
141.9302425387334
 30
0.0
 40
1.0
100
AcDbArc
 50
270.0
 51
359.9999999999996
  0
ARC
  5
220
330
20
100
AcDbEntity
  8
0
100
AcDbCircle
 10
142.3845773688694
 20
160.9302425387334
 30
0.0
 40
5.0
100
AcDbArc
 50
90.00000000000005
 51
172.4391568233278
  0
LINE
  5
221
330
20
100
AcDbEntity
  8
0
100
AcDbLine
 10
137.0541937725443
 20
252.2801475024981
 30
0.0
 11
137.0541937725443
 21
249.9801475024982
 31
0.0
  0
ARC
  5
222
330
20
100
AcDbEntity
  8
0
100
AcDbCircle
 10
153.2150941413671
 20
154.9302425387335
 30
0.0
 40
1.0
100
AcDbArc
 50
9.999999999999987
 51
90.0
  0
ARC
  5
223
330
20
100
AcDbEntity
  8
0
100
AcDbCircle
 10
146.0541937725445
 20
154.9302425387335
 30
0.0
 40
1.0
100
AcDbArc
 50
90.0
 51
179.9999999999996
  0
ARC
  5
224
330
20
100
AcDbEntity
  8
0
100
AcDbCircle
 10
157.6719898226921
 20
147.9302425387335
 30
0.0
 40
2.0
100
AcDbArc
 50
189.9999999999999
 51
269.9999999999999
  0
LINE
  5
225
330
20
100
AcDbEntity
  8
0
100
AcDbLine
 10
154.1999018943793
 20
155.1038907164005
 30
0.0
 11
155.7023743166677
 21
147.5829461833997
 31
0.0
  0
LINE
  5
226
330
20
100
AcDbEntity
  8
0
100
AcDbLine
 10
144.0541937725444
 20
140.9302425387334
 30
0.0
 11
141.169749582097
 21
140.9302425387334
 31
0.0
  0
LINE
  5
227
330
20
100
AcDbEntity
  8
0
100
AcDbLine
 10
153.2150941413671
 20
155.9302425387335
 30
0.0
 11
146.0541937725445
 21
155.9302425387335
 31
0.0
  0
LINE
  5
228
330
20
100
AcDbEntity
  8
0
100
AcDbLine
 10
145.0541937725445
 20
154.9302425387335
 30
0.0
 11
145.0541937725444
 21
141.9302425387334
 31
0.0
  0
LINE
  5
229
330
20
100
AcDbEntity
  8
0
100
AcDbLine
 10
157.5541937725442
 20
165.9302425387335
 30
0.0
 11
142.3845773688694
 21
165.9302425387334
 31
0.0
  0
LINE
  5
22A
330
20
100
AcDbEntity
  8
0
100
AcDbLine
 10
157.554193772544
 20
145.9302425387335
 30
0.0
 11
157.6719898226921
 21
145.9302425387335
 31
0.0
  0
LINE
  5
22B
330
20
100
AcDbEntity
  8
0
  6
P3
100
AcDbLine
 10
179.5541937725442
 20
173.4302425387335
 30
0.0
 11
179.5541937725442
 21
183.0998589424083
 31
0.0
  0
LINE
  5
22C
330
20
100
AcDbEntity
  8
0
  6
P3
100
AcDbLine
 10
168.5541937725442
 20
180.4302425387331
 30
0.0
 11
155.5541937725442
 21
180.4302425387333
 31
0.0
  0
LINE
  5
22D
330
20
100
AcDbEntity
  8
0
  6
P3
100
AcDbLine
 10
169.5541937725442
 20
173.4302425387335
 30
0.0
 11
169.5541937725442
 21
179.4302425387331
 31
0.0
  0
LINE
  5
22E
330
20
100
AcDbEntity
  8
0
  6
P3
100
AcDbLine
 10
154.5541937725442
 20
181.4302425387332
 30
0.0
 11
154.5541937725442
 21
184.3146867291807
 31
0.0
  0
ARC
  5
22F
330
20
100
AcDbEntity
  8
0
  6
P3
100
AcDbCircle
 10
168.5541937725442
 20
179.4302425387331
 30
0.0
 40
1.0
100
AcDbArc
 50
0.0
 51
89.9999999999996
  0
ARC
  5
230
330
20
100
AcDbEntity
  8
0
  6
P3
100
AcDbCircle
 10
174.5541937725441
 20
183.0998589424083
 30
0.0
 40
5.0
100
AcDbArc
 50
0.0000000000000763
 51
82.43915682332781
  0
ARC
  5
231
330
20
100
AcDbEntity
  8
0
  6
P3
100
AcDbCircle
 10
155.5541937725442
 20
181.4302425387332
 30
0.0
 40
1.0
100
AcDbArc
 50
180.0
 51
269.9999999999996
  0
ARC
  5
232
330
20
100
AcDbEntity
  8
0
  6
P3
100
AcDbCircle
 10
156.5541937725441
 20
184.3146867291807
 30
0.0
 40
2.0
100
AcDbArc
 50
108.4860146790878
 51
180.0
  0
ARC
  5
233
330
20
100
AcDbEntity
  8
0
  6
P3
100
AcDbCircle
 10
169.5541937725442
 20
145.4302425387335
 30
0.0
 40
43.0
100
AcDbArc
 50
82.43915682332803
 51
108.4860146790877
  0
LINE
  5
234
330
20
100
AcDbEntity
  8
0
100
AcDbLine
 10
145.0541937725444
 20
249.9801475024982
 30
0.0
 11
145.0541937725444
 21
252.2801475024981
 31
0.0
  0
LINE
  5
235
330
20
100
AcDbEntity
  8
0
100
AcDbLine
 10
153.8578817510536
 20
249.9801475024982
 30
0.0
 11
153.8578817510536
 21
252.2801475024981
 31
0.0
  0
LINE
  5
236
330
20
100
AcDbEntity
  8
0
100
AcDbLine
 10
159.5541937725443
 20
223.1801475024981
 30
0.0
 11
132.8541937725442
 21
223.1801475024981
 31
0.0
  0
LINE
  5
237
330
20
100
AcDbEntity
  8
0
100
AcDbLine
 10
159.5541937725443
 20
223.9801475024982
 30
0.0
 11
132.8541937725442
 21
223.9801475024982
 31
0.0
  0
LINE
  5
238
330
20
100
AcDbEntity
  8
0
100
AcDbLine
 10
132.0541937725443
 20
240.8801475024981
 30
0.0
 11
132.0541937725443
 21
223.9801475024982
 31
0.0
  0
LINE
  5
239
330
20
100
AcDbEntity
  8
0
100
AcDbLine
 10
132.8541937725442
 20
240.8801475024981
 30
0.0
 11
132.8541937725442
 21
223.9801475024982
 31
0.0
  0
LINE
  5
23A
330
20
100
AcDbEntity
  8
0
100
AcDbLine
 10
150.2541937725443
 20
243.1801475024982
 30
0.0
 11
125.5582068967541
 21
243.1801475024981
 31
0.0
  0
LINE
  5
23B
330
20
100
AcDbEntity
  8
0
100
AcDbLine
 10
159.5541937725443
 20
241.6801475024981
 30
0.0
 11
132.8541937725442
 21
241.6801475024981
 31
0.0
  0
LINE
  5
23C
330
20
100
AcDbEntity
  8
0
100
AcDbLine
 10
159.5541937725443
 20
240.8801475024981
 30
0.0
 11
132.8541937725442
 21
240.8801475024981
 31
0.0
  0
ARC
  5
23D
330
20
100
AcDbEntity
  8
0
100
AcDbCircle
 10
132.8541937725442
 20
223.9801475024982
 30
0.0
 40
0.8
100
AcDbArc
 50
180.0
 51
270.0
  0
ARC
  5
23E
330
20
100
AcDbEntity
  8
0
100
AcDbCircle
 10
132.8541937725442
 20
240.8801475024981
 30
0.0
 40
0.8
100
AcDbArc
 50
90.0
 51
180.0
  0
LINE
  5
23F
330
20
100
AcDbEntity
  8
0
100
AcDbLine
 10
151.0541937725443
 20
261.2895675566478
 30
0.0
 11
151.0541937725443
 21
243.9801475024982
 31
0.0
  0
ARC
  5
240
330
20
100
AcDbEntity
  8
0
100
AcDbCircle
 10
150.2541937725443
 20
243.9801475024982
 30
0.0
 40
0.8
100
AcDbArc
 50
270.0
 51
45.00000000000142
  0
LINE
  5
241
330
20
100
AcDbEntity
  8
0
100
AcDbLine
 10
150.2541937725443
 20
243.9801475024982
 30
0.0
 11
125.5582068967541
 21
243.9801475024982
 31
0.0
  0
LINE
  5
242
330
20
100
AcDbEntity
  8
0
100
AcDbLine
 10
150.2541937725443
 20
261.2895675566478
 30
0.0
 11
150.2541937725443
 21
243.9801475024982
 31
0.0
  0
LINE
  5
243
330
20
100
AcDbEntity
  8
0
100
AcDbLine
 10
150.2541937725443
 20
243.9801475024982
 30
0.0
 11
145.764771310512
 21
248.4695699645302
 31
0.0
  0
LINE
  5
244
330
20
100
AcDbEntity
  8
0
100
AcDbLine
 10
150.8198791974935
 20
244.5458329274474
 30
0.0
 11
146.3304567354613
 21
249.0352553894795
 31
0.0
  0
ARC
  5
255
330
20
100
AcDbEntity
  8
0
  6
H3
100
AcDbCircle
 10
78.16352516776309
 20
167.4210568913992
 30
0.0
 40
19.42183720793247
100
AcDbArc
 50
243.2892109340738
 51
271.9655228541021
  0
ARC
  5
256
330
20
100
AcDbEntity
  8
0
  6
H3
100
AcDbCircle
 10
78.78256290014616
 20
144.1386725658857
 30
0.0
 40
19.71122218236261
100
AcDbArc
 50
89.86310685813625
 51
118.3133622387485
  0
ARC
  5
257
330
20
100
AcDbEntity
  8
0
  6
H3
100
AcDbCircle
 10
78.78256290014616
 20
142.441616291038
 30
0.0
 40
19.71122218236261
100
AcDbArc
 50
89.86310685813625
 51
118.3133622387485
  0
ARC
  5
258
330
20
100
AcDbEntity
  8
0
  6
H3
100
AcDbCircle
 10
85.32965761794621
 20
149.5106465894441
 30
0.0
 40
1.5
100
AcDbArc
 50
270.0
 51
0.0
  0
ARC
  5
259
330
20
100
AcDbEntity
  8
0
  6
H3
100
AcDbCircle
 10
85.32965761794621
 20
162.3498384880228
 30
0.0
 40
1.5
100
AcDbArc
 50
0.0
 51
90.0
  0
ARC
  5
25A
330
20
100
AcDbEntity
  8
0
  6
H3
100
AcDbCircle
 10
85.32965761794621
 20
160.652782213175
 30
0.0
 40
1.5
100
AcDbArc
 50
0.0
 51
90.0
  0
LINE
  5
25B
330
20
100
AcDbEntity
  8
0
  6
H3
100
AcDbLine
 10
85.32965761794621
 20
148.0106465894441
 30
0.0
 11
78.82965761794621
 21
148.0106465894441
 31
0.0
  0
LINE
  5
25C
330
20
100
AcDbEntity
  8
0
  6
H3
100
AcDbLine
 10
85.32965761794621
 20
162.1527822131751
 30
0.0
 11
78.82965761794621
 21
162.1527822131751
 31
0.0
  0
LINE
  5
25D
330
20
100
AcDbEntity
  8
0
  6
H3
100
AcDbLine
 10
85.32965761794621
 20
163.8498384880228
 30
0.0
 11
78.82965761794621
 21
163.8498384880228
 31
0.0
  0
LINE
  5
25E
330
20
100
AcDbEntity
  8
0
  6
H3
100
AcDbLine
 10
86.82965761794621
 20
149.5106465894441
 30
0.0
 11
86.82965761794621
 21
162.3498384880228
 31
0.0
  0
LINE
  5
278
330
20
100
AcDbEntity
  8
0
100
AcDbLine
 10
142.5541937725441
 20
133.4302425387335
 30
0.0
 11
162.554193772544
 21
133.4302425387335
 31
0.0
  0
LINE
  5
279
330
20
100
AcDbEntity
  8
0
100
AcDbLine
 10
154.5114579015933
 20
136.7302425387334
 30
0.0
 11
154.5114579015933
 21
130.1302425387335
 31
0.0
  0
LINE
  5
27A
330
20
100
AcDbEntity
  8
0
100
AcDbLine
 10
147.6174679470491
 20
136.7302425387334
 30
0.0
 11
147.617467947049
 21
130.1302425387335
 31
0.0
  0
ARC
  5
27B
330
20
100
AcDbEntity
  8
0
100
AcDbCircle
 10
147.5541937725443
 20
247.1880091727927
 30
0.0
 40
0.5
100
AcDbArc
 50
162.087320413075
 51
210.0834404549971
  0
LINE
  5
27C
330
20
100
AcDbEntity
  8
0
100
AcDbLine
 10
160.1741937725444
 20
257.2801475024982
 30
0.0
 11
155.2903575619248
 21
257.2801475024982
 31
0.0
  0
LINE
  5
27D
330
20
100
AcDbEntity
  8
0
100
AcDbLine
 10
159.5541937725443
 20
240.4801475024981
 30
0.0
 11
153.79003848821
 21
240.4801475024981
 31
0.0
  0
ARC
  5
27E
330
20
100
AcDbEntity
  8
0
100
AcDbCircle
 10
162.6968795537823
 20
255.9600709219308
 30
0.0
 40
18.0
100
AcDbArc
 50
210.0834404549974
 51
238.4036378021642
  0
ARC
  5
27F
330
20
100
AcDbEntity
  8
0
100
AcDbCircle
 10
164.205905114421
 20
241.8055831968213
 30
0.0
 40
18.0
100
AcDbArc
 50
121.630819373858
 51
162.0873204130753
  0
ARC
  5
280
330
20
100
AcDbEntity
  8
0
100
AcDbCircle
 10
153.79003848821
 20
241.4801475024982
 30
0.0
 40
1.0
100
AcDbArc
 50
238.4036378021647
 51
270.0
  0
ARC
  5
281
330
20
100
AcDbEntity
  8
0
100
AcDbCircle
 10
155.2903575619248
 20
256.2801475024981
 30
0.0
 40
1.0
100
AcDbArc
 50
90.0
 51
121.6308193738588
  0
LINE
  5
282
330
20
100
AcDbEntity
  8
0
100
AcDbLine
 10
147.617467947049
 20
130.1302425387335
 30
0.0
 11
157.5541937725439
 21
130.1302425387335
 31
0.0
  0
LINE
  5
283
330
20
100
AcDbEntity
  8
0
100
AcDbLine
 10
147.6174679470491
 20
136.7302425387334
 30
0.0
 11
157.554193772544
 21
136.7302425387334
 31
0.0
  0
ARC
  5
284
330
20
100
AcDbEntity
  8
0
100
AcDbCircle
 10
147.554193772544
 20
129.1302425387335
 30
0.0
 40
0.5
100
AcDbArc
 50
179.9999999999996
 51
270.0
  0
ARC
  5
285
330
20
100
AcDbEntity
  8
0
100
AcDbCircle
 10
147.554193772544
 20
137.7302425387334
 30
0.0
 40
0.5
100
AcDbArc
 50
90.0
 51
179.9999999999996
  0
LINE
  5
286
330
20
100
AcDbEntity
  8
0
100
AcDbLine
 10
147.554193772544
 20
128.6302425387335
 30
0.0
 11
157.5541937725439
 21
128.6302425387335
 31
0.0
  0
LINE
  5
287
330
20
100
AcDbEntity
  8
0
100
AcDbLine
 10
147.554193772544
 20
138.2302425387334
 30
0.0
 11
157.554193772544
 21
138.2302425387334
 31
0.0
  0
LINE
  5
288
330
20
100
AcDbEntity
  8
0
100
AcDbLine
 10
147.054193772544
 20
137.7302425387334
 30
0.0
 11
147.054193772544
 21
129.1302425387335
 31
0.0
  0
LINE
  5
289
330
20
100
AcDbEntity
  8
0
100
AcDbLine
 10
178.903848023079
 20
254.3801475024982
 30
0.0
 11
184.2045395220098
 21
254.3801475024982
 31
0.0
  0
LINE
  5
28A
330
20
100
AcDbEntity
  8
0
100
AcDbLine
 10
184.7026368710555
 20
254.9237253738718
 30
0.0
 11
184.6746688749094
 21
255.2434010326245
 31
0.0
  0
LINE
  5
28B
330
20
100
AcDbEntity
  8
0
100
AcDbLine
 10
178.4057506740332
 20
254.9237253738723
 30
0.0
 11
178.4337186701791
 21
255.2434010326245
 31
0.0
  0
ARC
  5
28C
330
20
100
AcDbEntity
  8
0
100
AcDbCircle
 10
181.5541937725443
 20
246.5192903180635
 30
0.0
 40
9.760857184434854
100
AcDbArc
 50
74.94714726475625
 51
105.0528527352434
  0
ARC
  5
28D
330
20
100
AcDbEntity
  8
0
100
AcDbCircle
 10
183.8777131164361
 20
255.1736764384262
 30
0.0
 40
0.8
100
AcDbArc
 50
4.999999999997958
 51
74.67222679226484
  0
ARC
  5
28E
330
20
100
AcDbEntity
  8
0
100
AcDbCircle
 10
179.2306744286525
 20
255.1736764384262
 30
0.0
 40
0.8
100
AcDbArc
 50
105.3277732077353
 51
174.9999999999984
  0
ARC
  5
28F
330
20
100
AcDbEntity
  8
0
100
AcDbCircle
 10
184.2045395220098
 20
254.8801475024982
 30
0.0
 40
0.5
100
AcDbArc
 50
270.0
 51
4.999999999998263
  0
ARC
  5
290
330
20
100
AcDbEntity
  8
0
100
AcDbCircle
 10
178.903848023079
 20
254.8801475024982
 30
0.0
 40
0.5
100
AcDbArc
 50
174.9999999999982
 51
270.0
  0
LINE
  5
291
330
20
100
AcDbEntity
  8
0
100
AcDbLine
 10
33.68607974657266
 20
147.0786856372446
 30
0.0
 11
33.36640408782
 21
147.0507176410986
 31
0.0
  0
LINE
  5
292
330
20
100
AcDbEntity
  8
0
100
AcDbLine
 10
33.68607974657221
 20
140.7817994402223
 30
0.0
 11
33.36640408782
 21
140.8097674363682
 31
0.0
  0
ARC
  5
293
330
20
100
AcDbEntity
  8
0
100
AcDbCircle
 10
42.09051480238099
 20
143.9302425387334
 30
0.0
 40
9.760857184434854
100
AcDbArc
 50
164.9471472647562
 51
195.0528527352434
  0
ARC
  5
294
330
20
100
AcDbEntity
  8
0
100
AcDbCircle
 10
33.43612868201831
 20
146.2537618826251
 30
0.0
 40
0.8
100
AcDbArc
 50
94.99999999999795
 51
164.6722267922648
  0
ARC
  5
295
330
20
100
AcDbEntity
  8
0
100
AcDbCircle
 10
33.43612868201831
 20
141.6067231948417
 30
0.0
 40
0.8
100
AcDbArc
 50
195.3277732077353
 51
264.9999999999985
  0
ARC
  5
296
330
20
100
AcDbEntity
  8
0
100
AcDbCircle
 10
33.72965761794626
 20
146.5805882881988
 30
0.0
 40
0.5
100
AcDbArc
 50
0.0
 51
94.99999999999827
  0
ARC
  5
297
330
20
100
AcDbEntity
  8
0
100
AcDbCircle
 10
33.72965761794626
 20
141.2798967892681
 30
0.0
 40
0.5
100
AcDbArc
 50
264.9999999999982
 51
0.0
  0
LINE
  5
298
330
20
100
AcDbEntity
  8
0
100
AcDbLine
 10
34.22965761794626
 20
161.7798967892681
 30
0.0
 11
34.22965761794626
 21
167.0805882881988
 31
0.0
  0
LINE
  5
299
330
20
100
AcDbEntity
  8
0
100
AcDbLine
 10
33.68607974657266
 20
167.5786856372446
 30
0.0
 11
33.36640408782
 21
167.5507176410986
 31
0.0
  0
LINE
  5
29A
330
20
100
AcDbEntity
  8
0
100
AcDbLine
 10
33.68607974657221
 20
161.2817994402223
 30
0.0
 11
33.36640408782
 21
161.3097674363682
 31
0.0
  0
ARC
  5
29B
330
20
100
AcDbEntity
  8
0
100
AcDbCircle
 10
42.09051480238099
 20
164.4302425387334
 30
0.0
 40
9.760857184434854
100
AcDbArc
 50
164.9471472647562
 51
195.0528527352434
  0
ARC
  5
29C
330
20
100
AcDbEntity
  8
0
100
AcDbCircle
 10
33.43612868201831
 20
166.7537618826252
 30
0.0
 40
0.8
100
AcDbArc
 50
94.99999999999795
 51
164.6722267922648
  0
ARC
  5
29D
330
20
100
AcDbEntity
  8
0
100
AcDbCircle
 10
33.43612868201831
 20
162.1067231948417
 30
0.0
 40
0.8
100
AcDbArc
 50
195.3277732077353
 51
264.9999999999985
  0
ARC
  5
29E
330
20
100
AcDbEntity
  8
0
100
AcDbCircle
 10
33.72965761794626
 20
167.0805882881988
 30
0.0
 40
0.5
100
AcDbArc
 50
0.0
 51
94.99999999999827
  0
ARC
  5
29F
330
20
100
AcDbEntity
  8
0
100
AcDbCircle
 10
33.72965761794626
 20
161.7798967892681
 30
0.0
 40
0.5
100
AcDbArc
 50
264.9999999999982
 51
0.0
  0
ARC
  5
2A0
330
20
100
AcDbEntity
  8
0
100
AcDbCircle
 10
160.403848023079
 20
254.8801475024982
 30
0.0
 40
0.5
100
AcDbArc
 50
174.9999999999982
 51
270.0
  0
ARC
  5
2A1
330
20
100
AcDbEntity
  8
0
100
AcDbCircle
 10
165.7045395220098
 20
254.8801475024982
 30
0.0
 40
0.5
100
AcDbArc
 50
270.0
 51
4.999999999998263
  0
ARC
  5
2A2
330
20
100
AcDbEntity
  8
0
100
AcDbCircle
 10
160.7306744286525
 20
255.1736764384262
 30
0.0
 40
0.8
100
AcDbArc
 50
105.3277732077353
 51
174.9999999999984
  0
ARC
  5
2A3
330
20
100
AcDbEntity
  8
0
100
AcDbCircle
 10
165.3777131164361
 20
255.1736764384262
 30
0.0
 40
0.8
100
AcDbArc
 50
4.999999999997958
 51
74.67222679226484
  0
ARC
  5
2A4
330
20
100
AcDbEntity
  8
0
100
AcDbCircle
 10
163.0541937725443
 20
246.5192903180635
 30
0.0
 40
9.760857184434854
100
AcDbArc
 50
74.94714726475625
 51
105.0528527352434
  0
LINE
  5
2A5
330
20
100
AcDbEntity
  8
0
100
AcDbLine
 10
159.9057506740332
 20
254.9237253738723
 30
0.0
 11
159.9337186701791
 21
255.2434010326245
 31
0.0
  0
LINE
  5
2A6
330
20
100
AcDbEntity
  8
0
100
AcDbLine
 10
166.2026368710556
 20
254.9237253738718
 30
0.0
 11
166.1746688749094
 21
255.2434010326245
 31
0.0
  0
LINE
  5
2A7
330
20
100
AcDbEntity
  8
0
100
AcDbLine
 10
160.403848023079
 20
254.3801475024982
 30
0.0
 11
165.7045395220098
 21
254.3801475024982
 31
0.0
  0
LINE
  5
2A8
330
20
100
AcDbEntity
  8
0
100
AcDbLine
 10
277.137570157353
 20
161.7798967892681
 30
0.0
 11
277.137570157353
 21
167.0805882881988
 31
0.0
  0
LINE
  5
2A9
330
20
100
AcDbEntity
  8
0
100
AcDbLine
 10
277.6811480287266
 20
167.5786856372446
 30
0.0
 11
278.0008236874792
 21
167.5507176410986
 31
0.0
  0
LINE
  5
2AA
330
20
100
AcDbEntity
  8
0
100
AcDbLine
 10
277.681148028727
 20
161.2817994402223
 30
0.0
 11
278.0008236874792
 21
161.3097674363682
 31
0.0
  0
ARC
  5
2AB
330
20
100
AcDbEntity
  8
0
100
AcDbCircle
 10
269.2767129729182
 20
164.4302425387334
 30
0.0
 40
9.760857184434854
100
AcDbArc
 50
344.9471472647566
 51
15.05285273524375
  0
ARC
  5
2AC
330
20
100
AcDbEntity
  8
0
100
AcDbCircle
 10
277.9310990932809
 20
166.7537618826252
 30
0.0
 40
0.8
100
AcDbArc
 50
15.32777320773516
 51
85.00000000000206
  0
ARC
  5
2AD
330
20
100
AcDbEntity
  8
0
100
AcDbCircle
 10
277.9310990932809
 20
162.1067231948417
 30
0.0
 40
0.8
100
AcDbArc
 50
275.0000000000015
 51
344.6722267922647
  0
ARC
  5
2AE
330
20
100
AcDbEntity
  8
0
100
AcDbCircle
 10
277.637570157353
 20
167.0805882881988
 30
0.0
 40
0.5
100
AcDbArc
 50
85.00000000000174
 51
180.0
  0
ARC
  5
2AF
330
20
100
AcDbEntity
  8
0
100
AcDbCircle
 10
277.637570157353
 20
161.7798967892681
 30
0.0
 40
0.5
100
AcDbArc
 50
180.0
 51
275.0000000000018
  0
ARC
  5
2B0
330
20
100
AcDbEntity
  8
0
100
AcDbCircle
 10
277.637570157353
 20
141.2798967892681
 30
0.0
 40
0.5
100
AcDbArc
 50
180.0
 51
275.0000000000018
  0
ARC
  5
2B1
330
20
100
AcDbEntity
  8
0
100
AcDbCircle
 10
277.637570157353
 20
146.5805882881988
 30
0.0
 40
0.5
100
AcDbArc
 50
85.00000000000174
 51
180.0
  0
ARC
  5
2B2
330
20
100
AcDbEntity
  8
0
100
AcDbCircle
 10
277.9310990932809
 20
141.6067231948417
 30
0.0
 40
0.8
100
AcDbArc
 50
275.0000000000015
 51
344.6722267922647
  0
ARC
  5
2B3
330
20
100
AcDbEntity
  8
0
100
AcDbCircle
 10
277.9310990932809
 20
146.2537618826251
 30
0.0
 40
0.8
100
AcDbArc
 50
15.32777320773516
 51
85.00000000000206
  0
ARC
  5
2B4
330
20
100
AcDbEntity
  8
0
100
AcDbCircle
 10
269.2767129729182
 20
143.9302425387334
 30
0.0
 40
9.760857184434854
100
AcDbArc
 50
344.9471472647566
 51
15.05285273524375
  0
LINE
  5
2B5
330
20
100
AcDbEntity
  8
0
100
AcDbLine
 10
277.681148028727
 20
140.7817994402223
 30
0.0
 11
278.0008236874792
 21
140.8097674363682
 31
0.0
  0
LINE
  5
2B6
330
20
100
AcDbEntity
  8
0
100
AcDbLine
 10
277.6811480287266
 20
147.0786856372446
 30
0.0
 11
278.0008236874792
 21
147.0507176410986
 31
0.0
  0
LINE
  5
2B7
330
20
100
AcDbEntity
  8
0
100
AcDbLine
 10
277.137570157353
 20
141.2798967892681
 30
0.0
 11
277.137570157353
 21
146.5805882881988
 31
0.0
  0
LINE
  5
2B8
330
20
100
AcDbEntity
  8
0
100
AcDbLine
 10
40.62965761794622
 20
165.9302425387334
 30
0.0
 11
40.62965761794622
 21
167.9302425387335
 31
0.0
  0
LINE
  5
2B9
330
20
100
AcDbEntity
  8
0
100
AcDbLine
 10
38.62965761794612
 20
165.9302425387334
 30
0.0
 11
38.62965761794612
 21
140.9302425387334
 31
0.0
  0
LINE
  5
2BA
330
20
100
AcDbEntity
  8
0
100
AcDbLine
 10
36.32965761794618
 20
165.9302425387334
 30
0.0
 11
36.32965761794606
 21
140.9302425387334
 31
0.0
  0
LINE
  5
2BB
330
20
100
AcDbEntity
  8
0
100
AcDbLine
 10
38.62965761794625
 20
165.9302425387334
 30
0.0
 11
36.32965761794618
 21
165.9302425387334
 31
0.0
  0
LINE
  5
2BC
330
20
100
AcDbEntity
  8
0
100
AcDbLine
 10
159.5541937725443
 20
249.9801475024982
 30
0.0
 11
159.5541937725443
 21
223.1801475024981
 31
0.0
  0
LINE
  5
2BD
330
20
100
AcDbEntity
  8
0
100
AcDbLine
 10
275.137570157353
 20
140.1302425387335
 30
0.0
 11
275.137570157353
 21
167.9302425387334
 31
0.0
  0
LINE
  5
2BE
330
20
100
AcDbEntity
  8
0
100
AcDbLine
 10
275.137570157353
 20
167.9302425387334
 30
0.0
 11
277.137570157353
 21
167.9302425387334
 31
0.0
  0
LINE
  5
2BF
330
20
100
AcDbEntity
  8
0
100
AcDbLine
 10
277.137570157353
 20
167.9302425387334
 30
0.0
 11
277.137570157353
 21
140.1302425387335
 31
0.0
  0
LINE
  5
2C0
330
20
100
AcDbEntity
  8
0
100
AcDbLine
 10
277.137570157353
 20
140.1302425387335
 30
0.0
 11
275.137570157353
 21
140.1302425387335
 31
0.0
  0
LINE
  5
2C1
330
20
100
AcDbEntity
  8
0
100
AcDbLine
 10
270.7375701573529
 20
167.9302425387335
 30
0.0
 11
270.7375701573529
 21
140.1302425387335
 31
0.0
  0
LINE
  5
2C2
330
20
100
AcDbEntity
  8
0
100
AcDbLine
 10
275.137570157353
 20
145.9302425387335
 30
0.0
 11
275.137570157353
 21
140.1302425387335
 31
0.0
  0
LINE
  5
2C3
330
20
100
AcDbEntity
  8
0
100
AcDbLine
 10
272.737570157353
 20
161.4302425387335
 30
0.0
 11
272.7375701573529
 21
167.9302425387335
 31
0.0
  0
LINE
  5
2C4
330
20
100
AcDbEntity
  8
0
100
AcDbLine
 10
270.7375701573529
 20
140.1302425387335
 30
0.0
 11
275.137570157353
 21
140.1302425387335
 31
0.0
  0
LINE
  5
2C5
330
20
100
AcDbEntity
  8
0
100
AcDbLine
 10
275.137570157353
 20
167.9302425387334
 30
0.0
 11
270.7375701573529
 21
167.9302425387335
 31
0.0
  0
LINE
  5
2C6
330
20
100
AcDbEntity
  8
0
100
AcDbLine
 10
275.137570157353
 20
161.4302425387335
 30
0.0
 11
272.7375701573529
 21
161.4302425387335
 31
0.0
  0
LINE
  5
2C7
330
20
100
AcDbEntity
  8
0
100
AcDbLine
 10
275.137570157353
 20
161.4302425387335
 30
0.0
 11
275.137570157353
 21
167.9302425387334
 31
0.0
  0
LINE
  5
2C8
330
20
100
AcDbEntity
  8
0
100
AcDbLine
 10
159.5541937725438
 20
252.3801475024982
 30
0.0
 11
185.0541937725438
 21
252.3801475024982
 31
0.0
  0
LINE
  5
2C9
330
20
100
AcDbEntity
  8
0
100
AcDbLine
 10
159.5541937725438
 20
254.3801475024982
 30
0.0
 11
159.5541937725438
 21
252.3801475024982
 31
0.0
  0
LINE
  5
2CA
330
20
100
AcDbEntity
  8
0
100
AcDbLine
 10
185.0541937725438
 20
254.3801475024982
 30
0.0
 11
159.5541937725438
 21
254.3801475024982
 31
0.0
  0
LINE
  5
2CB
330
20
100
AcDbEntity
  8
0
100
AcDbLine
 10
185.0541937725438
 20
252.3801475024982
 30
0.0
 11
185.0541937725438
 21
254.3801475024982
 31
0.0
  0
LINE
  5
2CC
330
20
100
AcDbEntity
  8
0
100
AcDbLine
 10
36.22965761794626
 20
167.9302425387334
 30
0.0
 11
40.62965761794635
 21
167.9302425387335
 31
0.0
  0
LINE
  5
2CD
330
20
100
AcDbEntity
  8
0
100
AcDbLine
 10
40.62965761794622
 20
140.1302425387335
 30
0.0
 11
36.22965761794615
 21
140.1302425387335
 31
0.0
  0
LINE
  5
2CE
330
20
100
AcDbEntity
  8
0
100
AcDbLine
 10
38.62965761794625
 20
165.9302425387334
 30
0.0
 11
38.62965761794625
 21
167.9302425387335
 31
0.0
  0
LINE
  5
2CF
330
20
100
AcDbEntity
  8
0
100
AcDbLine
 10
40.62965761794635
 20
167.9302425387335
 30
0.0
 11
40.62965761794635
 21
165.9302425387334
 31
0.0
  0
LINE
  5
2D0
330
20
100
AcDbEntity
  8
0
100
AcDbLine
 10
34.22965761794626
 20
140.1302425387335
 30
0.0
 11
36.22965761794626
 21
140.1302425387335
 31
0.0
  0
LINE
  5
2D1
330
20
100
AcDbEntity
  8
0
100
AcDbLine
 10
34.22965761794626
 20
167.9302425387334
 30
0.0
 11
34.22965761794626
 21
140.1302425387335
 31
0.0
  0
LINE
  5
2D2
330
20
100
AcDbEntity
  8
0
100
AcDbLine
 10
36.22965761794626
 20
167.9302425387334
 30
0.0
 11
34.22965761794626
 21
167.9302425387334
 31
0.0
  0
LINE
  5
2D3
330
20
100
AcDbEntity
  8
0
100
AcDbLine
 10
36.22965761794626
 20
140.1302425387335
 30
0.0
 11
36.22965761794626
 21
167.9302425387334
 31
0.0
  0
ARC
  5
2D4
330
20
100
AcDbEntity
  8
0
100
AcDbCircle
 10
169.5541937725442
 20
155.9302425387335
 30
0.0
 40
2.25
100
AcDbArc
 50
168.7489885958886
 51
281.2510114041113
  0
LINE
  5
2D5
330
20
100
AcDbEntity
  8
0
100
AcDbLine
 10
164.6398016432974
 20
159.0768677150137
 30
0.0
 11
172.7008189488241
 21
151.0158504094871
 31
0.0
  0
LINE
  5
2D6
330
20
100
AcDbEntity
  8
0
100
AcDbLine
 10
171.2866053864511
 20
152.43006397186
 30
0.0
 11
173.0543723394173
 21
154.1978309248265
 31
0.0
  0
LINE
  5
2D7
330
20
100
AcDbEntity
  8
0
100
AcDbLine
 10
174.4685859017904
 20
152.7836173624534
 30
0.0
 11
166.4075685962639
 21
160.84463466798
 31
0.0
  0
LINE
  5
2D8
330
20
100
AcDbEntity
  8
0
100
AcDbLine
 10
167.821782158637
 20
159.4304211056068
 30
0.0
 11
166.0540152056706
 21
157.6626541526406
 31
0.0
  0
ARC
  5
2D9
330
20
100
AcDbEntity
  8
0
100
AcDbCircle
 10
169.5541937725442
 20
155.9302425387335
 30
0.0
 40
2.25
100
AcDbArc
 50
348.7489885958887
 51
101.2510114041114
  0
LINE
  5
2DA
330
20
100
AcDbEntity
  8
0
100
AcDbLine
 10
166.4075685962639
 20
160.84463466798
 30
0.0
 11
164.6398016432974
 21
159.0768677150137
 31
0.0
  0
LINE
  5
2DB
330
20
100
AcDbEntity
  8
0
100
AcDbLine
 10
172.7008189488241
 20
151.0158504094871
 30
0.0
 11
174.4685859017904
 21
152.7836173624534
 31
0.0
  0
CIRCLE
  5
2DC
330
20
100
AcDbEntity
  8
0
100
AcDbCircle
 10
169.5541937725442
 20
155.9302425387335
 30
0.0
 40
8.25
  0
LINE
  5
2DD
330
20
100
AcDbEntity
  8
0
100
AcDbLine
 10
40.47943678624675
 20
136.7302425387335
 30
0.0
 11
40.47943678624675
 21
130.1302425387335
 31
0.0
  0
LINE
  5
2DE
330
20
100
AcDbEntity
  8
0
100
AcDbLine
 10
42.47943678624675
 20
136.7302425387334
 30
0.0
 11
42.47943678624675
 21
130.1302425387335
 31
0.0
  0
ARC
  5
2DF
330
20
100
AcDbEntity
  8
0
100
AcDbCircle
 10
31.82965761794628
 20
129.1302425387335
 30
0.0
 40
0.5
100
AcDbArc
 50
179.9999999999957
 51
270.0
  0
ARC
  5
2E0
330
20
100
AcDbEntity
  8
0
100
AcDbCircle
 10
47.62965761794612
 20
129.1302425387335
 30
0.0
 40
0.5
100
AcDbArc
 50
270.0
 51
0.0
  0
ARC
  5
2E1
330
20
100
AcDbEntity
  8
0
100
AcDbCircle
 10
47.62965761794612
 20
137.7302425387334
 30
0.0
 40
0.5
100
AcDbArc
 50
0.0
 51
90.0
  0
ARC
  5
2E2
330
20
100
AcDbEntity
  8
0
100
AcDbCircle
 10
31.82965761794628
 20
137.7302425387334
 30
0.0
 40
0.5
100
AcDbArc
 50
90.0
 51
180.0000000000043
  0
LINE
  5
2E3
330
20
100
AcDbEntity
  8
0
100
AcDbLine
 10
159.5541937725443
 20
240.4801475024981
 30
0.0
 11
153.8327743591605
 21
240.4801475024981
 31
0.0
  0
LINE
  5
2E4
330
20
100
AcDbEntity
  8
0
100
AcDbLine
 10
160.1741937725444
 20
257.2801475024982
 30
0.0
 11
155.3330934328753
 21
257.2801475024982
 31
0.0
  0
LINE
  5
2E5
330
20
100
AcDbEntity
  8
0
100
AcDbLine
 10
45.22965761794615
 20
136.7302425387334
 30
0.0
 11
45.22965761794603
 21
130.1302425387335
 31
0.0
  0
LINE
  5
2E6
330
20
100
AcDbEntity
  8
0
100
AcDbLine
 10
34.22965761794614
 20
136.7302425387334
 30
0.0
 11
34.22965761794626
 21
130.1302425387335
 31
0.0
  0
LINE
  5
2E7
330
20
100
AcDbEntity
  8
0
100
AcDbLine
 10
48.12965761794612
 20
136.7302425387334
 30
0.0
 11
48.12965761794612
 21
137.7302425387334
 31
0.0
  0
LINE
  5
2E8
330
20
100
AcDbEntity
  8
0
100
AcDbLine
 10
31.32965761794628
 20
130.1302425387335
 30
0.0
 11
31.32965761794628
 21
129.1302425387335
 31
0.0
  0
LINE
  5
2E9
330
20
100
AcDbEntity
  8
0
100
AcDbLine
 10
42.47943678624675
 20
130.1302425387335
 30
0.0
 11
48.12965761794612
 21
130.1302425387335
 31
0.0
  0
LINE
  5
2EA
330
20
100
AcDbEntity
  8
0
100
AcDbLine
 10
40.47943678624675
 20
136.7302425387335
 30
0.0
 11
31.32965761794617
 21
136.7302425387334
 31
0.0
  0
LINE
  5
2EB
330
20
100
AcDbEntity
  8
0
100
AcDbLine
 10
31.32965761794617
 20
130.1302425387335
 30
0.0
 11
40.47943678624675
 21
130.1302425387335
 31
0.0
  0
LINE
  5
2EC
330
20
100
AcDbEntity
  8
0
100
AcDbLine
 10
48.12965761794612
 20
136.7302425387334
 30
0.0
 11
42.47943678624675
 21
136.7302425387334
 31
0.0
  0
LINE
  5
2ED
330
20
100
AcDbEntity
  8
0
100
AcDbLine
 10
36.22965761794615
 20
136.7302425387334
 30
0.0
 11
36.22965761794626
 21
130.1302425387335
 31
0.0
  0
LINE
  5
2EE
330
20
100
AcDbEntity
  8
0
100
AcDbLine
 10
43.22965761794614
 20
136.7302425387334
 30
0.0
 11
43.22965761794603
 21
130.1302425387335
 31
0.0
  0
LINE
  5
2EF
330
20
100
AcDbEntity
  8
0
100
AcDbLine
 10
47.62965761794612
 20
138.2302425387334
 30
0.0
 11
31.82965761794628
 21
138.2302425387334
 31
0.0
  0
LINE
  5
2F0
330
20
100
AcDbEntity
  8
0
100
AcDbLine
 10
48.12965761794612
 20
129.1302425387335
 30
0.0
 11
48.12965761794612
 21
130.1302425387335
 31
0.0
  0
LINE
  5
2F1
330
20
100
AcDbEntity
  8
0
100
AcDbLine
 10
31.82965761794628
 20
128.6302425387335
 30
0.0
 11
47.62965761794612
 21
128.6302425387335
 31
0.0
  0
LINE
  5
2F2
330
20
100
AcDbEntity
  8
0
100
AcDbLine
 10
31.32965761794628
 20
137.7302425387334
 30
0.0
 11
31.32965761794628
 21
136.7302425387334
 31
0.0
  0
LINE
  5
2F3
330
20
100
AcDbEntity
  8
0
100
AcDbLine
 10
41.47965761794615
 20
128.6302425387335
 30
0.0
 11
41.47965761794624
 21
138.2302425387334
 31
0.0
  0
LINE
  5
2F4
330
20
100
AcDbEntity
  8
0
100
AcDbLine
 10
159.5541937725438
 20
247.9801475024982
 30
0.0
 11
185.0541937725436
 21
247.9801475024982
 31
0.0
  0
LINE
  5
2F5
330
20
100
AcDbEntity
  8
0
100
AcDbLine
 10
159.5541937725439
 20
249.9801475024982
 30
0.0
 11
179.5541937725438
 21
249.9801475024982
 31
0.0
  0
LINE
  5
2F6
330
20
100
AcDbEntity
  8
0
100
AcDbLine
 10
185.0541937725436
 20
252.3801475024982
 30
0.0
 11
185.0541937725436
 21
247.9801475024982
 31
0.0
  0
LINE
  5
2F7
330
20
100
AcDbEntity
  8
0
100
AcDbLine
 10
179.5541937725438
 20
252.3801475024982
 30
0.0
 11
179.5541937725438
 21
249.9801475024982
 31
0.0
  0
LINE
  5
2F8
330
20
100
AcDbEntity
  8
0
100
AcDbLine
 10
159.5541937725438
 20
249.9801475024982
 30
0.0
 11
159.5541937725438
 21
247.9801475024982
 31
0.0
  0
LINE
  5
2F9
330
20
100
AcDbEntity
  8
0
100
AcDbLine
 10
179.5541937725438
 20
252.3801475024982
 30
0.0
 11
185.0541937725436
 21
252.3801475024982
 31
0.0
  0
LINE
  5
2FA
330
20
100
AcDbEntity
  8
0
100
AcDbLine
 10
159.554193772544
 20
252.3801475024982
 30
0.0
 11
164.0541937725438
 21
252.3801475024982
 31
0.0
  0
LINE
  5
2FB
330
20
100
AcDbEntity
  8
0
100
AcDbLine
 10
36.22965761794626
 20
139.9302425387335
 30
0.0
 11
36.22965761794626
 21
140.1302425387335
 31
0.0
  0
CIRCLE
  5
2FC
330
20
100
AcDbEntity
  8
0
100
AcDbCircle
 10
169.554193772544
 20
155.9302425387335
 30
0.0
 40
8.5
  0
LINE
  5
2FD
330
20
100
AcDbEntity
  8
0
100
AcDbLine
 10
34.47965761794637
 20
128.4302425387335
 30
0.0
 11
34.47965761794637
 21
126.9302425387335
 31
0.0
  0
LINE
  5
2FE
330
20
100
AcDbEntity
  8
0
100
AcDbLine
 10
34.47965761794626
 20
139.9302425387335
 30
0.0
 11
34.47965761794626
 21
138.4302425387335
 31
0.0
  0
LINE
  5
2FF
330
20
100
AcDbEntity
  8
0
100
AcDbLine
 10
31.22965761794626
 20
130.4302425387335
 30
0.0
 11
31.22965761794626
 21
128.4302425387335
 31
0.0
  0
ARC
  5
300
330
20
100
AcDbEntity
  8
0
100
AcDbCircle
 10
161.3739976752629
 20
258.1801475024982
 30
0.0
 40
1.0
100
AcDbArc
 50
89.99999999999976
 51
168.69006752598
  0
LINE
  5
301
330
20
100
AcDbEntity
  8
0
100
AcDbLine
 10
159.5941937725443
 20
254.3801475024982
 30
0.0
 11
160.3934169995719
 21
258.3762636376363
 31
0.0
  0
LINE
  5
302
330
20
100
AcDbEntity
  8
0
100
AcDbLine
 10
175.9408085635921
 20
168.0505210632049
 30
0.0
 11
175.4746323014716
 21
167.1658292001048
 31
0.0
  0
LINE
  5
303
330
20
100
AcDbEntity
  8
0
100
AcDbLine
 10
163.167578981496
 20
168.0505210632049
 30
0.0
 11
163.6337552436163
 21
167.1658292001049
 31
0.0
  0
LINE
  5
304
330
20
100
AcDbEntity
  8
0
100
AcDbLine
 10
178.0394751467825
 20
164.4155239129719
 30
0.0
 11
175.9408085635921
 21
168.0505210632049
 31
0.0
  0
LINE
  5
305
330
20
100
AcDbEntity
  8
0
100
AcDbLine
 10
161.0689123983055
 20
164.415523912972
 30
0.0
 11
163.167578981496
 21
168.0505210632049
 31
0.0
  0
ARC
  5
306
330
20
100
AcDbEntity
  8
0
100
AcDbCircle
 10
169.5541937725438
 20
155.9302425387333
 30
0.0
 40
12.7
100
AcDbArc
 50
62.21362569273278
 51
117.786374307267
  0
ARC
  5
307
330
20
100
AcDbEntity
  8
0
100
AcDbCircle
 10
169.5541937725438
 20
155.9302425387333
 30
0.0
 40
12.0
100
AcDbArc
 50
45.0
 51
134.999999999999
  0
ARC
  5
308
330
20
100
AcDbEntity
  8
0
100
AcDbCircle
 10
68.93365761794665
 20
94.4676420947246
 30
0.0
 40
0.5
100
AcDbArc
 50
279.9999999999994
 51
0.0000000000000254
  0
ARC
  5
309
330
20
100
AcDbEntity
  8
0
100
AcDbCircle
 10
67.4296576179463
 20
94.20244631573902
 30
0.0
 40
0.5
100
AcDbArc
 50
279.9999999999991
 51
0.0000000000000254
  0
ARC
  5
30A
330
20
100
AcDbEntity
  8
0
100
AcDbCircle
 10
68.93365761794665
 20
172.3928429827424
 30
0.0
 40
0.5
100
AcDbArc
 50
0.0
 51
80.00000000000026
  0
ARC
  5
30B
330
20
100
AcDbEntity
  8
0
100
AcDbCircle
 10
67.4296576179463
 20
172.6580387617279
 30
0.0
 40
0.5
100
AcDbArc
 50
0.0
 51
79.99999999999996
  0
ARC
  5
30C
330
20
100
AcDbEntity
  8
0
100
AcDbCircle
 10
185.5541937725443
 20
239.8475086834736
 30
0.0
 40
0.5
100
AcDbArc
 50
180.0
 51
310.6469211610147
  0
LINE
  5
30D
330
20
100
AcDbEntity
  8
0
100
AcDbLine
 10
61.42965761794631
 20
97.27118672636899
 30
0.0
 11
59.43287934376781
 21
97.81670397853055
 31
0.0
  0
LINE
  5
30E
330
20
100
AcDbEntity
  8
0
100
AcDbLine
 10
61.42965761794631
 20
97.46969177361329
 30
0.0
 11
58.98967436164435
 21
98.87841676345724
 31
0.0
  0
ARC
  5
30F
330
20
100
AcDbEntity
  8
0
100
AcDbCircle
 10
52.42965761794607
 20
99.16811428454664
 30
0.0
 40
1.0
100
AcDbArc
 50
180.0000000000011
 51
267.1375947738884
  0
ARC
  5
310
330
20
100
AcDbEntity
  8
0
100
AcDbCircle
 10
52.92965761794608
 20
100.1443635042717
 30
0.0
 40
3.5
100
AcDbArc
 50
187.0603261818063
 51
267.1375947738884
  0
ARC
  5
311
330
20
100
AcDbEntity
  8
0
100
AcDbCircle
 10
51.9296576179463
 20
103.0094576242357
 30
0.0
 40
3.5
100
AcDbArc
 50
261.8295899364172
 51
265.0000000000004
  0
LINE
  5
312
330
20
100
AcDbEntity
  8
0
100
AcDbLine
 10
51.42965761794608
 20
99.16811428454664
 30
0.0
 11
51.42965761794608
 21
99.49417827406223
 31
0.0
  0
LINE
  5
313
330
20
100
AcDbEntity
  8
0
100
AcDbLine
 10
59.43287934376781
 20
97.81670397853055
 30
0.0
 11
52.37972000100217
 21
98.16936194566878
 31
0.0
  0
LINE
  5
314
330
20
100
AcDbEntity
  8
0
100
AcDbLine
 10
59.42965761794607
 20
96.31499123523408
 30
0.0
 11
52.75487595864252
 21
96.64873031819931
 31
0.0
  0
ARC
  5
315
330
20
100
AcDbEntity
  8
0
100
AcDbCircle
 10
63.49106302862036
 20
95.82327231502814
 30
0.0
 40
1.0
100
AcDbArc
 50
248.9482755646269
 51
329.9999999999998
  0
LINE
  5
316
330
20
100
AcDbEntity
  8
0
100
AcDbLine
 10
64.92965761794607
 20
96.31499123523408
 30
0.0
 11
64.50779873449846
 21
96.43024253873349
 31
0.0
  0
LINE
  5
317
330
20
100
AcDbEntity
  8
0
100
AcDbLine
 10
63.13185242456689
 20
94.89001578977079
 30
0.0
 11
59.42965761794607
 21
96.31499123523408
 31
0.0
  0
LINE
  5
318
330
20
100
AcDbEntity
  8
0
100
AcDbLine
 10
64.92965761794607
 20
96.31499123523408
 30
0.0
 11
64.35708843240489
 21
95.32327231502815
 31
0.0
  0
LINE
  5
319
330
20
100
AcDbEntity
  8
0
100
AcDbLine
 10
64.92965761794607
 20
96.31499123523408
 30
0.0
 11
65.42965761794608
 21
96.31499123523408
 31
0.0
  0
LINE
  5
31A
330
20
100
AcDbEntity
  8
0
100
AcDbLine
 10
49.45640732214907
 20
99.71246955577845
 30
0.0
 11
49.21176826107718
 21
99.73387270027785
 31
0.0
  0
LINE
  5
31B
330
20
100
AcDbEntity
  8
0
100
AcDbLine
 10
261.6712806710203
 20
167.9302425387334
 30
0.0
 11
270.7335701573525
 21
167.9302425387335
 31
0.0
  0
LINE
  5
31C
330
20
100
AcDbEntity
  8
0
100
AcDbLine
 10
252.263697176275
 20
167.9302425387334
 30
0.0
 11
259.8691470446498
 21
167.9302425387334
 31
0.0
  0
LINE
  5
31D
330
20
100
AcDbEntity
  8
0
100
AcDbLine
 10
261.9068204531498
 20
167.0327642181892
 30
0.0
 11
262.1514595142217
 21
167.0113610736898
 31
0.0
  0
ARC
  5
31E
330
20
100
AcDbEntity
  8
0
100
AcDbCircle
 10
261.9335701573529
 20
164.5208743284604
 30
0.0
 40
2.5
100
AcDbArc
 50
359.9999999999998
 51
85.00000000000024
  0
LINE
  5
31F
330
20
100
AcDbEntity
  8
0
100
AcDbLine
 10
261.9068204531498
 20
99.82772085927784
 30
0.0
 11
262.1514595142217
 21
99.84912400377723
 31
0.0
  0
ARC
  5
320
330
20
100
AcDbEntity
  8
0
100
AcDbCircle
 10
261.9335701573525
 20
102.3396107490066
 30
0.0
 40
2.5
100
AcDbArc
 50
274.9999999999998
 51
359.9999999999998
  0
LINE
  5
321
330
20
100
AcDbEntity
  8
0
100
AcDbLine
 10
264.4335701573526
 20
102.3396107490066
 30
0.0
 11
264.4335701573528
 21
164.5208743284604
 31
0.0
  0
ARC
  5
322
330
20
100
AcDbEntity
  8
0
100
AcDbCircle
 10
280.4335701573526
 20
138.4302425387335
 30
0.0
 40
1.5
100
AcDbArc
 50
0.0
 51
90.0
  0
ARC
  5
323
330
20
100
AcDbEntity
  8
0
100
AcDbCircle
 10
280.4335701573526
 20
128.4302425387335
 30
0.0
 40
1.5
100
AcDbArc
 50
270.0
 51
0.0
  0
LINE
  5
324
330
20
100
AcDbEntity
  8
0
100
AcDbLine
 10
281.9335701573526
 20
128.4302425387335
 30
0.0
 11
281.9335701573526
 21
138.4302425387335
 31
0.0
  0
LINE
  5
325
330
20
100
AcDbEntity
  8
0
100
AcDbLine
 10
264.4335701573526
 20
126.9302425387335
 30
0.0
 11
280.4335701573526
 21
126.9302425387335
 31
0.0
  0
LINE
  5
326
330
20
100
AcDbEntity
  8
0
100
AcDbLine
 10
264.4335701573526
 20
139.9302425387335
 30
0.0
 11
280.4335701573526
 21
139.9302425387335
 31
0.0
  0
ARC
  5
327
330
20
100
AcDbEntity
  8
0
100
AcDbCircle
 10
188.8111727129387
 20
236.0538181080804
 30
0.0
 40
4.5
100
AcDbArc
 50
94.99999999999998
 51
130.6469211610146
  0
LINE
  5
328
330
20
100
AcDbEntity
  8
0
100
AcDbLine
 10
201.4887023581814
 20
241.6801475024981
 30
0.0
 11
188.4189718705743
 21
240.5366942494933
 31
0.0
  0
ARC
  5
329
330
20
100
AcDbEntity
  8
0
100
AcDbCircle
 10
242.4335701573526
 20
172.108756871235
 30
0.0
 40
0.5
100
AcDbArc
 50
104.9999999999998
 51
180.0
  0
ARC
  5
32A
330
20
100
AcDbEntity
  8
0
100
AcDbCircle
 10
243.9335701573526
 20
172.5106806598818
 30
0.0
 40
0.5
100
AcDbArc
 50
104.9999999999997
 51
180.0
  0
ARC
  5
32B
330
20
100
AcDbEntity
  8
0
100
AcDbCircle
 10
243.9335701573526
 20
94.3498044175852
 30
0.0
 40
0.5
100
AcDbArc
 50
180.0
 51
254.999999999999
  0
ARC
  5
32C
330
20
100
AcDbEntity
  8
0
100
AcDbCircle
 10
242.4335701573526
 20
94.75172820623193
 30
0.0
 40
0.5
100
AcDbArc
 50
180.0
 51
254.9999999999993
  0
LINE
  5
32D
330
20
100
AcDbEntity
  8
0
100
AcDbLine
 10
243.4335701573526
 20
94.3498044175852
 30
0.0
 11
243.4335701573526
 21
172.5106806598818
 31
0.0
  0
LINE
  5
32E
330
20
100
AcDbEntity
  8
0
100
AcDbLine
 10
67.9296576179463
 20
94.20244631573902
 30
0.0
 11
67.9296576179463
 21
172.6580387617279
 31
0.0
  0
LINE
  5
32F
330
20
100
AcDbEntity
  8
0
100
AcDbLine
 10
248.3085701573525
 20
162.4302425387336
 30
0.0
 11
248.3085701573525
 21
164.4302425387335
 31
0.0
  0
LINE
  5
330
330
20
100
AcDbEntity
  8
0
100
AcDbLine
 10
247.4335701573526
 20
162.4302425387336
 30
0.0
 11
247.4335701573526
 21
164.4302425387335
 31
0.0
  0
LINE
  5
331
330
20
100
AcDbEntity
  8
0
100
AcDbLine
 10
248.3085701573525
 20
102.4302425387335
 30
0.0
 11
248.3085701573525
 21
104.4302425387335
 31
0.0
  0
LINE
  5
332
330
20
100
AcDbEntity
  8
0
100
AcDbLine
 10
247.4335701573526
 20
102.4302425387335
 30
0.0
 11
247.4335701573526
 21
104.4302425387335
 31
0.0
  0
LINE
  5
333
330
20
100
AcDbEntity
  8
0
100
AcDbLine
 10
245.9335701573526
 20
102.4302425387335
 30
0.0
 11
248.3085701573525
 21
102.4302425387335
 31
0.0
  0
LINE
  5
334
330
20
100
AcDbEntity
  8
0
100
AcDbLine
 10
245.9335701573526
 20
104.4302425387335
 30
0.0
 11
248.3085701573525
 21
104.4302425387335
 31
0.0
  0
LINE
  5
335
330
20
100
AcDbEntity
  8
0
100
AcDbLine
 10
245.9335701573526
 20
162.4302425387335
 30
0.0
 11
248.3085701573525
 21
162.4302425387335
 31
0.0
  0
LINE
  5
336
330
20
100
AcDbEntity
  8
0
100
AcDbLine
 10
245.9335701573526
 20
164.4302425387335
 30
0.0
 11
248.3085701573525
 21
164.4302425387335
 31
0.0
  0
LINE
  5
337
330
20
100
AcDbEntity
  8
0
100
AcDbLine
 10
245.4335701573526
 20
173.4302425387335
 30
0.0
 11
242.3041606348014
 21
172.5917197843797
 31
0.0
  0
LINE
  5
338
330
20
100
AcDbEntity
  8
0
100
AcDbLine
 10
245.4335701573526
 20
93.4302425387335
 30
0.0
 11
245.4335701573526
 21
173.4302425387335
 31
0.0
  0
LINE
  5
339
330
20
100
AcDbEntity
  8
0
100
AcDbLine
 10
246.4335701573526
 20
96.43024253873349
 30
0.0
 11
245.9335701573526
 21
96.43024253873349
 31
0.0
  0
LINE
  5
33A
330
20
100
AcDbEntity
  8
0
100
AcDbLine
 10
241.9335701573526
 20
172.108756871235
 30
0.0
 11
241.9335701573526
 21
94.75172820623193
 31
0.0
  0
LINE
  5
33B
330
20
100
AcDbEntity
  8
0
100
AcDbLine
 10
245.4335701573526
 20
93.4302425387335
 30
0.0
 11
245.9335701573526
 21
93.4302425387335
 31
0.0
  0
LINE
  5
33C
330
20
100
AcDbEntity
  8
0
100
AcDbLine
 10
245.9335701573526
 20
93.4302425387335
 30
0.0
 11
245.9335701573526
 21
173.4302425387335
 31
0.0
  0
LINE
  5
33D
330
20
100
AcDbEntity
  8
0
100
AcDbLine
 10
245.9335701573526
 20
173.4302425387335
 30
0.0
 11
245.4335701573526
 21
173.4302425387335
 31
0.0
  0
LINE
  5
33E
330
20
100
AcDbEntity
  8
0
100
AcDbLine
 10
252.3735534136543
 20
98.99366806695672
 30
0.0
 11
259.9314980731234
 21
99.65490254421649
 31
0.0
  0
LINE
  5
33F
330
20
100
AcDbEntity
  8
0
100
AcDbLine
 10
246.4335701573526
 20
96.43024253873349
 30
0.0
 11
247.0061393428939
 21
95.43852361852756
 31
0.0
  0
LINE
  5
340
330
20
100
AcDbEntity
  8
0
100
AcDbLine
 10
261.9335701573525
 20
100.2596148077711
 30
0.0
 11
261.9335701573525
 21
100.330061155148
 31
0.0
  0
LINE
  5
341
330
20
100
AcDbEntity
  8
0
100
AcDbLine
 10
248.231375350732
 20
95.0052670932702
 30
0.0
 11
251.9335701573526
 21
96.43024253873349
 31
0.0
  0
LINE
  5
342
330
20
100
AcDbEntity
  8
0
100
AcDbLine
 10
246.4335701573526
 20
96.43024253873349
 30
0.0
 11
251.9303484315311
 21
97.93195528203
 31
0.0
  0
ARC
  5
343
330
20
100
AcDbEntity
  8
0
100
AcDbCircle
 10
247.8721647466783
 20
95.93852361852757
 30
0.0
 40
1.0
100
AcDbArc
 50
210.0000000000001
 51
291.051724435373
  0
LINE
  5
344
330
20
100
AcDbEntity
  8
0
100
AcDbLine
 10
251.9335701573526
 20
96.43024253873349
 30
0.0
 11
258.6083518166564
 21
96.76398162169872
 31
0.0
  0
LINE
  5
345
330
20
100
AcDbEntity
  8
0
100
AcDbLine
 10
251.9303484315311
 20
97.93195528203
 30
0.0
 11
258.9835077742967
 21
98.28461324916821
 31
0.0
  0
LINE
  5
346
330
20
100
AcDbEntity
  8
0
100
AcDbLine
 10
259.9335701573529
 20
99.28336558804605
 30
0.0
 11
259.9335701573529
 21
99.60942957756168
 31
0.0
  0
LINE
  5
347
330
20
100
AcDbEntity
  8
0
100
AcDbLine
 10
245.9335701573526
 20
98.93024253873349
 30
0.0
 11
261.9335701573525
 21
100.330061155148
 31
0.0
  0
ARC
  5
348
330
20
100
AcDbEntity
  8
0
100
AcDbCircle
 10
259.4335701573525
 20
103.1247089277351
 30
0.0
 40
3.5
100
AcDbArc
 50
274.9999999999996
 51
278.1704100635828
  0
ARC
  5
349
330
20
100
AcDbEntity
  8
0
100
AcDbCircle
 10
258.4335701573526
 20
100.2596148077711
 30
0.0
 40
3.5
100
AcDbArc
 50
272.8624052261117
 51
0.0
  0
ARC
  5
34A
330
20
100
AcDbEntity
  8
0
100
AcDbCircle
 10
259.4335701573529
 20
99.60942957756168
 30
0.0
 40
0.5
100
AcDbArc
 50
0.0
 51
94.9999999999996
  0
ARC
  5
34B
330
20
100
AcDbEntity
  8
0
100
AcDbCircle
 10
258.9335701573528
 20
99.28336558804605
 30
0.0
 40
1.0
100
AcDbArc
 50
272.8624052261117
 51
359.9999999999988
  0
LINE
  5
34C
330
20
100
AcDbEntity
  8
0
100
AcDbLine
 10
249.2809184040055
 20
97.20813441163077
 30
0.0
 11
252.3735534136543
 21
98.99366806695663
 31
0.0
  0
LINE
  5
34D
330
20
100
AcDbEntity
  8
0
100
AcDbLine
 10
245.4335701573526
 20
93.4302425387335
 30
0.0
 11
242.3041606348014
 21
94.2687652930874
 31
0.0
  0
LINE
  5
34E
330
20
100
AcDbEntity
  8
0
100
AcDbLine
 10
249.2809184040055
 20
169.6523506658362
 30
0.0
 11
252.3735534136543
 21
167.8668170105104
 31
0.0
  0
ARC
  5
34F
330
20
100
AcDbEntity
  8
0
100
AcDbCircle
 10
258.9335701573528
 20
167.577119489421
 30
0.0
 40
1.0
100
AcDbArc
 50
0.0000000000010687
 51
87.13759477388826
  0
ARC
  5
350
330
20
100
AcDbEntity
  8
0
100
AcDbCircle
 10
259.4335701573529
 20
167.2510554999054
 30
0.0
 40
0.5
100
AcDbArc
 50
265.0000000000004
 51
0.0
  0
ARC
  5
351
330
20
100
AcDbEntity
  8
0
100
AcDbCircle
 10
258.4335701573526
 20
166.6008702696959
 30
0.0
 40
3.5
100
AcDbArc
 50
0.0
 51
87.13759477388826
  0
LINE
  5
352
330
20
100
AcDbEntity
  8
0
100
AcDbLine
 10
245.9335701573526
 20
167.9302425387335
 30
0.0
 11
261.9335701573525
 21
166.530423922319
 31
0.0
  0
LINE
  5
353
330
20
100
AcDbEntity
  8
0
100
AcDbLine
 10
259.9335701573529
 20
167.577119489421
 30
0.0
 11
259.9335701573529
 21
167.2510554999054
 31
0.0
  0
LINE
  5
354
330
20
100
AcDbEntity
  8
0
100
AcDbLine
 10
251.9303484315311
 20
168.928529795437
 30
0.0
 11
258.9835077742967
 21
168.5758718282988
 31
0.0
  0
LINE
  5
355
330
20
100
AcDbEntity
  8
0
100
AcDbLine
 10
251.9335701573526
 20
170.4302425387335
 30
0.0
 11
258.6083518166564
 21
170.0965034557683
 31
0.0
  0
ARC
  5
356
330
20
100
AcDbEntity
  8
0
100
AcDbCircle
 10
247.8721647466783
 20
170.9219614589394
 30
0.0
 40
1.0
100
AcDbArc
 50
68.94827556462693
 51
149.9999999999998
  0
LINE
  5
357
330
20
100
AcDbEntity
  8
0
100
AcDbLine
 10
246.4335701573526
 20
170.4302425387335
 30
0.0
 11
251.9303484315311
 21
168.928529795437
 31
0.0
  0
LINE
  5
358
330
20
100
AcDbEntity
  8
0
100
AcDbLine
 10
248.231375350732
 20
171.8552179841968
 30
0.0
 11
251.9335701573526
 21
170.4302425387335
 31
0.0
  0
LINE
  5
359
330
20
100
AcDbEntity
  8
0
100
AcDbLine
 10
261.9335701573525
 20
166.6008702696959
 30
0.0
 11
261.9335701573525
 21
166.530423922319
 31
0.0
  0
LINE
  5
35A
330
20
100
AcDbEntity
  8
0
100
AcDbLine
 10
246.4335701573526
 20
170.4302425387335
 30
0.0
 11
247.0061393428939
 21
171.4219614589395
 31
0.0
  0
LINE
  5
35B
330
20
100
AcDbEntity
  8
0
100
AcDbLine
 10
252.3735534136545
 20
167.8668170105104
 30
0.0
 11
259.9314980731234
 21
167.2055825332506
 31
0.0
  0
LINE
  5
35C
330
20
100
AcDbEntity
  8
0
100
AcDbLine
 10
246.4335701573526
 20
170.4302425387335
 30
0.0
 11
245.9335701573526
 21
170.4302425387335
 31
0.0
  0
LINE
  5
35D
330
20
100
AcDbEntity
  8
0
100
AcDbLine
 10
217.5541937725443
 20
222.6801475024982
 30
0.0
 11
157.5541937725443
 21
222.6801475024981
 31
0.0
  0
ARC
  5
35E
330
20
100
AcDbEntity
  8
0
100
AcDbCircle
 10
183.5541937725443
 20
257.6801475024981
 30
0.0
 40
1.5
100
AcDbArc
 50
0.0
 51
89.99999999999976
  0
ARC
  5
35F
330
20
100
AcDbEntity
  8
0
100
AcDbCircle
 10
30.97965761794626
 20
138.4302425387335
 30
0.0
 40
1.5
100
AcDbArc
 50
90.00000000000005
 51
180.0000000000006
  0
ARC
  5
360
330
20
100
AcDbEntity
  8
0
100
AcDbCircle
 10
30.97965761794626
 20
128.4302425387335
 30
0.0
 40
1.5
100
AcDbArc
 50
180.0000000000005
 51
270.0
  0
LINE
  5
361
330
20
100
AcDbEntity
  8
0
100
AcDbLine
 10
185.0541937725443
 20
247.9801475024982
 30
0.0
 11
159.5541937725443
 21
247.9801475024982
 31
0.0
  0
LINE
  5
362
330
20
100
AcDbEntity
  8
0
100
AcDbLine
 10
64.52965761794621
 20
119.9302425387335
 30
0.0
 11
64.52965761794621
 21
124.9302425387335
 31
0.0
  0
LINE
  5
363
330
20
100
AcDbEntity
  8
0
100
AcDbLine
 10
63.97965761794626
 20
119.9302425387335
 30
0.0
 11
63.97965761794626
 21
124.9302425387335
 31
0.0
  0
LINE
  5
364
330
20
100
AcDbEntity
  8
0
100
AcDbLine
 10
63.97965761794626
 20
141.9302425387335
 30
0.0
 11
63.97965761794626
 21
146.9302425387335
 31
0.0
  0
LINE
  5
365
330
20
100
AcDbEntity
  8
0
100
AcDbLine
 10
64.52965761794621
 20
141.9302425387335
 30
0.0
 11
64.52965761794621
 21
146.9302425387335
 31
0.0
  0
LINE
  5
366
330
20
100
AcDbEntity
  8
0
100
AcDbLine
 10
63.97965761794626
 20
163.9302425387335
 30
0.0
 11
63.97965761794626
 21
168.9302425387335
 31
0.0
  0
LINE
  5
367
330
20
100
AcDbEntity
  8
0
100
AcDbLine
 10
64.52965761794621
 20
163.9302425387335
 30
0.0
 11
64.52965761794621
 21
168.9302425387335
 31
0.0
  0
LINE
  5
368
330
20
100
AcDbEntity
  8
0
100
AcDbLine
 10
61.42965761794631
 20
146.9302425387335
 30
0.0
 11
61.42965761794631
 21
141.9302425387335
 31
0.0
  0
LINE
  5
369
330
20
100
AcDbEntity
  8
0
100
AcDbLine
 10
63.97965761794626
 20
97.93024253873348
 30
0.0
 11
63.97965761794626
 21
102.9302425387335
 31
0.0
  0
LINE
  5
36A
330
20
100
AcDbEntity
  8
0
100
AcDbLine
 10
64.52965761794621
 20
97.93024253873348
 30
0.0
 11
64.52965761794621
 21
102.9302425387335
 31
0.0
  0
LINE
  5
36B
330
20
100
AcDbEntity
  8
0
100
AcDbLine
 10
61.42965761794631
 20
97.93024253873348
 30
0.0
 11
65.4296576179463
 21
97.93024253873348
 31
0.0
  0
LINE
  5
36C
330
20
100
AcDbEntity
  8
0
100
AcDbLine
 10
61.42965761794631
 20
102.9302425387335
 30
0.0
 11
65.4296576179463
 21
102.9302425387335
 31
0.0
  0
LINE
  5
36D
330
20
100
AcDbEntity
  8
0
100
AcDbLine
 10
61.42965761794631
 20
119.9302425387335
 30
0.0
 11
65.4296576179463
 21
119.9302425387335
 31
0.0
  0
LINE
  5
36E
330
20
100
AcDbEntity
  8
0
100
AcDbLine
 10
61.42965761794631
 20
124.9302425387335
 30
0.0
 11
65.4296576179463
 21
124.9302425387335
 31
0.0
  0
LINE
  5
36F
330
20
100
AcDbEntity
  8
0
100
AcDbLine
 10
61.42965761794631
 20
141.9302425387335
 30
0.0
 11
65.4296576179463
 21
141.9302425387335
 31
0.0
  0
LINE
  5
370
330
20
100
AcDbEntity
  8
0
100
AcDbLine
 10
61.42965761794631
 20
146.9302425387335
 30
0.0
 11
65.4296576179463
 21
146.9302425387335
 31
0.0
  0
LINE
  5
371
330
20
100
AcDbEntity
  8
0
100
AcDbLine
 10
61.42965761794631
 20
163.9302425387335
 30
0.0
 11
65.4296576179463
 21
163.9302425387335
 31
0.0
  0
LINE
  5
372
330
20
100
AcDbEntity
  8
0
100
AcDbLine
 10
61.42965761794631
 20
168.9302425387335
 30
0.0
 11
65.4296576179463
 21
168.9302425387335
 31
0.0
  0
LINE
  5
373
330
20
100
AcDbEntity
  8
0
100
AcDbLine
 10
48.22965761794626
 20
138.4302425387335
 30
0.0
 11
31.22965761794626
 21
138.4302425387335
 31
0.0
  0
LINE
  5
374
330
20
100
AcDbEntity
  8
0
100
AcDbLine
 10
50.22965761794626
 20
128.4302425387335
 30
0.0
 11
65.4296576179463
 21
128.4302425387335
 31
0.0
  0
LINE
  5
375
330
20
100
AcDbEntity
  8
0
100
AcDbLine
 10
65.9296576179463
 20
93.4302425387335
 30
0.0
 11
65.9296576179463
 21
173.4302425387334
 31
0.0
  0
ARC
  5
376
330
20
100
AcDbEntity
  8
0
100
AcDbCircle
 10
49.4296576179463
 20
102.2243594455072
 30
0.0
 40
2.5
100
AcDbArc
 50
180.0
 51
265.4045377712321
  0
LINE
  5
377
330
20
100
AcDbEntity
  8
0
100
AcDbLine
 10
61.42965761794631
 20
98.75175605224704
 30
0.0
 11
49.22935766760009
 21
99.7323963779857
 31
0.0
  0
LINE
  5
378
330
20
100
AcDbEntity
  8
0
100
AcDbLine
 10
46.9296576179463
 20
102.2243594455072
 30
0.0
 11
46.9296576179463
 21
126.9302425387335
 31
0.0
  0
LINE
  5
379
330
20
100
AcDbEntity
  8
0
100
AcDbLine
 10
61.42965761794631
 20
162.5951213387031
 30
0.0
 11
61.42965761794631
 21
170.4302425387335
 31
0.0
  0
LINE
  5
37A
330
20
100
AcDbEntity
  8
0
100
AcDbLine
 10
40.62965761794612
 20
162.5951213387031
 30
0.0
 11
61.42965761794631
 21
162.5951213387031
 31
0.0
  0
LINE
  5
37B
330
20
100
AcDbEntity
  8
0
100
AcDbLine
 10
61.42965761794631
 20
96.43024253873349
 30
0.0
 11
61.42965761794631
 21
126.9302425387335
 31
0.0
  0
LINE
  5
37C
330
20
100
AcDbEntity
  8
0
100
AcDbLine
 10
40.62965761794622
 20
167.9302425387335
 30
0.0
 11
61.42965761794631
 21
167.9302425387335
 31
0.0
  0
LINE
  5
37D
330
20
100
AcDbEntity
  8
0
100
AcDbLine
 10
40.62965761794635
 20
139.9302425387335
 30
0.0
 11
40.62965761794612
 21
167.9302425387335
 31
0.0
  0
LINE
  5
37E
330
20
100
AcDbEntity
  8
0
100
AcDbLine
 10
212.9229607772554
 20
224.680147502498
 30
0.0
 11
212.4178448802791
 21
225.5550338997715
 31
0.0
  0
LINE
  5
37F
330
20
100
AcDbEntity
  8
0
100
AcDbLine
 10
213.0541937725443
 20
223.1801475024981
 30
0.0
 11
212.9229607772554
 21
224.680147502498
 31
0.0
  0
ARC
  5
380
330
20
100
AcDbEntity
  8
0
100
AcDbCircle
 10
206.1788162426209
 20
239.180147502498
 30
0.0
 40
2.5
100
AcDbArc
 50
15.00000000000066
 51
89.99999999999952
  0
LINE
  5
381
330
20
100
AcDbEntity
  8
0
100
AcDbLine
 10
210.2336856968554
 20
229.180147502498
 30
0.0
 11
197.5541937725443
 21
229.1801475024981
 31
0.0
  0
LINE
  5
382
330
20
100
AcDbEntity
  8
0
100
AcDbLine
 10
210.5541937725443
 20
224.680147502498
 30
0.0
 11
197.5541937725443
 21
224.680147502498
 31
0.0
  0
LINE
  5
383
330
20
100
AcDbEntity
  8
0
100
AcDbLine
 10
195.5541937725443
 20
229.580147502498
 30
0.0
 11
193.5541937725442
 21
229.580147502498
 31
0.0
  0
LINE
  5
384
330
20
100
AcDbEntity
  8
0
100
AcDbLine
 10
195.5541937725443
 20
225.1801475024981
 30
0.0
 11
193.5541937725443
 21
225.1801475024981
 31
0.0
  0
LINE
  5
385
330
20
100
AcDbEntity
  8
0
100
AcDbLine
 10
193.5541937725443
 20
223.1801475024981
 30
0.0
 11
193.5541937725442
 21
229.580147502498
 31
0.0
  0
ARC
  5
386
330
20
100
AcDbEntity
  8
0
100
AcDbCircle
 10
158.5541937725443
 20
226.1801475024982
 30
0.0
 40
1.0
100
AcDbArc
 50
89.99999999999992
 51
180.0
  0
LINE
  5
387
330
20
100
AcDbEntity
  8
0
100
AcDbLine
 10
185.0541937725443
 20
227.1801475024989
 30
0.0
 11
158.5541937725443
 21
227.1801475024981
 31
0.0
  0
LINE
  5
388
330
20
100
AcDbEntity
  8
0
100
AcDbLine
 10
157.5541937725443
 20
224.6160458873605
 30
0.0
 11
157.5541937725443
 21
226.1801475024982
 31
0.0
  0
LINE
  5
389
330
20
100
AcDbEntity
  8
0
100
AcDbLine
 10
159.5541937725443
 20
224.0801475024981
 30
0.0
 11
157.5541937725443
 21
224.6160458873605
 31
0.0
  0
LINE
  5
38A
330
20
100
AcDbEntity
  8
0
  6
H5
100
AcDbLine
 10
208.0900921574066
 20
237.180147502498
 30
0.0
 11
197.5541937725443
 21
237.1801475024981
 31
0.0
  0
LINE
  5
38B
330
20
100
AcDbEntity
  8
0
100
AcDbLine
 10
210.5541937725443
 20
223.680147502498
 30
0.0
 11
210.5541937725443
 21
227.9839950797916
 31
0.0
  0
LINE
  5
38C
330
20
100
AcDbEntity
  8
0
100
AcDbLine
 10
207.5541937725443
 20
239.180147502498
 30
0.0
 11
210.5541937725443
 21
227.9839950797916
 31
0.0
  0
LINE
  5
38D
330
20
100
AcDbEntity
  8
0
100
AcDbLine
 10
195.5541937725443
 20
223.1801475024981
 30
0.0
 11
195.5541937725443
 21
241.1609452776576
 31
0.0
  0
LINE
  5
38E
330
20
100
AcDbEntity
  8
0
100
AcDbLine
 10
197.5541937725443
 20
223.680147502498
 30
0.0
 11
197.5541937725443
 21
241.3359226047094
 31
0.0
  0
LINE
  5
38F
330
20
100
AcDbEntity
  8
0
100
AcDbLine
 10
210.5541937725443
 20
223.680147502498
 30
0.0
 11
197.5541937725443
 21
223.680147502498
 31
0.0
  0
ARC
  5
390
330
20
100
AcDbEntity
  8
0
100
AcDbCircle
 10
187.5532982913451
 20
519.1761229418765
 30
0.0
 40
300.0
100
AcDbArc
 50
264.366694175779
 51
275.6336588639903
  0
LINE
  5
391
330
20
100
AcDbEntity
  8
0
100
AcDbLine
 10
217.5541937725443
 20
222.6801475024982
 30
0.0
 11
217.5541937725443
 21
223.1801475024981
 31
0.0
  0
LINE
  5
392
330
20
100
AcDbEntity
  8
0
100
AcDbLine
 10
217.5541937725443
 20
223.180147502498
 30
0.0
 11
157.5541937725443
 21
223.1801475024981
 31
0.0
  0
LINE
  5
393
330
20
100
AcDbEntity
  8
0
100
AcDbLine
 10
206.1788162426209
 20
241.6801475024981
 30
0.0
 11
201.4887023581814
 21
241.6801475024981
 31
0.0
  0
LINE
  5
394
330
20
100
AcDbEntity
  8
0
100
AcDbLine
 10
183.5541937725443
 20
259.1801475024981
 30
0.0
 11
161.3739976752629
 21
259.1801475024982
 31
0.0
  0
LINE
  5
395
330
20
100
AcDbEntity
  8
0
100
AcDbLine
 10
213.0541937725443
 20
223.1801475024981
 30
0.0
 11
208.5936308083435
 21
239.8271951152544
 31
0.0
  0
LINE
  5
396
330
20
100
AcDbEntity
  8
0
100
AcDbLine
 10
217.5541937725443
 20
222.6801475024982
 30
0.0
 11
217.003559446638
 21
220.6251522218249
 31
0.0
  0
LINE
  5
397
330
20
100
AcDbEntity
  8
0
100
AcDbLine
 10
185.0541937725443
 20
223.1801475024981
 30
0.0
 11
185.0541937725443
 21
257.6301475024981
 31
0.0
  0
LINE
  5
398
330
20
100
AcDbEntity
  8
0
100
AcDbLine
 10
157.5541937725443
 20
223.1801475024981
 30
0.0
 11
157.5541937725443
 21
222.6801475024981
 31
0.0
  0
LINE
  5
399
330
20
100
AcDbEntity
  8
0
100
AcDbLine
 10
157.5541937725443
 20
222.6801475024981
 30
0.0
 11
158.104876720027
 21
220.624970763631
 31
0.0
  0
LINE
  5
39A
330
20
100
AcDbEntity
  8
0
100
AcDbLine
 10
159.5541937725443
 20
254.1801475024981
 30
0.0
 11
159.5541937725443
 21
252.2801475024982
 31
0.0
  0
LINE
  5
39B
330
20
100
AcDbEntity
  8
0
100
AcDbLine
 10
207.5541937725443
 20
239.180147502498
 30
0.0
 11
197.5541937725443
 21
239.1801475024981
 31
0.0
  0
ARC
  5
39C
330
20
100
AcDbEntity
  8
0
100
AcDbCircle
 10
190.6041937725439
 20
166.2742425387336
 30
0.0
 40
1.0
100
AcDbArc
 50
90.0
 51
180.0
  0
ARC
  5
39D
330
20
100
AcDbEntity
  8
0
100
AcDbCircle
 10
190.604193772544
 20
100.5860176409447
 30
0.0
 40
1.0
100
AcDbArc
 50
179.9999999999999
 51
270.0
  0
LINE
  5
39E
330
20
100
AcDbEntity
  8
0
100
AcDbLine
 10
189.604193772544
 20
100.5860176409447
 30
0.0
 11
189.604193772544
 21
166.2742425387336
 31
0.0
  0
LINE
  5
39F
330
20
100
AcDbEntity
  8
0
100
AcDbLine
 10
50.22965761794626
 20
128.4302425387335
 30
0.0
 11
50.22965761794626
 21
138.4302425387335
 31
0.0
  0
LINE
  5
3A0
330
20
100
AcDbEntity
  8
0
100
AcDbLine
 10
33.72965761794626
 20
136.4302425387335
 30
0.0
 11
33.72965761794626
 21
130.4302425387335
 31
0.0
  0
LINE
  5
3A1
330
20
100
AcDbEntity
  8
0
100
AcDbLine
 10
31.22965761794626
 20
136.4302425387335
 30
0.0
 11
33.72965761794626
 21
136.4302425387335
 31
0.0
  0
LINE
  5
3A2
330
20
100
AcDbEntity
  8
0
100
AcDbLine
 10
31.22965761794626
 20
130.4302425387335
 30
0.0
 11
33.72965761794626
 21
130.4302425387335
 31
0.0
  0
LINE
  5
3A3
330
20
100
AcDbEntity
  8
0
100
AcDbLine
 10
30.97965761794626
 20
126.9302425387335
 30
0.0
 11
61.42965761794631
 21
126.9302425387335
 31
0.0
  0
LINE
  5
3A4
330
20
100
AcDbEntity
  8
0
100
AcDbLine
 10
29.47965761794626
 20
138.4302425387335
 30
0.0
 11
29.47965761794626
 21
128.4302425387335
 31
0.0
  0
LINE
  5
3A5
330
20
100
AcDbEntity
  8
0
100
AcDbLine
 10
40.62965761794635
 20
139.9302425387335
 30
0.0
 11
30.97965761794626
 21
139.9302425387335
 31
0.0
  0
LINE
  5
3A6
330
20
100
AcDbEntity
  8
0
100
AcDbLine
 10
65.4296576179463
 20
138.4302425387335
 30
0.0
 11
50.22965761794626
 21
138.4302425387335
 31
0.0
  0
LINE
  5
3A7
330
20
100
AcDbEntity
  8
0
100
AcDbLine
 10
48.22965761794626
 20
128.4302425387335
 30
0.0
 11
48.22965761794626
 21
138.4302425387335
 31
0.0
  0
LINE
  5
3A8
330
20
100
AcDbEntity
  8
0
100
AcDbLine
 10
31.22965761794626
 20
128.4302425387335
 30
0.0
 11
48.22965761794626
 21
128.4302425387335
 31
0.0
  0
LINE
  5
3A9
330
20
100
AcDbEntity
  8
0
100
AcDbLine
 10
31.22965761794626
 20
138.4302425387335
 30
0.0
 11
31.22965761794626
 21
136.4302425387335
 31
0.0
  0
ARC
  5
3AA
330
20
100
AcDbEntity
  8
0
100
AcDbCircle
 10
211.3041937725439
 20
100.5860176409447
 30
0.0
 40
1.0
100
AcDbArc
 50
270.0
 51
359.9999999999998
  0
ARC
  5
3AB
330
20
100
AcDbEntity
  8
0
100
AcDbCircle
 10
211.3041937725441
 20
166.2742425387335
 30
0.0
 40
1.0
100
AcDbArc
 50
359.9999999999998
 51
90.0
  0
LINE
  5
3AC
330
20
100
AcDbEntity
  8
0
100
AcDbLine
 10
211.3041937725441
 20
167.2742425387335
 30
0.0
 11
190.6041937725439
 21
167.2742425387336
 31
0.0
  0
LINE
  5
3AD
330
20
100
AcDbEntity
  8
0
100
AcDbLine
 10
212.3041937725438
 20
100.5860176409447
 30
0.0
 11
212.3041937725441
 21
166.2742425387335
 31
0.0
  0
LINE
  5
3AE
330
20
100
AcDbEntity
  8
0
100
AcDbLine
 10
190.604193772544
 20
99.58601764094474
 30
0.0
 11
211.3041937725439
 21
99.58601764094474
 31
0.0
  0
LINE
  5
3AF
330
20
100
AcDbEntity
  8
0
100
AcDbLine
 10
65.4296576179463
 20
93.4302425387335
 30
0.0
 11
65.4296576179463
 21
173.4302425387335
 31
0.0
  0
ARC
  5
3B0
330
20
100
AcDbEntity
  8
0
100
AcDbCircle
 10
215.5541937725439
 20
95.43024253873348
 30
0.0
 40
2.0
100
AcDbArc
 50
269.9999999999999
 51
359.9999999999998
  0
ARC
  5
3B1
330
20
100
AcDbEntity
  8
0
100
AcDbCircle
 10
215.1952274787441
 20
95.81775729123668
 30
0.0
 40
2.0
100
AcDbArc
 50
269.0451218725966
 51
0.0
  0
ARC
  5
3B2
330
20
100
AcDbEntity
  8
0
100
AcDbCircle
 10
159.9131266857112
 20
95.81775729123668
 30
0.0
 40
2.0
100
AcDbArc
 50
180.0
 51
270.9548781274066
  0
ARC
  5
3B3
330
20
100
AcDbEntity
  8
0
100
AcDbCircle
 10
159.5541937725438
 20
95.43024253873355
 30
0.0
 40
2.0
100
AcDbArc
 50
179.9999999999996
 51
269.9999999999999
  0
ARC
  5
3B4
330
20
100
AcDbEntity
  8
0
100
AcDbCircle
 10
215.5541937725443
 20
171.4302425387335
 30
0.0
 40
2.0
100
AcDbArc
 50
359.9999999999998
 51
90.00000000000005
  0
ARC
  5
3B5
330
20
100
AcDbEntity
  8
0
100
AcDbCircle
 10
215.1952274787441
 20
171.0427277862303
 30
0.0
 40
2.0
100
AcDbArc
 50
0.0
 51
90.95487812740337
  0
ARC
  5
3B6
330
20
100
AcDbEntity
  8
0
100
AcDbCircle
 10
159.5541937725443
 20
171.4302425387335
 30
0.0
 40
2.0
100
AcDbArc
 50
90.00000000000005
 51
179.9999999999997
  0
ARC
  5
3B7
330
20
100
AcDbEntity
  8
0
100
AcDbCircle
 10
159.9131266857112
 20
171.0427277862303
 30
0.0
 40
2.0
100
AcDbArc
 50
89.04512187259333
 51
180.0
  0
ARC
  5
3B8
330
20
100
AcDbEntity
  8
0
100
AcDbCircle
 10
187.5541770822278
 20
-1562.581211495982
 30
0.0
 40
1656.629303775118
100
AcDbArc
 50
89.04512187259078
 51
90.95487812740923
  0
ARC
  5
3B9
330
20
100
AcDbEntity
  8
0
100
AcDbCircle
 10
187.5541770822278
 20
1829.441696573449
 30
0.0
 40
1656.629303775118
100
AcDbArc
 50
269.0451218725907
 51
270.9548781274092
  0
LINE
  5
3BA
330
20
100
AcDbEntity
  8
0
100
AcDbLine
 10
217.1952274787441
 20
171.0427277862303
 30
0.0
 11
217.1952274787441
 21
95.81775729123668
 31
0.0
  0
LINE
  5
3BB
330
20
100
AcDbEntity
  8
0
100
AcDbLine
 10
157.9131266857111
 20
171.0427277862303
 30
0.0
 11
157.9131266857111
 21
95.81775729123668
 31
0.0
  0
LINE
  5
3BC
330
20
100
AcDbEntity
  8
0
100
AcDbLine
 10
215.5541937725443
 20
173.4302425387335
 30
0.0
 11
159.5541937725443
 21
173.4302425387335
 31
0.0
  0
LINE
  5
3BD
330
20
100
AcDbEntity
  8
0
100
AcDbLine
 10
217.5541937725439
 20
95.43024253873348
 30
0.0
 11
217.5541937725443
 21
171.4302425387335
 31
0.0
  0
LINE
  5
3BE
330
20
100
AcDbEntity
  8
0
100
AcDbLine
 10
159.5541937725438
 20
93.43024253873355
 30
0.0
 11
215.5541937725439
 21
93.4302425387335
 31
0.0
  0
LINE
  5
3BF
330
20
100
AcDbEntity
  8
0
100
AcDbLine
 10
157.5541937725443
 20
171.4302425387335
 30
0.0
 11
157.5541937725438
 21
95.43024253873355
 31
0.0
  0
LINE
  5
3C0
330
20
100
AcDbEntity
  8
0
100
AcDbLine
 10
65.9296576179463
 20
93.4302425387335
 30
0.0
 11
69.02048170678018
 21
93.97523821821854
 31
0.0
  0
LINE
  5
3C1
330
20
100
AcDbEntity
  8
0
100
AcDbLine
 10
65.92965761794676
 20
173.4302425387334
 30
0.0
 11
69.02048170678006
 21
172.8852468592485
 31
0.0
  0
LINE
  5
3C2
330
20
100
AcDbEntity
  8
0
100
AcDbLine
 10
69.43365761794665
 20
94.4676420947246
 30
0.0
 11
69.43365761794665
 21
172.3928429827424
 31
0.0
  0
LINE
  5
3C3
330
20
100
AcDbEntity
  8
0
100
AcDbLine
 10
61.42965761794631
 20
96.43024253873349
 30
0.0
 11
65.4296576179463
 21
96.43024253873349
 31
0.0
  0
LINE
  5
3C4
330
20
100
AcDbEntity
  8
0
100
AcDbLine
 10
61.42965761794631
 20
170.4302425387335
 30
0.0
 11
65.4296576179463
 21
170.4302425387335
 31
0.0
  0
LINE
  5
3C5
330
20
100
AcDbEntity
  8
0
100
AcDbLine
 10
65.9296576179463
 20
93.4302425387335
 30
0.0
 11
65.4296576179463
 21
93.4302425387335
 31
0.0
  0
LINE
  5
3C6
330
20
100
AcDbEntity
  8
0
100
AcDbLine
 10
65.92965761794676
 20
173.4302425387334
 30
0.0
 11
65.4296576179463
 21
173.4302425387335
 31
0.0
  0
LINE
  5
443
330
20
100
AcDbEntity
  8
W
100
AcDbLine
 10
384.4000000000002
 20
270.4
 30
0.0
 11
384.4000000000002
 21
284.6457413789151
 31
0.0
  0
LINE
  5
444
330
20
100
AcDbEntity
  8
W
100
AcDbLine
 10
384.4000000000002
 20
270.4
 30
0.0
 11
397.5874936504322
 21
270.4
 31
0.0
  0
LINE
  5
445
330
20
100
AcDbEntity
  8
W
100
AcDbLine
 10
0.0
 20
0.0
 30
0.0
 11
0.0
 21
-13.87335872028505
 31
0.0
  0
LINE
  5
446
330
20
100
AcDbEntity
  8
W
100
AcDbLine
 10
0.0
 20
0.0
 30
0.0
 11
-16.16275866951969
 21
0.0
 31
0.0
  0
LINE
  5
4ED
330
20
100
AcDbEntity
  8
0
100
AcDbLine
 10
38.62965761794612
 20
140.9302425387334
 30
0.0
 11
36.32965761794606
 21
140.9302425387334
 31
0.0
  0
CIRCLE
  5
4F4
330
20
100
AcDbEntity
  8
0
100
AcDbCircle
 10
169.554193772544
 20
155.9302425387335
 30
0.0
 40
9.3
  0
LINE
  5
526
330
20
100
AcDbEntity
  8
0
100
AcDbLine
 10
293.8014011676624
 20
113.0002458182194
 30
0.0
 11
293.8014011676624
 21
113.0714892628965
 31
0.0
  0
LINE
  5
527
330
20
100
AcDbEntity
  8
0
100
AcDbLine
 10
303.8014011676623
 20
113.0002458182194
 30
0.0
 11
303.8014011676623
 21
113.0714892628965
 31
0.0
  0
LINE
  5
528
330
20
100
AcDbEntity
  8
0
100
AcDbLine
 10
297.2254830474323
 20
99.47148926289649
 30
0.0
 11
297.3734333570419
 21
99.32353895328695
 31
0.0
  0
LINE
  5
529
330
20
100
AcDbEntity
  8
0
100
AcDbLine
 10
300.0539101721785
 20
99.47148926289649
 30
0.0
 11
300.1468074147926
 21
99.37859202028221
 31
0.0
  0
LINE
  5
52A
330
20
100
AcDbEntity
  8
0
100
AcDbLine
 10
290.3462218845267
 20
99.47148926289649
 30
0.0
 11
289.8014011549553
 21
98.92666853332512
 31
0.0
  0
LINE
  5
52B
330
20
100
AcDbEntity
  8
0
100
AcDbLine
 10
300.7610169533649
 20
99.47148926289649
 30
0.0
 11
301.461016953365
 21
98.77148926289644
 31
0.0
  0
LINE
  5
52C
330
20
100
AcDbEntity
  8
0
100
AcDbLine
 10
291.0533286657132
 20
99.47148926289649
 30
0.0
 11
289.8014011549553
 21
98.21956175213855
 31
0.0
  0
LINE
  5
52D
330
20
100
AcDbEntity
  8
0
100
AcDbLine
 10
301.4681237345516
 20
99.47148926289649
 30
0.0
 11
302.1681237345514
 21
98.77148926289644
 31
0.0
  0
LINE
  5
52E
330
20
100
AcDbEntity
  8
0
100
AcDbLine
 10
291.7604354468998
 20
99.47148926289649
 30
0.0
 11
289.8014011549553
 21
97.51245497095199
 31
0.0
  0
LINE
  5
52F
330
20
100
AcDbEntity
  8
0
100
AcDbLine
 10
302.1752305157381
 20
99.47148926289649
 30
0.0
 11
302.8752305157382
 21
98.77148926289644
 31
0.0
  0
LINE
  5
530
330
20
100
AcDbEntity
  8
0
100
AcDbLine
 10
292.4675422280863
 20
99.47148926289649
 30
0.0
 11
289.8014011549553
 21
96.80534818976546
 31
0.0
  0
LINE
  5
531
330
20
100
AcDbEntity
  8
0
100
AcDbLine
 10
302.8823372969245
 20
99.47148926289649
 30
0.0
 11
303.5823372969245
 21
98.77148926289644
 31
0.0
  0
LINE
  5
532
330
20
100
AcDbEntity
  8
0
100
AcDbLine
 10
304.2965508592978
 20
99.47148926289649
 30
0.0
 11
307.8014011549553
 21
95.9666389672388
 31
0.0
  0
LINE
  5
533
330
20
100
AcDbEntity
  8
0
100
AcDbLine
 10
293.174649009273
 20
99.47148926289649
 30
0.0
 11
289.8014011549553
 21
96.09824140857892
 31
0.0
  0
LINE
  5
534
330
20
100
AcDbEntity
  8
0
100
AcDbLine
 10
303.5894440781112
 20
99.47148926289649
 30
0.0
 11
304.2894440781112
 21
98.77148926289644
 31
0.0
  0
LINE
  5
535
330
20
100
AcDbEntity
  8
0
100
AcDbLine
 10
293.8817557904593
 20
99.47148926289649
 30
0.0
 11
293.1817557904594
 21
98.77148926289644
 31
0.0
  0
LINE
  5
536
330
20
100
AcDbEntity
  8
0
100
AcDbLine
 10
294.5888625716459
 20
99.47148926289649
 30
0.0
 11
293.888862571646
 21
98.77148926289644
 31
0.0
  0
LINE
  5
537
330
20
100
AcDbEntity
  8
0
100
AcDbLine
 10
305.0036576404843
 20
99.47148926289637
 30
0.0
 11
307.8014011549553
 21
96.67374574842538
 31
0.0
  0
LINE
  5
538
330
20
100
AcDbEntity
  8
0
100
AcDbLine
 10
295.2959693528325
 20
99.47148926289649
 30
0.0
 11
294.5959693528325
 21
98.77148926289644
 31
0.0
  0
LINE
  5
539
330
20
100
AcDbEntity
  8
0
100
AcDbLine
 10
305.7107644216709
 20
99.47148926289637
 30
0.0
 11
307.8014011549553
 21
97.38085252961193
 31
0.0
  0
LINE
  5
53A
330
20
100
AcDbEntity
  8
0
100
AcDbLine
 10
306.4178712028574
 20
99.47148926289637
 30
0.0
 11
307.8014011549553
 21
98.08795931079849
 31
0.0
  0
LINE
  5
53B
330
20
100
AcDbEntity
  8
0
100
AcDbLine
 10
296.003076134019
 20
99.47148926289649
 30
0.0
 11
295.3030761340191
 21
98.77148926289644
 31
0.0
  0
LINE
  5
53C
330
20
100
AcDbEntity
  8
0
100
AcDbLine
 10
296.7101829152056
 20
99.47148926289649
 30
0.0
 11
296.0101829152056
 21
98.77148926289644
 31
0.0
  0
LINE
  5
53D
330
20
100
AcDbEntity
  8
0
100
AcDbLine
 10
297.4172896963921
 20
99.47148926289649
 30
0.0
 11
296.7172896963922
 21
98.77148926289644
 31
0.0
  0
LINE
  5
53E
330
20
100
AcDbEntity
  8
0
100
AcDbLine
 10
300.2457168211383
 20
99.47148926289649
 30
0.0
 11
300.1504739581737
 21
99.37624639993188
 31
0.0
  0
LINE
  5
53F
330
20
100
AcDbEntity
  8
0
100
AcDbLine
 10
300.9528236023249
 20
99.47148926289649
 30
0.0
 11
300.5447124684503
 21
99.06337812902195
 31
0.0
  0
LINE
  5
540
330
20
100
AcDbEntity
  8
0
100
AcDbLine
 10
307.1249779840441
 20
99.47148926289637
 30
0.0
 11
307.8014011549553
 21
98.79506609198505
 31
0.0
  0
LINE
  5
541
330
20
100
AcDbEntity
  8
0
100
AcDbLine
 10
289.812197435695
 20
94.86395959446257
 30
0.0
 11
291.5938714865214
 21
93.08228554363607
 31
0.0
  0
LINE
  5
542
330
20
100
AcDbEntity
  8
0
100
AcDbLine
 10
289.8014011549553
 20
95.58186265638857
 30
0.0
 11
292.3117745484473
 21
93.0714892628965
 31
0.0
  0
LINE
  5
543
330
20
100
AcDbEntity
  8
0
100
AcDbLine
 10
289.8014011549553
 20
96.2889694375751
 30
0.0
 11
293.018881329634
 21
93.0714892628965
 31
0.0
  0
LINE
  5
544
330
20
100
AcDbEntity
  8
0
100
AcDbLine
 10
289.8014011549553
 20
96.99607621876177
 30
0.0
 11
293.7259881108204
 21
93.0714892628965
 31
0.0
  0
LINE
  5
545
330
20
100
AcDbEntity
  8
0
100
AcDbLine
 10
289.8014011549553
 20
97.70318299994819
 30
0.0
 11
294.4330948920072
 21
93.0714892628965
 31
0.0
  0
LINE
  5
546
330
20
100
AcDbEntity
  8
0
100
AcDbLine
 10
293.4402016731937
 20
94.77148926289643
 30
0.0
 11
295.1402016731938
 21
93.0714892628965
 31
0.0
  0
LINE
  5
547
330
20
100
AcDbEntity
  8
0
100
AcDbLine
 10
289.8014011549553
 20
98.41028978113477
 30
0.0
 11
292.367950973635
 21
95.84373996245515
 31
0.0
  0
LINE
  5
548
330
20
100
AcDbEntity
  8
0
100
AcDbLine
 10
294.1473084543801
 20
94.77148926289643
 30
0.0
 11
295.8473084543802
 21
93.0714892628965
 31
0.0
  0
LINE
  5
549
330
20
100
AcDbEntity
  8
0
100
AcDbLine
 10
289.8014011549553
 20
99.11739656232132
 30
0.0
 11
292.3032725630603
 21
96.61552515421632
 31
0.0
  0
LINE
  5
54A
330
20
100
AcDbEntity
  8
0
100
AcDbLine
 10
294.8544152355668
 20
94.77148926289643
 30
0.0
 11
296.5544152355668
 21
93.0714892628965
 31
0.0
  0
LINE
  5
54B
330
20
100
AcDbEntity
  8
0
100
AcDbLine
 10
290.1544152355668
 20
99.47148926289649
 30
0.0
 11
292.3231486288072
 21
97.30275586965589
 31
0.0
  0
LINE
  5
54C
330
20
100
AcDbEntity
  8
0
100
AcDbLine
 10
295.5615220167532
 20
94.77148926289643
 30
0.0
 11
297.2615220167533
 21
93.0714892628965
 31
0.0
  0
LINE
  5
54D
330
20
100
AcDbEntity
  8
0
100
AcDbLine
 10
290.8615220167532
 20
99.47148926289649
 30
0.0
 11
292.4050986988611
 21
97.9279125807885
 31
0.0
  0
LINE
  5
54E
330
20
100
AcDbEntity
  8
0
100
AcDbLine
 10
296.2686287979399
 20
94.77148926289643
 30
0.0
 11
297.96862879794
 21
93.0714892628965
 31
0.0
  0
LINE
  5
54F
330
20
100
AcDbEntity
  8
0
100
AcDbLine
 10
291.5686287979399
 20
99.47148926289649
 30
0.0
 11
292.544815733142
 21
98.49530232769437
 31
0.0
  0
LINE
  5
550
330
20
100
AcDbEntity
  8
0
100
AcDbLine
 10
296.9757355791264
 20
94.77148926289643
 30
0.0
 11
298.6757355791263
 21
93.0714892628965
 31
0.0
  0
LINE
  5
551
330
20
100
AcDbEntity
  8
0
100
AcDbLine
 10
292.2757355791263
 20
99.47148926289649
 30
0.0
 11
292.9759896163097
 21
98.77123522571309
 31
0.0
  0
LINE
  5
552
330
20
100
AcDbEntity
  8
0
100
AcDbLine
 10
297.6828423603128
 20
94.77148926289643
 30
0.0
 11
299.3828423603131
 21
93.0714892628965
 31
0.0
  0
LINE
  5
553
330
20
100
AcDbEntity
  8
0
100
AcDbLine
 10
292.982842360313
 20
99.47148926289649
 30
0.0
 11
293.6828423603131
 21
98.77148926289644
 31
0.0
  0
LINE
  5
554
330
20
100
AcDbEntity
  8
0
100
AcDbLine
 10
298.3899491414994
 20
94.77148926289643
 30
0.0
 11
300.0899491414994
 21
93.0714892628964
 31
0.0
  0
LINE
  5
555
330
20
100
AcDbEntity
  8
0
100
AcDbLine
 10
293.6899491414994
 20
99.47148926289649
 30
0.0
 11
294.3899491414995
 21
98.77148926289644
 31
0.0
  0
LINE
  5
556
330
20
100
AcDbEntity
  8
0
100
AcDbLine
 10
299.0970559226859
 20
94.77148926289643
 30
0.0
 11
300.797055922686
 21
93.0714892628964
 31
0.0
  0
LINE
  5
557
330
20
100
AcDbEntity
  8
0
100
AcDbLine
 10
294.3970559226861
 20
99.47148926289649
 30
0.0
 11
295.0970559226859
 21
98.77148926289644
 31
0.0
  0
LINE
  5
558
330
20
100
AcDbEntity
  8
0
100
AcDbLine
 10
299.8041627038726
 20
94.77148926289643
 30
0.0
 11
301.5041627038726
 21
93.0714892628964
 31
0.0
  0
LINE
  5
559
330
20
100
AcDbEntity
  8
0
100
AcDbLine
 10
295.1041627038725
 20
99.47148926289649
 30
0.0
 11
295.8041627038726
 21
98.77148926289644
 31
0.0
  0
LINE
  5
55A
330
20
100
AcDbEntity
  8
0
100
AcDbLine
 10
300.511269485059
 20
94.77148926289643
 30
0.0
 11
302.2112694850591
 21
93.0714892628964
 31
0.0
  0
LINE
  5
55B
330
20
100
AcDbEntity
  8
0
100
AcDbLine
 10
295.8112694850592
 20
99.47148926289649
 30
0.0
 11
296.511269485059
 21
98.77148926289644
 31
0.0
  0
LINE
  5
55C
330
20
100
AcDbEntity
  8
0
100
AcDbLine
 10
301.2183762662457
 20
94.77148926289643
 30
0.0
 11
302.9183762662457
 21
93.0714892628964
 31
0.0
  0
LINE
  5
55D
330
20
100
AcDbEntity
  8
0
100
AcDbLine
 10
296.5183762662456
 20
99.47148926289649
 30
0.0
 11
296.9926092494006
 21
98.99725627974165
 31
0.0
  0
LINE
  5
55E
330
20
100
AcDbEntity
  8
0
100
AcDbLine
 10
301.9254830474321
 20
94.77148926289643
 30
0.0
 11
303.6254830474322
 21
93.0714892628964
 31
0.0
  0
LINE
  5
55F
330
20
100
AcDbEntity
  8
0
100
AcDbLine
 10
291.080100162826
 20
105.6168721475028
 30
0.0
 11
291.5254830474323
 21
105.1714892628964
 31
0.0
  0
LINE
  5
560
330
20
100
AcDbEntity
  8
0
100
AcDbLine
 10
302.6325898286188
 20
94.77148926289643
 30
0.0
 11
304.3325898286188
 21
93.0714892628964
 31
0.0
  0
LINE
  5
561
330
20
100
AcDbEntity
  8
0
100
AcDbLine
 10
291.3102722735236
 20
106.0938068179916
 30
0.0
 11
292.2325898286189
 21
105.1714892628964
 31
0.0
  0
LINE
  5
562
330
20
100
AcDbEntity
  8
0
100
AcDbLine
 10
303.3396966098052
 20
94.77148926289643
 30
0.0
 11
305.0396966098053
 21
93.0714892628964
 31
0.0
  0
LINE
  5
563
330
20
100
AcDbEntity
  8
0
100
AcDbLine
 10
291.5601655307114
 20
106.5510203419904
 30
0.0
 11
292.9396966098054
 21
105.1714892628964
 31
0.0
  0
LINE
  5
564
330
20
100
AcDbEntity
  8
0
100
AcDbLine
 10
305.2833845679622
 20
106.9699369284704
 30
0.0
 11
306.4219175462403
 21
105.8314039501923
 31
0.0
  0
LINE
  5
565
330
20
100
AcDbEntity
  8
0
100
AcDbLine
 10
304.5747254523498
 20
106.9714892628965
 30
0.0
 11
306.3747254523498
 21
105.1714892628964
 31
0.0
  0
LINE
  5
566
330
20
100
AcDbEntity
  8
0
100
AcDbLine
 10
303.8676186711632
 20
106.9714892628965
 30
0.0
 11
305.6676186711633
 21
105.1714892628964
 31
0.0
  0
LINE
  5
567
330
20
100
AcDbEntity
  8
0
100
AcDbLine
 10
303.1605118899767
 20
106.9714892628965
 30
0.0
 11
304.9605118899767
 21
105.1714892628964
 31
0.0
  0
LINE
  5
568
330
20
100
AcDbEntity
  8
0
100
AcDbLine
 10
302.4534051087901
 20
106.9714892628965
 30
0.0
 11
304.2534051087902
 21
105.1714892628964
 31
0.0
  0
LINE
  5
569
330
20
100
AcDbEntity
  8
0
100
AcDbLine
 10
301.7462983276036
 20
106.9714892628965
 30
0.0
 11
303.5462983276036
 21
105.1714892628964
 31
0.0
  0
LINE
  5
56A
330
20
100
AcDbEntity
  8
0
100
AcDbLine
 10
301.0391915464169
 20
106.9714892628965
 30
0.0
 11
302.8391915464171
 21
105.1714892628964
 31
0.0
  0
LINE
  5
56B
330
20
100
AcDbEntity
  8
0
100
AcDbLine
 10
300.3320847652305
 20
106.9714892628965
 30
0.0
 11
302.1320847652305
 21
105.1714892628964
 31
0.0
  0
LINE
  5
56C
330
20
100
AcDbEntity
  8
0
100
AcDbLine
 10
299.6249779840438
 20
106.9714892628965
 30
0.0
 11
301.424977984044
 21
105.1714892628964
 31
0.0
  0
LINE
  5
56D
330
20
100
AcDbEntity
  8
0
100
AcDbLine
 10
298.9178712028574
 20
106.9714892628965
 30
0.0
 11
300.7178712028574
 21
105.1714892628964
 31
0.0
  0
LINE
  5
56E
330
20
100
AcDbEntity
  8
0
100
AcDbLine
 10
298.2107644216707
 20
106.9714892628965
 30
0.0
 11
300.0107644216709
 21
105.1714892628964
 31
0.0
  0
LINE
  5
56F
330
20
100
AcDbEntity
  8
0
100
AcDbLine
 10
297.5036576404843
 20
106.9714892628965
 30
0.0
 11
299.3036576404842
 21
105.1714892628964
 31
0.0
  0
LINE
  5
570
330
20
100
AcDbEntity
  8
0
100
AcDbLine
 10
296.7965508592976
 20
106.9714892628965
 30
0.0
 11
298.5965508592979
 21
105.1714892628964
 31
0.0
  0
LINE
  5
571
330
20
100
AcDbEntity
  8
0
100
AcDbLine
 10
305.2113752221216
 20
97.84955811888593
 30
0.0
 11
307.8014011549553
 21
95.25953218605229
 31
0.0
  0
LINE
  5
572
330
20
100
AcDbEntity
  8
0
100
AcDbLine
 10
296.0894440781112
 20
106.9714892628965
 30
0.0
 11
297.8894440781111
 21
105.1714892628964
 31
0.0
  0
LINE
  5
573
330
20
100
AcDbEntity
  8
0
100
AcDbLine
 10
305.2950492496628
 20
97.0587773101581
 30
0.0
 11
307.7467372833855
 21
94.60708927643574
 31
0.0
  0
LINE
  5
574
330
20
100
AcDbEntity
  8
0
100
AcDbLine
 10
295.3823372969245
 20
106.9714892628965
 30
0.0
 11
297.1823372969247
 21
105.1714892628964
 31
0.0
  0
LINE
  5
575
330
20
100
AcDbEntity
  8
0
100
AcDbLine
 10
305.2882649978741
 20
96.35845478076042
 30
0.0
 11
307.5485720722733
 21
94.09814770636122
 31
0.0
  0
LINE
  5
576
330
20
100
AcDbEntity
  8
0
100
AcDbLine
 10
294.6752305157381
 20
106.9714892628965
 30
0.0
 11
296.475230515738
 21
105.1714892628964
 31
0.0
  0
LINE
  5
577
330
20
100
AcDbEntity
  8
0
100
AcDbLine
 10
305.2163267532457
 20
95.72328624420228
 30
0.0
 11
307.2485824560501
 21
93.69103054139779
 31
0.0
  0
LINE
  5
578
330
20
100
AcDbEntity
  8
0
100
AcDbLine
 10
293.9681237345514
 20
106.9714892628965
 30
0.0
 11
295.7681237345516
 21
105.1714892628964
 31
0.0
  0
LINE
  5
579
330
20
100
AcDbEntity
  8
0
100
AcDbLine
 10
305.0931115987775
 20
95.13939461748391
 30
0.0
 11
306.8586984438065
 21
93.3738077724549
 31
0.0
  0
LINE
  5
57A
330
20
100
AcDbEntity
  8
0
100
AcDbLine
 10
293.261016953365
 20
106.9714892628965
 30
0.0
 11
295.0610169533648
 21
105.1714892628964
 31
0.0
  0
LINE
  5
57B
330
20
100
AcDbEntity
  8
0
100
AcDbLine
 10
304.7375878952252
 20
94.78781153984968
 30
0.0
 11
306.3710650944599
 21
93.15433434061487
 31
0.0
  0
LINE
  5
57C
330
20
100
AcDbEntity
  8
0
100
AcDbLine
 10
292.5539101721783
 20
106.9714892628965
 30
0.0
 11
294.3539101721785
 21
105.1714892628964
 31
0.0
  0
LINE
  5
57D
330
20
100
AcDbEntity
  8
0
100
AcDbLine
 10
304.0468033909919
 20
94.77148926289643
 30
0.0
 11
305.7468033909919
 21
93.0714892628964
 31
0.0
  0
LINE
  5
57E
330
20
100
AcDbEntity
  8
0
100
AcDbLine
 10
291.9443429437133
 20
106.8739497101749
 30
0.0
 11
293.6468033909918
 21
105.1714892628964
 31
0.0
  0
LINE
  5
57F
330
20
100
AcDbEntity
  8
0
100
AcDbLine
 10
292.1675991482816
 20
106.9497207761437
 30
0.0
 11
291.3088250303717
 21
106.0909466582339
 31
0.0
  0
LINE
  5
580
330
20
100
AcDbEntity
  8
0
100
AcDbLine
 10
292.8964744162207
 20
106.9714892628965
 30
0.0
 11
291.0964744162208
 21
105.1714892628964
 31
0.0
  0
LINE
  5
581
330
20
100
AcDbEntity
  8
0
100
AcDbLine
 10
293.6035811974075
 20
106.9714892628965
 30
0.0
 11
291.8035811974075
 21
105.1714892628964
 31
0.0
  0
LINE
  5
582
330
20
100
AcDbEntity
  8
0
100
AcDbLine
 10
294.3106879785939
 20
106.9714892628965
 30
0.0
 11
292.5106879785939
 21
105.1714892628964
 31
0.0
  0
LINE
  5
583
330
20
100
AcDbEntity
  8
0
100
AcDbLine
 10
295.0177947597806
 20
106.9714892628965
 30
0.0
 11
293.2177947597807
 21
105.1714892628964
 31
0.0
  0
LINE
  5
584
330
20
100
AcDbEntity
  8
0
100
AcDbLine
 10
295.724901540967
 20
106.9714892628965
 30
0.0
 11
293.924901540967
 21
105.1714892628964
 31
0.0
  0
LINE
  5
585
330
20
100
AcDbEntity
  8
0
100
AcDbLine
 10
296.4320083221537
 20
106.9714892628965
 30
0.0
 11
294.6320083221537
 21
105.1714892628964
 31
0.0
  0
LINE
  5
586
330
20
100
AcDbEntity
  8
0
100
AcDbLine
 10
297.1391151033401
 20
106.9714892628965
 30
0.0
 11
295.3391151033401
 21
105.1714892628964
 31
0.0
  0
LINE
  5
587
330
20
100
AcDbEntity
  8
0
100
AcDbLine
 10
297.8462218845267
 20
106.9714892628965
 30
0.0
 11
296.0462218845266
 21
105.1714892628964
 31
0.0
  0
LINE
  5
588
330
20
100
AcDbEntity
  8
0
100
AcDbLine
 10
298.5533286657132
 20
106.9714892628965
 30
0.0
 11
296.7533286657133
 21
105.1714892628964
 31
0.0
  0
LINE
  5
589
330
20
100
AcDbEntity
  8
0
100
AcDbLine
 10
299.2604354468999
 20
106.9714892628965
 30
0.0
 11
297.4604354468997
 21
105.1714892628964
 31
0.0
  0
LINE
  5
58A
330
20
100
AcDbEntity
  8
0
100
AcDbLine
 10
299.9675422280863
 20
106.9714892628965
 30
0.0
 11
298.1675422280864
 21
105.1714892628964
 31
0.0
  0
LINE
  5
58B
330
20
100
AcDbEntity
  8
0
100
AcDbLine
 10
300.674649009273
 20
106.9714892628965
 30
0.0
 11
298.8746490092728
 21
105.1714892628964
 31
0.0
  0
LINE
  5
58C
330
20
100
AcDbEntity
  8
0
100
AcDbLine
 10
292.4205376076433
 20
98.01027108008042
 30
0.0
 11
289.8014011549553
 21
95.39113462739235
 31
0.0
  0
LINE
  5
58D
330
20
100
AcDbEntity
  8
0
100
AcDbLine
 10
301.3817557904594
 20
106.9714892628965
 30
0.0
 11
299.5817557904595
 21
105.1714892628964
 31
0.0
  0
LINE
  5
58E
330
20
100
AcDbEntity
  8
0
100
AcDbLine
 10
292.3154119779706
 20
97.19803866922097
 30
0.0
 11
289.8332670564773
 21
94.71589374772779
 31
0.0
  0
LINE
  5
58F
330
20
100
AcDbEntity
  8
0
100
AcDbLine
 10
302.0888625716458
 20
106.9714892628965
 30
0.0
 11
300.2888625716459
 21
105.1714892628964
 31
0.0
  0
LINE
  5
590
330
20
100
AcDbEntity
  8
0
100
AcDbLine
 10
292.3077924456056
 20
96.48331235566963
 30
0.0
 11
290.0088911230938
 21
94.18441103315783
 31
0.0
  0
LINE
  5
591
330
20
100
AcDbEntity
  8
0
100
AcDbLine
 10
302.7959693528325
 20
106.9714892628965
 30
0.0
 11
300.9959693528326
 21
105.1714892628964
 31
0.0
  0
LINE
  5
592
330
20
100
AcDbEntity
  8
0
100
AcDbLine
 10
292.3688834496904
 20
95.83729657856776
 30
0.0
 11
290.2915059283012
 21
93.75991905717851
 31
0.0
  0
LINE
  5
593
330
20
100
AcDbEntity
  8
0
100
AcDbLine
 10
303.5030761340189
 20
106.9714892628965
 30
0.0
 11
301.703076134019
 21
105.1714892628964
 31
0.0
  0
LINE
  5
594
330
20
100
AcDbEntity
  8
0
100
AcDbLine
 10
292.4832855730371
 20
95.24459192072786
 30
0.0
 11
290.6646467227176
 21
93.42595307040843
 31
0.0
  0
LINE
  5
595
330
20
100
AcDbEntity
  8
0
100
AcDbLine
 10
304.2101829152056
 20
106.9714892628965
 30
0.0
 11
302.4101829152057
 21
105.1714892628964
 31
0.0
  0
LINE
  5
596
330
20
100
AcDbEntity
  8
0
100
AcDbLine
 10
292.7694917923063
 20
94.82369135881048
 30
0.0
 11
291.1324727759156
 21
93.18667234241976
 31
0.0
  0
LINE
  5
597
330
20
100
AcDbEntity
  8
0
100
AcDbLine
 10
304.917289696392
 20
106.9714892628965
 30
0.0
 11
303.1172896963922
 21
105.1714892628964
 31
0.0
  0
LINE
  5
598
330
20
100
AcDbEntity
  8
0
100
AcDbLine
 10
307.4680097609622
 20
93.9658601413623
 30
0.0
 11
306.9070302764894
 21
93.40488065688973
 31
0.0
  0
LINE
  5
599
330
20
100
AcDbEntity
  8
0
100
AcDbLine
 10
307.8003043245939
 20
95.00526148618073
 30
0.0
 11
305.8676289316712
 21
93.07258609325783
 31
0.0
  0
LINE
  5
59A
330
20
100
AcDbEntity
  8
0
100
AcDbLine
 10
307.8014011549553
 20
95.71346509772864
 30
0.0
 11
305.159425320123
 21
93.0714892628964
 31
0.0
  0
LINE
  5
59B
330
20
100
AcDbEntity
  8
0
100
AcDbLine
 10
307.8014011549553
 20
96.4205718789152
 30
0.0
 11
304.4523185389366
 21
93.0714892628964
 31
0.0
  0
LINE
  5
59C
330
20
100
AcDbEntity
  8
0
100
AcDbLine
 10
307.8014011549553
 20
97.12767866010175
 30
0.0
 11
303.7452117577499
 21
93.0714892628964
 31
0.0
  0
LINE
  5
59D
330
20
100
AcDbEntity
  8
0
100
AcDbLine
 10
304.7612545273366
 20
94.7946388136695
 30
0.0
 11
303.0381049765635
 21
93.0714892628964
 31
0.0
  0
LINE
  5
59E
330
20
100
AcDbEntity
  8
0
100
AcDbLine
 10
307.8014011549553
 20
97.83478544128827
 30
0.0
 11
305.0877266234933
 21
95.12111090982632
 31
0.0
  0
LINE
  5
59F
330
20
100
AcDbEntity
  8
0
100
AcDbLine
 10
304.0309981953769
 20
94.77148926289643
 30
0.0
 11
302.3309981953768
 21
93.0714892628964
 31
0.0
  0
LINE
  5
5A0
330
20
100
AcDbEntity
  8
0
100
AcDbLine
 10
307.8014011549553
 20
98.54189222247484
 30
0.0
 11
305.2549021354957
 21
95.99539320301536
 31
0.0
  0
LINE
  5
5A1
330
20
100
AcDbEntity
  8
0
100
AcDbLine
 10
303.3238914141904
 20
94.77148926289643
 30
0.0
 11
301.6238914141904
 21
93.0714892628964
 31
0.0
  0
LINE
  5
5A2
330
20
100
AcDbEntity
  8
0
100
AcDbLine
 10
307.8014011549553
 20
99.24899900366142
 30
0.0
 11
305.3013621110303
 21
96.74895995973631
 31
0.0
  0
LINE
  5
5A3
330
20
100
AcDbEntity
  8
0
100
AcDbLine
 10
302.6167846330038
 20
94.77148926289643
 30
0.0
 11
300.9167846330037
 21
93.0714892628964
 31
0.0
  0
LINE
  5
5A4
330
20
100
AcDbEntity
  8
0
100
AcDbLine
 10
307.3167846330038
 20
99.47148926289637
 30
0.0
 11
305.2686334192173
 21
97.42333804911002
 31
0.0
  0
LINE
  5
5A5
330
20
100
AcDbEntity
  8
0
100
AcDbLine
 10
301.9096778518173
 20
94.77148926289643
 30
0.0
 11
300.2096778518173
 21
93.0714892628964
 31
0.0
  0
LINE
  5
5A6
330
20
100
AcDbEntity
  8
0
100
AcDbLine
 10
306.6096778518172
 20
99.47148926289637
 30
0.0
 11
305.1767143616038
 21
98.03852577268308
 31
0.0
  0
LINE
  5
5A7
330
20
100
AcDbEntity
  8
0
100
AcDbLine
 10
301.2025710706307
 20
94.77148926289643
 30
0.0
 11
299.5025710706306
 21
93.0714892628964
 31
0.0
  0
LINE
  5
5A8
330
20
100
AcDbEntity
  8
0
100
AcDbLine
 10
305.9025710706307
 20
99.47148926289637
 30
0.0
 11
305.0072917492018
 21
98.57620994146746
 31
0.0
  0
LINE
  5
5A9
330
20
100
AcDbEntity
  8
0
100
AcDbLine
 10
300.4954642894442
 20
94.77148926289643
 30
0.0
 11
298.7954642894442
 21
93.0714892628965
 31
0.0
  0
LINE
  5
5AA
330
20
100
AcDbEntity
  8
0
100
AcDbLine
 10
305.195464289444
 20
99.47148926289637
 30
0.0
 11
304.4954642894442
 21
98.77148926289644
 31
0.0
  0
LINE
  5
5AB
330
20
100
AcDbEntity
  8
0
100
AcDbLine
 10
299.7883575082578
 20
94.77148926289643
 30
0.0
 11
298.0883575082575
 21
93.0714892628965
 31
0.0
  0
LINE
  5
5AC
330
20
100
AcDbEntity
  8
0
100
AcDbLine
 10
304.4883575082577
 20
99.47148926289649
 30
0.0
 11
303.7883575082577
 21
98.77148926289644
 31
0.0
  0
LINE
  5
5AD
330
20
100
AcDbEntity
  8
0
100
AcDbLine
 10
299.0812507270711
 20
94.77148926289643
 30
0.0
 11
297.3812507270711
 21
93.0714892628965
 31
0.0
  0
LINE
  5
5AE
330
20
100
AcDbEntity
  8
0
100
AcDbLine
 10
303.7812507270711
 20
99.47148926289637
 30
0.0
 11
303.0812507270711
 21
98.77148926289644
 31
0.0
  0
LINE
  5
5AF
330
20
100
AcDbEntity
  8
0
100
AcDbLine
 10
298.3741439458847
 20
94.77148926289643
 30
0.0
 11
296.6741439458846
 21
93.0714892628965
 31
0.0
  0
LINE
  5
5B0
330
20
100
AcDbEntity
  8
0
100
AcDbLine
 10
303.0741439458845
 20
99.47148926289649
 30
0.0
 11
302.3741439458845
 21
98.77148926289644
 31
0.0
  0
LINE
  5
5B1
330
20
100
AcDbEntity
  8
0
100
AcDbLine
 10
297.667037164698
 20
94.77148926289643
 30
0.0
 11
295.9670371646979
 21
93.0714892628965
 31
0.0
  0
LINE
  5
5B2
330
20
100
AcDbEntity
  8
0
100
AcDbLine
 10
302.367037164698
 20
99.47148926289649
 30
0.0
 11
301.667037164698
 21
98.77148926289644
 31
0.0
  0
LINE
  5
5B3
330
20
100
AcDbEntity
  8
0
100
AcDbLine
 10
296.9599303835116
 20
94.77148926289643
 30
0.0
 11
295.2599303835115
 21
93.0714892628965
 31
0.0
  0
LINE
  5
5B4
330
20
100
AcDbEntity
  8
0
100
AcDbLine
 10
301.6599303835114
 20
99.47148926289649
 30
0.0
 11
300.9599303835113
 21
98.77148926289644
 31
0.0
  0
LINE
  5
5B5
330
20
100
AcDbEntity
  8
0
100
AcDbLine
 10
296.2528236023249
 20
94.77148926289643
 30
0.0
 11
294.5528236023248
 21
93.0714892628965
 31
0.0
  0
LINE
  5
5B6
330
20
100
AcDbEntity
  8
0
100
AcDbLine
 10
306.6987575897083
 20
105.2174232502798
 30
0.0
 11
306.6528236023247
 21
105.1714892628964
 31
0.0
  0
LINE
  5
5B7
330
20
100
AcDbEntity
  8
0
100
AcDbLine
 10
295.5457168211382
 20
94.77148926289643
 30
0.0
 11
293.8457168211384
 21
93.0714892628965
 31
0.0
  0
LINE
  5
5B8
330
20
100
AcDbEntity
  8
0
100
AcDbLine
 10
306.4810050152189
 20
105.7067774569769
 30
0.0
 11
305.9457168211383
 21
105.1714892628964
 31
0.0
  0
LINE
  5
5B9
330
20
100
AcDbEntity
  8
0
100
AcDbLine
 10
294.8386100399519
 20
94.77148926289643
 30
0.0
 11
293.1386100399517
 21
93.0714892628965
 31
0.0
  0
LINE
  5
5BA
330
20
100
AcDbEntity
  8
0
100
AcDbLine
 10
306.2480503162555
 20
106.1809295392001
 30
0.0
 11
305.2386100399516
 21
105.1714892628964
 31
0.0
  0
LINE
  5
5BB
330
20
100
AcDbEntity
  8
0
100
AcDbLine
 10
294.1315032587653
 20
94.77148926289643
 30
0.0
 11
292.4315032587653
 21
93.0714892628965
 31
0.0
  0
LINE
  5
5BC
330
20
100
AcDbEntity
  8
0
100
AcDbLine
 10
305.984793877267
 20
106.6247798813982
 30
0.0
 11
304.5315032587652
 21
105.1714892628964
 31
0.0
  0
LINE
  5
5BD
330
20
100
AcDbEntity
  8
0
100
AcDbLine
 10
293.4243964775787
 20
94.77148926289643
 30
0.0
 11
291.725824929173
 21
93.07291771449092
 31
0.0
  0
LINE
  5
5BE
330
20
100
AcDbEntity
  8
0
100
AcDbLine
 10
305.5655806468771
 20
106.9126734321949
 30
0.0
 11
303.8243964775788
 21
105.1714892628964
 31
0.0
  0
ARC
  5
5BF
330
20
100
AcDbEntity
  8
0
100
AcDbCircle
 10
291.8014011676623
 20
95.0714892628965
 30
0.0
 40
3.0
100
AcDbArc
 50
180.0
 51
269.9999999999996
  0
ARC
  5
5C0
330
20
100
AcDbEntity
  8
0
100
AcDbCircle
 10
305.8014011676623
 20
95.07148926289641
 30
0.0
 40
3.0
100
AcDbArc
 50
269.9999999999996
 51
0.0
  0
LINE
  5
5C1
330
20
100
AcDbEntity
  8
0
100
AcDbLine
 10
291.8014011676623
 20
92.07148926289653
 30
0.0
 11
305.8014011676623
 21
92.07148926289637
 31
0.0
  0
LINE
  5
5C2
330
20
100
AcDbEntity
  8
0
100
AcDbLine
 10
296.8014011676623
 20
98.77148926289644
 30
0.0
 11
292.9919261483512
 21
98.77148926289644
 31
0.0
  0
ARC
  5
5C3
330
20
100
AcDbEntity
  8
0
100
AcDbCircle
 10
308.8014011676623
 20
113.0002458182194
 30
0.0
 40
4.999999999999983
100
AcDbArc
 50
180.0
 51
221.4096221092709
  0
ARC
  5
5C4
330
20
100
AcDbEntity
  8
0
100
AcDbCircle
 10
293.8014011676624
 20
99.77148926289643
 30
0.0
 40
15.0
100
AcDbArc
 50
0.0
 51
41.40962210927078
  0
LINE
  5
5C5
330
20
100
AcDbEntity
  8
0
100
AcDbLine
 10
308.8014011676623
 20
95.07148926289641
 30
0.0
 11
308.8014011676623
 21
99.77148926289643
 31
0.0
  0
LINE
  5
5C6
330
20
100
AcDbEntity
  8
0
100
AcDbLine
 10
288.8014011676623
 20
99.77148926289643
 30
0.0
 11
288.8014011676623
 21
95.0714892628965
 31
0.0
  0
ARC
  5
5C7
330
20
100
AcDbEntity
  8
0
100
AcDbCircle
 10
303.8014011676623
 20
99.77148926289643
 30
0.0
 40
15.0
100
AcDbArc
 50
138.5903778907293
 51
180.0
  0
ARC
  5
5C8
330
20
100
AcDbEntity
  8
0
100
AcDbCircle
 10
288.8014011676623
 20
113.0002458182194
 30
0.0
 40
5.0
100
AcDbArc
 50
318.5903778907289
 51
359.9999999999998
  0
ARC
  5
5C9
330
20
100
AcDbEntity
  8
0
100
AcDbCircle
 10
295.0014011676623
 20
113.7714892628964
 30
0.0
 40
0.2
100
AcDbArc
 50
270.0000000000005
 51
0.0
  0
ARC
  5
5CA
330
20
100
AcDbEntity
  8
0
100
AcDbCircle
 10
302.6014011676622
 20
113.7714892628964
 30
0.0
 40
0.2
100
AcDbArc
 50
180.0
 51
269.9999999999995
  0
ARC
  5
5CB
330
20
100
AcDbEntity
  8
0
100
AcDbCircle
 10
292.9919261483512
 20
95.27148926289644
 30
0.0
 40
0.5
100
AcDbArc
 50
194.4775121859299
 51
270.0
  0
ARC
  5
5CC
330
20
100
AcDbEntity
  8
0
100
AcDbCircle
 10
292.9919261483512
 20
98.27148926289645
 30
0.0
 40
0.5
100
AcDbArc
 50
90.0
 51
165.5224878140701
  0
ARC
  5
5CD
330
20
100
AcDbEntity
  8
0
100
AcDbCircle
 10
304.6108761869734
 20
98.27148926289645
 30
0.0
 40
0.5
100
AcDbArc
 50
14.47751218592986
 51
89.9999999999996
  0
ARC
  5
5CE
330
20
100
AcDbEntity
  8
0
100
AcDbCircle
 10
304.6108761869734
 20
95.27148926289644
 30
0.0
 40
0.5
100
AcDbArc
 50
269.9999999999996
 51
345.5224878140701
  0
ARC
  5
5CF
330
20
100
AcDbEntity
  8
0
100
AcDbCircle
 10
294.3014011676623
 20
113.0714892628965
 30
0.0
 40
0.5
100
AcDbArc
 50
90.0
 51
180.0
  0
ARC
  5
5D0
330
20
100
AcDbEntity
  8
0
100
AcDbCircle
 10
303.3014011676623
 20
113.0714892628965
 30
0.0
 40
0.5
100
AcDbArc
 50
0.0
 51
90.0
  0
ARC
  5
5D1
330
20
100
AcDbEntity
  8
0
100
AcDbCircle
 10
298.8014011676623
 20
97.27148926289643
 30
0.0
 40
2.5
100
AcDbArc
 50
36.86989764584403
 51
143.130102354156
  0
ARC
  5
5D2
330
20
100
AcDbEntity
  8
0
100
AcDbCircle
 10
298.8014011676623
 20
96.77148926289644
 30
0.0
 40
6.5
100
AcDbArc
 50
165.5224878140701
 51
194.4775121859299
  0
ARC
  5
5D3
330
20
100
AcDbEntity
  8
0
100
AcDbCircle
 10
298.8014011676623
 20
96.77148926289644
 30
0.0
 40
6.5
100
AcDbArc
 50
345.5224878140701
 51
14.47751218592994
  0
LINE
  5
5D4
330
20
100
AcDbEntity
  8
0
100
AcDbLine
 10
304.6108761869734
 20
98.77148926289644
 30
0.0
 11
300.8014011676623
 21
98.77148926289644
 31
0.0
  0
LINE
  5
5D5
330
20
100
AcDbEntity
  8
0
100
AcDbLine
 10
304.6108761869734
 20
94.77148926289643
 30
0.0
 11
292.9919261483512
 21
94.77148926289643
 31
0.0
  0
LINE
  5
5D6
330
20
100
AcDbEntity
  8
0
100
AcDbLine
 10
294.3014011676623
 20
113.5714892628965
 30
0.0
 11
295.0014011676623
 21
113.5714892628965
 31
0.0
  0
LINE
  5
5D7
330
20
100
AcDbEntity
  8
0
100
AcDbLine
 10
302.6014011676622
 20
113.5714892628965
 30
0.0
 11
303.3014011676623
 21
113.5714892628965
 31
0.0
  0
LINE
  5
5D8
330
20
100
AcDbEntity
  8
0
100
AcDbLine
 10
295.2014011676624
 20
113.7714892628964
 30
0.0
 11
295.2014011676624
 21
134.4505692137071
 31
0.0
  0
LINE
  5
5D9
330
20
100
AcDbEntity
  8
0
100
AcDbLine
 10
302.4014011676622
 20
113.7714892628964
 30
0.0
 11
302.4014011676622
 21
134.4505691774122
 31
0.0
  0
LINE
  5
5DA
330
20
100
AcDbEntity
  8
0
100
AcDbLine
 10
300.0766692755332
 20
99.47148926289649
 30
0.0
 11
300.0452643187356
 21
99.44008430609892
 31
0.0
  0
LINE
  5
5DB
330
20
100
AcDbEntity
  8
0
100
AcDbLine
 10
298.2279947239531
 20
138.7729927683422
 30
0.0
 11
295.2014011676624
 21
134.4505692137071
 31
0.0
  0
LINE
  5
5DC
330
20
100
AcDbEntity
  8
0
100
AcDbLine
 10
299.3748075859577
 20
138.7729927683422
 30
0.0
 11
302.4014011676622
 21
134.4505691774122
 31
0.0
  0
ARC
  5
5DD
330
20
100
AcDbEntity
  8
0
100
AcDbCircle
 10
298.8014011549553
 20
138.3714892628965
 30
0.0
 40
0.7
100
AcDbArc
 50
34.99999999999988
 51
145.0
  0
TEXT
  5
5EA
330
20
100
AcDbEntity
  8
0
100
AcDbText
 10
306.1823535486146
 20
103.0714892628965
 30
0.0
 40
2.5
  1
AAAAA0
 50
180.0
  7
SIMPLEX
 72
     4
 11
298.8014011676623
 21
101.8214892628965
 31
0.0
100
AcDbText
  0
LINE
  5
857
330
20
100
AcDbEntity
  8
0
100
AcDbLine
 10
67.55160550683843
 20
259.9824436566314
 30
0.0
 11
67.55160550683843
 21
185.7824436566313
 31
0.0
  0
LINE
  5
858
330
20
100
AcDbEntity
  8
0
100
AcDbLine
 10
67.55160550683843
 20
185.7824436566313
 30
0.0
 11
13.85160550683861
 21
185.7824436566313
 31
0.0
  0
TEXT
  5
859
330
20
100
AcDbEntity
  8
0
100
AcDbText
 10
16.85160550683861
 20
247.3824436566315
 30
0.0
 40
5.0
  1
Qlæt`ó
 41
0.7
  7
SIMPLEX
100
AcDbText
  0
LINE
  5
85A
330
20
100
AcDbEntity
  8
0
100
AcDbLine
 10
67.55160550683843
 20
259.9824436566314
 30
0.0
 11
13.85160550683861
 21
259.9824436566314
 31
0.0
  0
LINE
  5
85B
330
20
100
AcDbEntity
  8
0
100
AcDbLine
 10
13.85160550683861
 20
259.9824436566314
 30
0.0
 11
13.85160550683861
 21
185.7824436566313
 31
0.0
  0
LINE
  5
85C
330
20
100
AcDbEntity
  8
0
100
AcDbLine
 10
13.85160550683861
 20
198.4824436566315
 30
0.0
 11
67.55160550683843
 21
198.4824436566315
 31
0.0
  0
INSERT
  5
85D
330
20
100
AcDbEntity
  8
0
100
AcDbBlockReference
  2
SUG-AR01
 10
13.85160550683861
 20
198.4824436566315
 30
0.0
 41
0.5
 42
0.5
 43
0.5
  0
INSERT
  5
85E
330
20
100
AcDbEntity
  8
0
100
AcDbBlockReference
  2
SUG-AR01
 10
67.55160550683843
 20
198.4824436566315
 30
0.0
 41
0.5
 42
0.5
 43
0.5
 50
180.0
  0
TEXT
  5
85F
330
20
100
AcDbEntity
  8
0
100
AcDbText
 10
36.13017693540995
 20
199.3824436566315
 30
0.0
 40
3.0
  1
53.7
  7
SIMPLEX
 72
     1
 11
40.7016055068385
 21
199.3824436566315
 31
0.0
100
AcDbText
  0
LINE
  5
860
330
20
100
AcDbEntity
  8
0
100
AcDbLine
 10
55.85160550683861
 20
259.9824436566314
 30
0.0
 11
55.85160550683861
 21
185.7824436566313
 31
0.0
  0
INSERT
  5
861
330
20
100
AcDbEntity
  8
0
100
AcDbBlockReference
  2
SUG-AR01
 10
55.85160550683861
 20
259.9824436566314
 30
0.0
 41
0.5
 42
0.5
 43
0.5
 50
270.0
  0
INSERT
  5
862
330
20
100
AcDbEntity
  8
0
100
AcDbBlockReference
  2
SUG-AR01
 10
55.85160550683861
 20
185.7824436566313
 30
0.0
 41
0.5
 42
0.5
 43
0.5
 50
90.0
  0
TEXT
  5
863
330
20
100
AcDbEntity
  8
0
100
AcDbText
 10
54.95160550683852
 20
218.3110150852028
 30
0.0
 40
3.0
  1
74.2
 50
90.0
  7
SIMPLEX
 72
     1
 11
54.95160550683852
 21
222.8824436566314
 31
0.0
100
AcDbText
  0
TEXT
  5
864
330
20
100
AcDbEntity
  8
0
100
AcDbText
 10
15.71041267049196
 20
242.907243276342
 30
0.0
 40
3.0
  1
(ætÂú t0.8`t1.0)
 41
0.9
  7
SIMPLEX
100
AcDbText
  0
LINE
  5
865
330
20
100
AcDbEntity
  8
0
100
AcDbLine
 10
59.42965761794607
 20
170.5454938422329
 30
0.0
 11
52.75487595864252
 21
170.2117547592677
 31
0.0
  0
LINE
  5
866
330
20
100
AcDbEntity
  8
0
100
AcDbLine
 10
63.13185242456689
 20
171.9704692876961
 30
0.0
 11
59.42965761794607
 21
170.5454938422329
 31
0.0
  0
ARC
  5
867
330
20
100
AcDbEntity
  8
0
100
AcDbCircle
 10
63.49106302862036
 20
171.0372127624388
 30
0.0
 40
1.0
100
AcDbArc
 50
30.00000000000018
 51
111.051724435373
  0
LINE
  5
868
330
20
100
AcDbEntity
  8
0
100
AcDbLine
 10
64.92965761794607
 20
170.5454938422329
 30
0.0
 11
64.50779873449846
 21
170.4302425387335
 31
0.0
  0
LINE
  5
869
330
20
100
AcDbEntity
  8
0
100
AcDbLine
 10
64.92965761794607
 20
170.5454938422329
 30
0.0
 11
64.35708843240489
 21
171.5372127624388
 31
0.0
  0
LINE
  5
86A
330
20
100
AcDbEntity
  8
0
100
AcDbLine
 10
64.92965761794607
 20
170.5454938422329
 30
0.0
 11
65.42965761794608
 21
170.5454938422329
 31
0.0
  0
LINE
  5
86B
330
20
100
AcDbEntity
  8
0
100
AcDbLine
 10
61.42965761794631
 20
169.3907933038537
 30
0.0
 11
58.98967436164435
 21
167.9820683140097
 31
0.0
  0
LINE
  5
86C
330
20
100
AcDbEntity
  8
0
100
AcDbLine
 10
61.42965761794631
 20
169.589298351098
 30
0.0
 11
59.43287934376781
 21
169.0437810989364
 31
0.0
  0
LINE
  5
86D
330
20
100
AcDbEntity
  8
0
100
AcDbLine
 10
59.43287934376781
 20
169.0437810989364
 30
0.0
 11
52.37972000100217
 21
168.6911231317982
 31
0.0
  0
ARC
  5
86E
330
20
100
AcDbEntity
  8
0
100
AcDbCircle
 10
52.42965761794607
 20
167.6923707929203
 30
0.0
 40
1.0
100
AcDbArc
 50
92.86240522611171
 51
166.2390369519632
  0
ARC
  5
86F
330
20
100
AcDbEntity
  8
0
100
AcDbCircle
 10
52.92965761794608
 20
166.7161215731951
 30
0.0
 40
3.5
100
AcDbArc
 50
92.86240522611171
 51
159.7026847139053
  0
TEXT
  5
870
330
20
100
AcDbEntity
  8
0
100
AcDbText
 10
46.77303407826697
 20
199.8324436566315
 30
0.0
 40
2.1
  1
}0.05
  7
SIMPLEX
100
AcDbText
  0
TEXT
  5
871
330
20
100
AcDbEntity
  8
0
100
AcDbText
 10
54.50160550683851
 20
228.95387222806
 30
0.0
 40
2.1
  1
}0.05
 50
90.0
  7
SIMPLEX
100
AcDbText
  0
INSERT
  5
872
330
20
100
AcDbEntity
  8
4
100
AcDbBlockReference
  2
SUG-AR06
 10
1202.992130489519
 20
268.3393617437594
 30
0.0
  0
INSERT
  5
873
330
20
100
AcDbEntity
  8
4
100
AcDbBlockReference
  2
SUG-AR06
 10
1202.992130489519
 20
268.3393617437594
 30
0.0
  0
TEXT
  5
948
330
20
100
AcDbEntity
  8
0
100
AcDbText
 10
286.1999999999998
 20
11.70000000000004
 30
0.0
 40
4.0
  1
bJ[ù
  7
SIMPLEX
100
AcDbText
  0
TEXT
  5
949
330
20
100
AcDbEntity
  8
0
100
AcDbText
 10
286.1999999999998
 20
1.711936938895021
 30
0.0
 40
3.0
  1
DE01D-03i*j
  7
SIMPLEX
100
AcDbText
  0
TEXT
  5
94A
330
20
100
AcDbEntity
  8
0
100
AcDbText
 10
286.1999999999998
 20
5.849451575088087
 30
0.0
 40
3.0
  1
DE01D-23i*j
  7
SIMPLEX
100
AcDbText
  0
TEXT
  5
94B
330
20
100
AcDbEntity
  8
0
100
AcDbText
 10
318.4855389270248
 20
1.95700586599373
 30
0.0
 40
2.5
  1
AC{F
 41
0.7
  7
SIMPLEX
100
AcDbText
  0
TEXT
  5
94C
330
20
100
AcDbEntity
  8
0
100
AcDbText
 10
318.4855389270248
 20
6.094520502186795
 30
0.0
 40
2.5
  1
F
 41
0.7
  7
SIMPLEX
100
AcDbText
  0
ENDSEC
  0
SECTION
  2
OBJECTS
  0
DICTIONARY
  5
C
330
0
100
AcDbDictionary
281
     1
  3
ACAD_COLOR
350
1B
  3
ACAD_GROUP
350
D
  3
ACAD_LAYOUT
350
19
  3
ACAD_MATERIAL
350
1A
  3
ACAD_MLINESTYLE
350
16
  3
ACAD_PLOTSETTINGS
350
18
  3
ACAD_PLOTSTYLENAME
350
E
  3
ACDBHEADERROUNDTRIPXREC
350
A40
  3
AcDbVariableDictionary
350
A2D
  0
DICTIONARY
  5
9AA
330
2
100
AcDbDictionary
280
     1
281
     1
  3
ACAD_LAYERSTATES
360
9AB
  0
DICTIONARY
  5
1B
102
{ACAD_REACTORS
330
C
102
}
330
C
100
AcDbDictionary
281
     1
  0
DICTIONARY
  5
D
102
{ACAD_REACTORS
330
C
102
}
330
C
100
AcDbDictionary
281
     1
  0
DICTIONARY
  5
19
102
{ACAD_REACTORS
330
C
102
}
330
C
100
AcDbDictionary
281
     1
  3
Model
350
23
  3
CAEg1
350
1F
  0
DICTIONARY
  5
1A
102
{ACAD_REACTORS
330
C
102
}
330
C
100
AcDbDictionary
281
     1
  0
DICTIONARY
  5
16
102
{ACAD_REACTORS
330
C
102
}
330
C
100
AcDbDictionary
281
     1
  3
Standard
350
17
  0
DICTIONARY
  5
18
102
{ACAD_REACTORS
330
C
102
}
330
C
100
AcDbDictionary
281
     1
  0
ACDBDICTIONARYWDFLT
  5
E
102
{ACAD_REACTORS
330
C
102
}
330
C
100
AcDbDictionary
281
     1
  3
Normal
350
F
100
AcDbDictionaryWithDefault
340
F
  0
DICTIONARY
  5
A40
102
{ACAD_REACTORS
330
C
102
}
330
C
100
AcDbDictionary
281
     1
  3
COLORDICT
350
A42
  3
MATERIALDICT
350
A41
  0
DICTIONARY
  5
A2D
102
{ACAD_REACTORS
330
C
102
}
330
C
100
AcDbDictionary
281
     1
  3
DIMASSOC
350
A2F
  3
HIDETEXT
350
A2E
  3
PROJECTNAME
350
A30
  0
DICTIONARY
  5
9AB
102
{ACAD_REACTORS
330
9AA
102
}
330
9AA
100
AcDbDictionary
281
     1
  0
LAYOUT
  5
23
102
{ACAD_XDICTIONARY
360
A45
102
}
102
{ACAD_REACTORS
330
19
102
}
330
19
100
AcDbPlotSettings
  1

  2
Adobe PDF
  4
A4
  6
VIEW1
 40
3.174999952316283
 41
3.174999952316283
 42
3.175003051757812
 43
3.17498779296875
 44
209.9098358154297
 45
297.0318298339844
 46
0.0
 47
0.0
 48
0.1607190062543395
 49
0.0780810547348665
140
384.425074222768
141
270.3707697507682
142
1.0
143
1.327829193819985
 70
 11952
 72
     1
 73
     1
 74
     4
  7

 75
     0
147
0.7531089123919132
148
-0.1607190062543395
149
-0.0780810547348665
100
AcDbLayout
  1
Model
 70
     1
 71
     0
 10
0.0
 20
0.0
 11
12.0
 21
9.0
 12
0.0
 22
0.0
 32
0.0
 14
0.0
 24
0.0
 34
0.0
 15
0.0
 25
0.0
 35
0.0
146
0.0
 13
0.0
 23
0.0
 33
0.0
 16
1.0
 26
0.0
 36
0.0
 17
0.0
 27
1.0
 37
0.0
 76
     0
330
20
  0
LAYOUT
  5
1F
102
{ACAD_XDICTIONARY
360
A43
102
}
102
{ACAD_REACTORS
330
19
102
}
330
19
100
AcDbPlotSettings
  1

  2
\\OPNUS-FILE\Canon LBP-720
  4

  6

 40
0.0
 41
0.0
 42
0.0
 43
0.0
 44
0.0
 45
0.0
 46
0.0
 47
0.0
 48
0.0
 49
0.0
140
0.0
141
0.0
142
1.0
143
1.0
 70
   688
 72
     0
 73
     0
 74
     5
  7

 75
    16
147
1.0
148
0.0
149
0.0
100
AcDbLayout
  1
CAEg1
 70
     0
 71
     1
 10
0.0
 20
0.0
 11
12.0
 21
9.0
 12
0.0
 22
0.0
 32
0.0
 14
1.000000000000000E+20
 24
1.000000000000000E+20
 34
1.000000000000000E+20
 15
-1.000000000000000E+20
 25
-1.000000000000000E+20
 35
-1.000000000000000E+20
146
0.0
 13
0.0
 23
0.0
 33
0.0
 16
1.0
 26
0.0
 36
0.0
 17
0.0
 27
1.0
 37
0.0
 76
     0
330
1C
  0
MLINESTYLE
  5
17
102
{ACAD_REACTORS
330
16
102
}
330
16
100
AcDbMlineStyle
  2
STANDARD
 70
     0
  3

 62
   256
 51
90.0
 52
90.0
 71
     2
 49
0.5
 62
   256
  6
BYLAYER
 49
-0.5
 62
   256
  6
BYLAYER
  0
ACDBPLACEHOLDER
  5
F
102
{ACAD_REACTORS
330
E
102
}
330
E
  0
XRECORD
  5
A42
102
{ACAD_REACTORS
330
A40
102
}
330
A40
100
AcDbXrecord
280
     1
340
1B
  0
XRECORD
  5
A41
102
{ACAD_REACTORS
330
A40
102
}
330
A40
100
AcDbXrecord
280
     1
340
1A
  0
DICTIONARYVAR
  5
A2F
102
{ACAD_REACTORS
330
A2D
102
}
330
A2D
100
DictionaryVariables
280
     0
  1
2
  0
DICTIONARYVAR
  5
A2E
102
{ACAD_REACTORS
330
A2D
102
}
330
A2D
100
DictionaryVariables
280
     0
  1
1
  0
DICTIONARYVAR
  5
A30
102
{ACAD_REACTORS
330
A2D
102
}
330
A2D
100
DictionaryVariables
280
     0
  1

  0
DICTIONARY
  5
A45
330
23
100
AcDbDictionary
280
     1
281
     1
  3
ACAD_XREC_ROUNDTRIP
360
A46
  0
DICTIONARY
  5
A43
330
1F
100
AcDbDictionary
280
     1
281
     1
  3
ACAD_XREC_ROUNDTRIP
360
A44
  0
XRECORD
  5
A46
102
{ACAD_REACTORS
330
A45
102
}
330
A45
100
AcDbXrecord
280
     1
102
SHADEPLOT
 70
     0
102
SHADEPLOTRESLEVEL
 70
     2
102
SHADEPLOTCUSTOMDPI
 70
   300
  0
XRECORD
  5
A44
102
{ACAD_REACTORS
330
A43
102
}
330
A43
100
AcDbXrecord
280
     1
102
SHADEPLOT
 70
     0
102
SHADEPLOTRESLEVEL
 70
     2
102
SHADEPLOTCUSTOMDPI
 70
   300
  0
ENDSEC
  0
EOF
