  0
SECTION
  2
HEADER
  9
$ACADVER
  1
AC1009
  9
$DWGCODEPAGE
  3
ansi_932
  9
$INSBASE
 10
0.0
 20
0.0
 30
0.0
  9
$EXTMIN
 10
-25.34325423342352
 20
-16.41579952469703
 30
-0.000000000000013
  9
$EXTMAX
 10
586.6011220255377
 20
410.3583440241892
 30
0.0000000000000023
  9
$LIMMIN
 10
0.0
 20
0.0
  9
$LIMMAX
 10
285.0
 20
198.0
  9
$ORTHOMODE
 70
     0
  9
$REGENMODE
 70
     1
  9
$FILLMODE
 70
     1
  9
$QTEXTMODE
 70
     0
  9
$MIRRTEXT
 70
     0
  9
$DRAGMODE
 70
     2
  9
$LTSCALE
 40
0.7
  9
$OSMODE
 70
   511
  9
$ATTMODE
 70
     1
  9
$TEXTSIZE
 40
1.5
  9
$TRACEWID
 40
0.05
  9
$TEXTSTYLE
  7
OPNUS
  9
$CLAYER
  8
4
  9
$CELTYPE
  6
BYLAYER
  9
$CECOLOR
 62
   256
  9
$DIMSCALE
 40
1.0
  9
$DIMASZ
 40
3.0
  9
$DIMEXO
 40
1.0
  9
$DIMDLI
 40
6.0
  9
$DIMRND
 40
0.0
  9
$DIMDLE
 40
0.0
  9
$DIMEXE
 40
1.0
  9
$DIMTP
 40
0.0
  9
$DIMTM
 40
0.0
  9
$DIMTXT
 40
3.0
  9
$DIMCEN
 40
0.0
  9
$DIMTSZ
 40
0.0
  9
$DIMTOL
 70
     0
  9
$DIMLIM
 70
     0
  9
$DIMTIH
 70
     0
  9
$DIMTOH
 70
     0
  9
$DIMSE1
 70
     0
  9
$DIMSE2
 70
     0
  9
$DIMTAD
 70
     1
  9
$DIMZIN
 70
     8
  9
$DIMBLK
  1

  9
$DIMASO
 70
     1
  9
$DIMSHO
 70
     1
  9
$DIMPOST
  1

  9
$DIMAPOST
  1

  9
$DIMALT
 70
     0
  9
$DIMALTD
 70
     2
  9
$DIMALTF
 40
25.4
  9
$DIMLFAC
 40
1.0
  9
$DIMTOFL
 70
     1
  9
$DIMTVP
 40
0.0
  9
$DIMTIX
 70
     0
  9
$DIMSOXD
 70
     0
  9
$DIMSAH
 70
     0
  9
$DIMBLK1
  1

  9
$DIMBLK2
  1

  9
$DIMSTYLE
  2
OPNUS
  9
$DIMCLRD
 70
     6
  9
$DIMCLRE
 70
     6
  9
$DIMCLRT
 70
     2
  9
$DIMTFAC
 40
1.0
  9
$DIMGAP
 40
0.5
  9
$LUNITS
 70
     2
  9
$LUPREC
 70
     3
  9
$SKETCHINC
 40
0.1
  9
$FILLETRAD
 40
0.0
  9
$AUNITS
 70
     0
  9
$AUPREC
 70
     2
  9
$MENU
  1
.
  9
$ELEVATION
 40
0.0
  9
$PELEVATION
 40
0.0
  9
$THICKNESS
 40
0.0
  9
$LIMCHECK
 70
     0
  9
$CHAMFERA
 40
0.0
  9
$CHAMFERB
 40
0.0
  9
$SKPOLY
 70
     0
  9
$TDCREATE
 40
2453287.561714201
  9
$TDUPDATE
 40
2456876.61120993
  9
$TDINDWG
 40
0.1667224884
  9
$TDUSRTIMER
 40
2456876.23567316
  9
$USRTIMER
 70
     1
  9
$ANGBASE
 50
0.0
  9
$ANGDIR
 70
     0
  9
$PDMODE
 70
     0
  9
$PDSIZE
 40
0.0
  9
$PLINEWID
 40
0.0
  9
$COORDS
 70
     1
  9
$SPLFRAME
 70
     0
  9
$SPLINETYPE
 70
     6
  9
$SPLINESEGS
 70
     8
  9
$ATTDIA
 70
     0
  9
$ATTREQ
 70
     1
  9
$HANDLING
 70
     1
  9
$HANDSEED
  5
93F
  9
$SURFTAB1
 70
     6
  9
$SURFTAB2
 70
     6
  9
$SURFTYPE
 70
     6
  9
$SURFU
 70
     6
  9
$SURFV
 70
     6
  9
$UCSNAME
  2

  9
$UCSORG
 10
0.0
 20
0.0
 30
0.0
  9
$UCSXDIR
 10
1.0
 20
0.0
 30
0.0
  9
$UCSYDIR
 10
0.0
 20
1.0
 30
0.0
  9
$PUCSNAME
  2

  9
$PUCSORG
 10
0.0
 20
0.0
 30
0.0
  9
$PUCSXDIR
 10
1.0
 20
0.0
 30
0.0
  9
$PUCSYDIR
 10
0.0
 20
1.0
 30
0.0
  9
$USERI1
 70
     1
  9
$USERI2
 70
     6
  9
$USERI3
 70
     0
  9
$USERI4
 70
     0
  9
$USERI5
 70
     0
  9
$USERR1
 40
2.0
  9
$USERR2
 40
1.5
  9
$USERR3
 40
0.0
  9
$USERR4
 40
5.0
  9
$USERR5
 40
1.0
  9
$WORLDVIEW
 70
     1
  9
$SHADEDGE
 70
     3
  9
$SHADEDIF
 70
    70
  9
$TILEMODE
 70
     1
  9
$MAXACTVP
 70
    64
  9
$PLIMCHECK
 70
     0
  9
$PEXTMIN
 10
0.0
 20
0.0
 30
0.0
  9
$PEXTMAX
 10
0.0
 20
0.0
 30
0.0
  9
$PLIMMIN
 10
0.0
 20
0.0
  9
$PLIMMAX
 10
0.0
 20
0.0
  9
$UNITMODE
 70
     0
  9
$VISRETAIN
 70
     1
  9
$PLINEGEN
 70
     0
  9
$PSLTSCALE
 70
     1
  0
ENDSEC
  0
SECTION
  2
TABLES
  0
TABLE
  2
VPORT
 70
     1
  0
VPORT
  2
*ACTIVE
 70
     0
 10
0.0
 20
0.0
 11
1.0
 21
1.0
 12
375.6711345961446
 22
197.116033882035
 13
0.0
 23
0.0
 14
3.0
 24
3.0
 15
0.5
 25
0.5
 16
0.0
 26
0.0
 36
1.0
 17
0.0
 27
0.0
 37
0.0
 40
429.9550688424178
 41
2.183835182250396
 42
50.0
 43
0.0
 44
0.0
 50
0.0
 51
0.0
 71
    16
 72
  1000
 73
     1
 74
     3
 75
     0
 76
     0
 77
     0
 78
     0
  0
ENDTAB
  0
TABLE
  2
LTYPE
 70
     3
  0
LTYPE
  2
CONTINUOUS
 70
     0
  3
Solid line
 72
    65
 73
     0
 40
0.0
  0
LTYPE
  2
CENTER2
 70
     0
  3
Center (.5x) ___ _ ___ _ ___ _ ___ _ ___ _ ___
 72
    65
 73
     4
 40
28.575
 49
19.05
 49
-3.174999999999999
 49
3.174999999999999
 49
-3.174999999999999
  0
LTYPE
  2
実線
 70
     0
  3
実線
 72
    65
 73
     0
 40
0.0
  0
ENDTAB
  0
TABLE
  2
LAYER
 70
    13
  0
LAYER
  2
0
 70
     0
 62
     7
  6
CONTINUOUS
  0
LAYER
  2
1
 70
     0
 62
     1
  6
CONTINUOUS
  0
LAYER
  2
2
 70
     0
 62
     2
  6
CONTINUOUS
  0
LAYER
  2
3
 70
     0
 62
     3
  6
CONTINUOUS
  0
LAYER
  2
4
 70
     0
 62
     4
  6
CONTINUOUS
  0
LAYER
  2
5
 70
     0
 62
     5
  6
CONTINUOUS
  0
LAYER
  2
6
 70
     0
 62
     6
  6
CONTINUOUS
  0
LAYER
  2
7
 70
     0
 62
     7
  6
CONTINUOUS
  0
LAYER
  2
S
 70
     0
 62
     6
  6
CONTINUOUS
  0
LAYER
  2
T
 70
     0
 62
     5
  6
CENTER2
  0
LAYER
  2
W
 70
     0
 62
     7
  6
CONTINUOUS
  0
LAYER
  2
DEFPOINTS
 70
     0
 62
     7
  6
CONTINUOUS
  0
LAYER
  2
FRAME
 70
     0
 62
     7
  6
CONTINUOUS
  0
ENDTAB
  0
TABLE
  2
STYLE
 70
     7
  0
STYLE
  2
STANDARD
 70
     0
 40
0.0
 41
1.0
 50
0.0
 71
     0
 42
0.2
  3
MS Mincho.ttf
  4

  0
STYLE
  2
OPNUS
 70
     0
 40
0.0
 41
1.0
 50
0.0
 71
     0
 42
1.5
  3
MS PGothic.ttf
  4

  0
STYLE
  2
DIMENSION
 70
     0
 40
3.0
 41
1.0
 50
0.0
 71
     0
 42
3.0
  3
MS PGothic.ttf
  4

  0
STYLE
  2
SIMPLEX
 70
     0
 40
0.0
 41
1.0
 50
0.0
 71
     0
 42
3.0
  3
T:SIMPLEX
  4
T:SUG-BIG1
  0
STYLE
  2
ITALIC
 70
     0
 40
0.0
 41
1.0
 50
0.0
 71
     0
 42
0.2
  3
T:ITALIC
  4
T:SUG-BIG1
  0
STYLE
  2
SIMPLEX-T
 70
     4
 40
0.0
 41
1.0
 50
0.0
 71
     0
 42
0.2
  3
T:TXT
  4
T:SUG-BIG1
  0
STYLE
  2
TATEGAKI
 70
     4
 40
0.0
 41
1.0
 50
0.0
 71
     0
 42
3.0
  3
Z:SUG-TAT2
  4
Z:SUG-TAT1
  0
ENDTAB
  0
TABLE
  2
VIEW
 70
     0
  0
ENDTAB
  0
TABLE
  2
UCS
 70
     0
  0
ENDTAB
  0
TABLE
  2
APPID
 70
     1
  0
APPID
  2
ACAD
 70
     0
  0
ENDTAB
  0
TABLE
  2
DIMSTYLE
 70
     3
  0
DIMSTYLE
  2
STANDARD
 70
     0
  3

  4

  5

  6

  7

 40
1.0
 41
0.18
 42
0.0625
 43
0.38
 44
0.18
 45
0.0
 46
0.0
 47
0.0
 48
0.0
140
0.18
141
0.09
142
0.0
143
25.4
144
1.0
145
0.0
146
1.0
147
0.09
 71
     0
 72
     0
 73
     1
 74
     1
 75
     0
 76
     0
 77
     0
 78
     0
170
     0
171
     2
172
     0
173
     0
174
     0
175
     0
176
     0
177
     0
178
     0
  0
DIMSTYLE
  2
OPNUS
 70
     0
  3

  4

  5

  6

  7

 40
1.0
 41
3.0
 42
1.0
 43
6.0
 44
1.0
 45
0.0
 46
0.0
 47
0.0
 48
0.0
140
3.0
141
0.0
142
0.0
143
25.4
144
1.0
145
0.0
146
1.0
147
0.5
 71
     0
 72
     0
 73
     0
 74
     0
 75
     0
 76
     0
 77
     1
 78
     8
170
     0
171
     2
172
     1
173
     0
174
     0
175
     0
176
     6
177
     6
178
     2
  0
DIMSTYLE
  2
ＭＳ_Ｐ_ゴシック
 70
     0
  3

  4

  5

  6

  7

 40
1.0
 41
3.0
 42
1.0
 43
6.0
 44
1.0
 45
0.0
 46
0.0
 47
0.0
 48
0.0
140
3.0
141
0.0
142
0.0
143
25.4
144
1.0
145
0.0
146
1.0
147
0.5
 71
     0
 72
     0
 73
     0
 74
     0
 75
     0
 76
     0
 77
     1
 78
     8
170
     0
171
     2
172
     1
173
     0
174
     0
175
     0
176
     6
177
     6
178
     2
  0
ENDTAB
  0
ENDSEC
  0
SECTION
  2
BLOCKS
  0
BLOCK
  8
0
  2
$MODEL_SPACE
 70
     0
 10
0.0
 20
0.0
 30
0.0
  3
$MODEL_SPACE
  1

  0
ENDBLK
  5
21
  8
0
  0
BLOCK
 67
     1
  8
0
  2
$PAPER_SPACE
 70
     0
 10
0.0
 20
0.0
 30
0.0
  3
$PAPER_SPACE
  1

  0
ENDBLK
  5
5B
 67
     1
  8
0
  0
BLOCK
  8
0
  2
SUG-AR01
 70
     0
 10
0.0
 20
0.0
 30
0.0
  3
SUG-AR01
  1

  0
LINE
  5
228
  8
0
 10
0.0
 20
0.0
 30
0.0
 11
5.0
 21
1.339745962155659
 31
0.0
  0
LINE
  5
229
  8
0
 10
5.0
 20
-1.339745962155659
 30
0.0
 11
5.0
 21
1.339745962155659
 31
0.0
  0
LINE
  5
22A
  8
0
 10
0.0
 20
0.0
 30
0.0
 11
5.0
 21
-1.339745962155659
 31
0.0
  0
ENDBLK
  5
22B
  8
0
  0
BLOCK
  8
0
  2
*D1
 70
     1
 10
0.0
 20
0.0
 30
0.0
  3
*D1
  1

  0
LINE
  5
67D
  8
4
 62
     6
 10
293.4999999999982
 20
254.9490516304279
 30
0.0
 11
293.4999999999982
 21
280.0
 31
0.0
  0
LINE
  5
67E
  8
4
 62
     6
 10
430.1999999999979
 20
254.9490516304279
 30
0.0
 11
430.1999999999979
 21
280.0
 31
0.0
  0
LINE
  5
67F
  8
4
 62
     6
 10
296.4999999999982
 20
279.0
 30
0.0
 11
427.1999999999979
 21
279.0
 31
0.0
  0
SOLID
  5
680
  8
4
 62
     6
 10
296.4999999999982
 20
279.5
 30
0.0
 11
296.4999999999982
 21
278.5
 31
0.0
 12
293.4999999999982
 22
279.0
 32
0.0
 13
293.4999999999982
 23
279.0
 33
0.0
  0
SOLID
  5
681
  8
4
 62
     6
 10
427.1999999999979
 20
279.5
 30
0.0
 11
427.1999999999979
 21
278.5
 31
0.0
 12
430.1999999999979
 22
279.0
 32
0.0
 13
430.1999999999979
 23
279.0
 33
0.0
  0
INSERT
  5
682
  8
4
 62
     2
  2
*X5
 10
0.0
 20
0.0
 30
0.0
  0
POINT
  5
683
  8
DEFPOINTS
 62
     0
 10
293.4999999999982
 20
253.9490516304279
 30
0.0
  0
POINT
  5
684
  8
DEFPOINTS
 62
     0
 10
430.1999999999979
 20
253.9490516304279
 30
0.0
  0
POINT
  5
685
  8
DEFPOINTS
 62
     0
 10
430.1999999999979
 20
279.0
 30
0.0
  0
ENDBLK
  5
60F
  8
0
  0
BLOCK
  8
0
  2
*D2
 70
     1
 10
0.0
 20
0.0
 30
0.0
  3
*D2
  1

  0
LINE
  5
686
  8
4
 62
     6
 10
289.9999999999982
 20
251.4490516304281
 30
0.0
 11
278.0
 21
251.4490516304281
 31
0.0
  0
LINE
  5
687
  8
4
 62
     6
 10
289.9999999999982
 20
226.4490516304284
 30
0.0
 11
278.0
 21
226.4490516304284
 31
0.0
  0
LINE
  5
688
  8
4
 62
     6
 10
279.0
 20
248.4490516304281
 30
0.0
 11
279.0
 21
229.4490516304284
 31
0.0
  0
SOLID
  5
689
  8
4
 62
     6
 10
278.5
 20
248.4490516304281
 30
0.0
 11
279.5
 21
248.4490516304281
 31
0.0
 12
279.0
 22
251.4490516304281
 32
0.0
 13
279.0
 23
251.4490516304281
 33
0.0
  0
SOLID
  5
68A
  8
4
 62
     6
 10
278.5
 20
229.4490516304284
 30
0.0
 11
279.5
 21
229.4490516304284
 31
0.0
 12
279.0
 22
226.4490516304284
 32
0.0
 13
279.0
 23
226.4490516304284
 33
0.0
  0
INSERT
  5
68B
  8
4
 62
     2
  2
*X6
 10
0.0
 20
0.0
 30
0.0
  0
POINT
  5
68C
  8
DEFPOINTS
 62
     0
 10
290.9999999999982
 20
251.4490516304281
 30
0.0
  0
POINT
  5
68D
  8
DEFPOINTS
 62
     0
 10
290.9999999999982
 20
226.4490516304284
 30
0.0
  0
POINT
  5
68E
  8
DEFPOINTS
 62
     0
 10
279.0
 20
226.4490516304284
 30
0.0
  0
ENDBLK
  5
627
  8
0
  0
BLOCK
  8
0
  2
REV
 70
     2
 10
0.0
 20
0.0
 30
0.0
  3
REV
  1

  0
POLYLINE
  5
653
  8
0
 66
     1
 10
0.0
 20
0.0
 30
0.0
 70
     1
  0
VERTEX
  5
93A
  8
0
 10
-1.5
 20
-1.299038105676658
 30
0.0
  0
VERTEX
  5
93B
  8
0
 10
1.5
 20
-1.299038105676658
 30
0.0
  0
VERTEX
  5
93C
  8
0
 10
0.0
 20
1.299038105676658
 30
0.0
  0
SEQEND
  5
93E
  8
0
  0
ATTDEF
  5
654
  8
0
 10
-0.3658658653462034
 20
-0.9330127023694388
 30
0.0
 40
1.0
  1
1
 72
     1
 11
0.0000000005196625
 21
-0.4330127023694388
 31
0.0
 73
     2
  3
修正番号
  2
REVNO
 70
     0
 74
     2
  0
ENDBLK
  5
656
  8
0
  0
BLOCK
  8
0
  2
VB
 70
     0
 10
0.0
 20
0.0
 30
0.0
  3
VB
  1

  0
LINE
  5
80A
  8
W
 10
-7.0
 20
-30.0
 30
0.0
 11
-7.0
 21
-5.0
 31
0.0
  0
LINE
  5
80B
  8
W
 62
     2
 10
-10.0
 20
-5.0
 30
0.0
 11
0.0
 21
-5.0
 31
0.0
  0
LINE
  5
80C
  8
W
 10
-10.0
 20
-15.0
 30
0.0
 11
0.0
 21
-15.0
 31
0.0
  0
LINE
  5
80D
  8
W
 10
-10.0
 20
-20.0
 30
0.0
 11
0.0
 21
-20.0
 31
0.0
  0
LINE
  5
80E
  8
W
 10
-10.0
 20
-25.0
 30
0.0
 11
0.0
 21
-25.0
 31
0.0
  0
LINE
  5
80F
  8
W
 62
     2
 10
-10.0
 20
-30.0
 30
0.0
 11
0.0
 21
-30.0
 31
0.0
  0
LINE
  5
810
  8
W
 62
     2
 10
-10.0
 20
0.0
 30
0.0
 11
-10.0
 21
-30.0
 31
0.0
  0
TEXT
  5
811
  8
W
 62
     6
 10
-9.21685560781924
 20
-4.302229471652083
 30
0.0
 40
3.0
  1
配布先
 41
0.7
  7
OPNUS
  0
TEXT
  5
812
  8
W
 62
     6
 10
-9.5905
 20
-9.042
 30
0.0
 40
3.0
  1
1
  7
OPNUS
 72
     4
 11
-8.5
 21
-7.5
 31
0.0
  0
TEXT
  5
813
  8
W
 62
     6
 10
-9.5905
 20
-14.042
 30
0.0
 40
3.0
  1
1
  7
OPNUS
 72
     4
 11
-8.5
 21
-12.5
 31
0.0
  0
TEXT
  5
814
  8
W
 62
     6
 10
-6.5534
 20
-9.009355498649352
 30
0.0
 40
3.0
  1
営管
 41
0.7
  7
OPNUS
 72
     4
 11
-3.5
 21
-7.434355498649352
 31
0.0
  0
TEXT
  5
815
  8
W
 62
     6
 10
-9.645839728369149
 20
-19.00499432275703
 30
0.0
 40
3.0
  1
1
  7
OPNUS
 72
     4
 11
-8.555339728369148
 21
-17.46299432275703
 31
0.0
  0
LINE
  5
816
  8
W
 10
-10.0
 20
-10.0
 30
0.0
 11
0.0
 21
-10.0
 31
0.0
  0
TEXT
  5
817
  8
W
 62
     6
 10
-6.2855
 20
-18.94185549864935
 30
0.0
 40
3.0
  1
NB
  7
OPNUS
 72
     4
 11
-3.5
 21
-17.43435549864935
 31
0.0
  0
TEXT
  5
818
  8
W
 62
     6
 10
-6.0905
 20
-23.94185549864935
 30
0.0
 40
3.0
  1
FB
  7
OPNUS
 72
     4
 11
-3.5
 21
-22.43435549864935
 31
0.0
  0
TEXT
  5
819
  8
W
 62
     6
 10
-6.65051292453586
 20
-29.0160216549059
 30
0.0
 40
3.0
  1
合計
 41
0.7
  7
OPNUS
  0
LINE
  5
81A
  8
W
 10
-7.0
 20
-30.0
 30
0.0
 11
-7.0
 21
-20.0
 31
0.0
  0
TEXT
  5
81B
  8
W
 62
     6
 10
-9.5905
 20
-29.0255
 30
0.0
 40
3.0
  1
4
  7
OPNUS
 72
     4
 11
-8.5
 21
-27.5
 31
0.0
  0
TEXT
  5
81C
  8
W
 62
     6
 10
-9.645839728369149
 20
-24.00499432275703
 30
0.0
 40
3.0
  1
1
  7
OPNUS
 72
     4
 11
-8.555339728369148
 21
-22.46299432275703
 31
0.0
  0
TEXT
  5
81D
  8
W
 62
     6
 10
-6.2015
 20
-13.94335549864935
 30
0.0
 40
3.0
  1
SB
  7
OPNUS
 72
     4
 11
-3.5
 21
-12.43435549864935
 31
0.0
  0
ENDBLK
  5
81F
  8
0
  0
BLOCK
  8
0
  2
*X5
 70
     1
 10
0.0
 20
0.0
 30
0.0
  3
*X5
  1

  0
TEXT
  5
89A
  8
4
  6
CONTINUOUS
 62
     2
 10
353.6869999999981
 20
279.4925
 30
0.0
 40
3.0
  1
136.5
  7
DIMENSION
  0
TEXT
  5
89B
  8
4
  6
CONTINUOUS
 62
     2
 10
363.2959999999981
 20
279.4925
 30
0.0
 40
2.0
  1
±0.2
  7
DIMENSION
  0
ENDBLK
  5
8A3
  8
0
  0
BLOCK
  8
0
  2
*X6
 70
     1
 10
0.0
 20
0.0
 30
0.0
  3
*X6
  1

  0
TEXT
  5
89D
  8
4
  6
CONTINUOUS
 62
     2
 10
278.5
 20
232.8010516304283
 30
0.0
 40
3.0
  1
25
 50
90.0
  7
DIMENSION
  0
TEXT
  5
89E
  8
4
  6
CONTINUOUS
 62
     2
 10
278.5
 20
237.1630516304284
 30
0.0
 40
2.0
  1
±0.15
 50
90.0
  7
DIMENSION
  0
ENDBLK
  5
8A5
  8
0
  0
ENDSEC
  0
SECTION
  2
ENTITIES
  0
LINE
  5
23A
  8
S
 10
301.4815152140855
 20
295.5136455263194
 30
0.0
 11
315.947198345903
 21
309.0718857919132
 31
0.0
  0
INSERT
  5
23B
  8
S
  2
SUG-AR01
 10
301.4815152140855
 20
295.5136455263194
 30
0.0
 41
0.5000000000001235
 42
0.5
 43
0.5
 50
43.1453529854578
  0
TEXT
  5
23C
  8
S
 62
     2
 10
306.4981039151185
 20
301.4490567500557
 30
0.0
 40
3.0
  1
R4以下
 50
43.14535298548037
  7
SIMPLEX
 72
     2
 11
315.3317319724783
 21
309.7285448687434
 31
0.0
  0
TEXT
  5
23D
  8
S
 62
     2
 10
272.0999999999999
 20
312.2994980589997
 30
0.0
 40
3.0
  1
45.4
 50
90.0
  7
SIMPLEX
 72
     1
 11
272.0999999999999
 21
316.9490516304283
 31
0.0
  0
INSERT
  5
23E
  8
S
  2
SUG-AR01
 10
273.0
 20
294.2490516304284
 30
0.0
 41
0.5
 42
0.5
 43
0.5
 50
90.0
  0
INSERT
  5
23F
  8
S
  2
SUG-AR01
 10
273.0
 20
339.6490516304281
 30
0.0
 41
0.5
 42
0.5
 43
0.5
 50
270.0
  0
LINE
  5
240
  8
S
 10
273.0
 20
339.6490516304281
 30
0.0
 11
273.0
 21
294.2490516304284
 31
0.0
  0
LINE
  5
241
  8
S
 10
302.8999999999978
 20
294.2490516304284
 30
0.0
 11
272.0
 21
294.2490516304284
 31
0.0
  0
LINE
  5
242
  8
S
 10
302.8999999999974
 20
339.6490516304281
 30
0.0
 11
272.0
 21
339.6490516304281
 31
0.0
  0
TEXT
  5
243
  8
S
 62
     2
 10
356.2138392857119
 20
352.0
 30
0.0
 40
3.0
  1
122.9
  7
SIMPLEX
 72
     1
 11
361.8499999999976
 21
352.0
 31
0.0
  0
INSERT
  5
244
  8
S
  2
SUG-AR01
 10
423.2999999999979
 20
351.1
 30
0.0
 41
0.5
 42
0.5
 43
0.5
 50
180.0
  0
INSERT
  5
245
  8
S
  2
SUG-AR01
 10
300.3999999999974
 20
351.1
 30
0.0
 41
0.5
 42
0.5
 43
0.5
  0
LINE
  5
246
  8
S
 10
300.3999999999974
 20
351.1
 30
0.0
 11
423.2999999999979
 21
351.1
 31
0.0
  0
LINE
  5
247
  8
S
 10
423.2999999999979
 20
337.1490516304281
 30
0.0
 11
423.2999999999979
 21
352.1
 31
0.0
  0
LINE
  5
248
  8
S
 10
300.3999999999974
 20
337.1490516304281
 30
0.0
 11
300.3999999999974
 21
352.1
 31
0.0
  0
ARC
  5
249
  8
2
 10
419.2999999999992
 20
298.2490516304276
 30
0.0
 40
4.0
 50
270.0
 51
0.0
  0
ARC
  5
24A
  8
2
 10
419.2999999999979
 20
335.6490516304281
 30
0.0
 40
4.0
 50
0.0
 51
90.0
  0
ARC
  5
24B
  8
2
 10
304.3999999999974
 20
335.6490516304281
 30
0.0
 40
4.0
 50
90.0
 51
180.0
  0
ARC
  5
24C
  8
2
 10
304.3999999999978
 20
298.2490516304284
 30
0.0
 40
4.0
 50
180.0
 51
270.0
  0
TEXT
  5
253
  8
S
 10
363.0
 20
369.1
 30
0.0
 40
3.5
  1
扉厚18mm
  7
SIMPLEX
  0
TEXT
  5
254
  8
S
 10
88.39494690917716
 20
370.4771017599165
 30
0.0
 40
3.5
  1
板厚0.8～1.2mm（塗装厚、抜きだれ等含む）
  7
SIMPLEX
  0
TEXT
  5
259
  8
2
 10
207.0
 20
318.1
 30
0.0
 40
5.0
  1
%%UNW20**-***用
  7
SIMPLEX
  0
TEXT
  5
25A
  8
2
 10
339.0
 20
375.1
 30
0.0
 40
5.0
  1
%%U木製扉用取付穴 正面図
  7
SIMPLEX
  0
TEXT
  5
25B
  8
2
 10
84.0
 20
378.1
 30
0.0
 40
5.0
  1
%%U鋼製扉用取付穴 正面図
  7
SIMPLEX
  0
LINE
  5
26E
  8
W
 62
     6
 10
40.0
 20
387.1
 30
0.0
 11
40.0
 21
390.1
 31
0.0
  0
LINE
  5
26F
  8
W
 62
     6
 10
40.0
 20
387.1
 30
0.0
 11
40.0
 21
390.1
 31
0.0
  0
LINE
  5
270
  8
W
 62
     6
 10
80.0
 20
387.1
 30
0.0
 11
80.0
 21
390.1
 31
0.0
  0
LINE
  5
271
  8
W
 62
     6
 10
120.0
 20
387.1
 30
0.0
 11
120.0
 21
390.1
 31
0.0
  0
LINE
  5
272
  8
W
 62
     6
 10
160.0
 20
387.1
 30
0.0
 11
160.0
 21
390.1
 31
0.0
  0
LINE
  5
273
  8
W
 62
     6
 10
200.0
 20
387.1
 30
0.0
 11
200.0
 21
390.1
 31
0.0
  0
LINE
  5
274
  8
W
 62
     6
 10
240.0
 20
387.1
 30
0.0
 11
240.0
 21
390.1
 31
0.0
  0
LINE
  5
275
  8
W
 62
     6
 10
280.0
 20
387.1
 30
0.0
 11
280.0
 21
390.1
 31
0.0
  0
LINE
  5
276
  8
W
 62
     6
 10
320.0
 20
387.1
 30
0.0
 11
320.0
 21
390.1
 31
0.0
  0
LINE
  5
277
  8
W
 62
     6
 10
360.0
 20
387.1
 30
0.0
 11
360.0
 21
390.1
 31
0.0
  0
LINE
  5
278
  8
W
 62
     6
 10
400.0
 20
387.1
 30
0.0
 11
400.0
 21
390.1
 31
0.0
  0
LINE
  5
279
  8
W
 62
     6
 10
440.0
 20
387.1
 30
0.0
 11
440.0
 21
390.1
 31
0.0
  0
LINE
  5
27A
  8
W
 62
     6
 10
480.0
 20
387.1
 30
0.0
 11
480.0
 21
390.1
 31
0.0
  0
LINE
  5
27B
  8
W
 62
     6
 10
520.0
 20
387.1
 30
0.0
 11
520.0
 21
390.1
 31
0.0
  0
TEXT
  5
27C
  8
W
 62
     6
 10
20.0
 20
387.6000000000001
 30
0.0
 40
2.0
  1
1
  7
SIMPLEX
  0
TEXT
  5
27D
  8
W
 62
     6
 10
58.88591617688462
 20
387.6000000000001
 30
0.0
 40
2.0
  1
2
  7
SIMPLEX
  0
TEXT
  5
27E
  8
W
 62
     6
 10
99.36338067250563
 20
387.6000000000001
 30
0.0
 40
2.0
  1
3
  7
SIMPLEX
  0
TEXT
  5
27F
  8
W
 62
     6
 10
139.0456597442644
 20
387.6000000000001
 30
0.0
 40
2.0
  1
4
  7
SIMPLEX
  0
TEXT
  5
280
  8
W
 62
     6
 10
179.4546627110085
 20
387.6000000000001
 30
0.0
 40
2.0
  1
5
  7
SIMPLEX
  0
TEXT
  5
281
  8
W
 62
     6
 10
219.0456597442644
 20
387.6000000000001
 30
0.0
 40
2.0
  1
6
  7
SIMPLEX
  0
TEXT
  5
282
  8
W
 62
     6
 10
259.3183283887606
 20
387.6000000000001
 30
0.0
 40
2.0
  1
7
  7
SIMPLEX
  0
TEXT
  5
283
  8
W
 62
     6
 10
299.3633246024574
 20
387.6000000000001
 30
0.0
 40
2.0
  1
8
  7
SIMPLEX
  0
TEXT
  5
284
  8
W
 62
     6
 10
339.1510994699429
 20
387.6000000000001
 30
0.0
 40
2.0
  1
9
  7
SIMPLEX
  0
TEXT
  5
285
  8
W
 62
     6
 10
378.792895966887
 20
387.6000000000001
 30
0.0
 40
2.0
  1
10
  7
SIMPLEX
  0
TEXT
  5
286
  8
W
 62
     6
 10
418.9653394001888
 20
387.6000000000001
 30
0.0
 40
2.0
  1
11
  7
SIMPLEX
  0
TEXT
  5
287
  8
W
 62
     6
 10
458.792895966887
 20
387.6000000000001
 30
0.0
 40
2.0
  1
12
  7
SIMPLEX
  0
TEXT
  5
288
  8
W
 62
     6
 10
498.4480091002833
 20
387.6000000000001
 30
0.0
 40
2.0
  1
13
  7
SIMPLEX
  0
TEXT
  5
289
  8
W
 62
     6
 10
538.2755656669814
 20
387.6000000000001
 30
0.0
 40
2.0
  1
14
  7
SIMPLEX
  0
LINE
  5
28A
  8
W
 10
556.3999999999996
 20
390.1
 30
0.0
 11
586.5621981957105
 21
390.1
 31
0.0
  0
LINE
  5
28B
  8
W
 10
556.3999999999996
 20
390.1
 30
0.0
 11
556.3999999999996
 21
410.3362612695544
 31
0.0
  0
TEXT
  5
2BC
  8
W
 62
     2
 10
458.1999999999998
 20
12.49592270119592
 30
0.0
 40
4.0
  1
数字合わせ錠
  7
SIMPLEX
  0
TEXT
  5
2BD
  8
W
 62
     2
 10
468.3945777591762
 20
1.585716187314801
 30
0.0
 40
4.0
  1
扉取付穴参考図
  7
SIMPLEX
  0
TEXT
  5
369
  8
W
 62
     6
 10
219.1951695758448
 20
13.6431936577851
 30
0.0
 40
3.0
  1

  7
SIMPLEX
 72
     1
 11
219.1951695758448
 21
13.6431936577851
 31
0.0
  0
LINE
  5
38B
  8
W
 62
     2
 10
556.1999999999998
 20
0.2000000000000455
 30
0.0
 11
556.1999999999998
 21
387.1
 31
0.0
  0
LINE
  5
38C
  8
W
 62
     2
 10
556.3999999999996
 20
0.0
 30
0.0
 11
556.3999999999996
 21
387.3
 31
0.0
  0
LINE
  5
38F
  8
W
 62
     2
 10
3.0
 20
0.2000000000000455
 30
0.0
 11
556.1999999999998
 21
0.2000000000000455
 31
0.0
  0
LINE
  5
390
  8
W
 62
     2
 10
556.1999999999998
 20
387.1
 30
0.0
 11
3.0
 21
387.1
 31
0.0
  0
LINE
  5
391
  8
W
 62
     2
 10
3.0
 20
387.1
 30
0.0
 11
3.0
 21
0.2000000000000455
 31
0.0
  0
LINE
  5
392
  8
W
 62
     6
 10
3.0
 20
350.1
 30
0.0
 11
0.0
 21
350.1
 31
0.0
  0
LINE
  5
393
  8
W
 62
     6
 10
3.0
 20
350.1
 30
0.0
 11
0.0
 21
350.1
 31
0.0
  0
LINE
  5
394
  8
W
 62
     6
 10
3.0
 20
310.1
 30
0.0
 11
0.0
 21
310.1
 31
0.0
  0
LINE
  5
395
  8
W
 62
     6
 10
3.0
 20
270.1
 30
0.0
 11
0.0
 21
270.1
 31
0.0
  0
LINE
  5
396
  8
W
 62
     6
 10
3.0
 20
230.1
 30
0.0
 11
0.0
 21
230.1
 31
0.0
  0
LINE
  5
397
  8
W
 62
     6
 10
3.0
 20
190.1
 30
0.0
 11
0.0
 21
190.1
 31
0.0
  0
LINE
  5
398
  8
W
 62
     6
 10
3.0
 20
150.1
 30
0.0
 11
0.0
 21
150.1
 31
0.0
  0
LINE
  5
399
  8
W
 62
     6
 10
3.0
 20
110.1
 30
0.0
 11
0.0
 21
110.1
 31
0.0
  0
LINE
  5
39A
  8
W
 62
     6
 10
3.0
 20
70.10000000000002
 30
0.0
 11
0.0
 21
70.10000000000002
 31
0.0
  0
LINE
  5
39B
  8
W
 62
     6
 10
3.0
 20
30.10000000000002
 30
0.0
 11
0.0
 21
30.10000000000002
 31
0.0
  0
TEXT
  5
39C
  8
W
 62
     6
 10
0.7395833333333334
 20
369.1
 30
0.0
 40
2.0
  1
A
  7
SIMPLEX
 72
     4
 11
1.5
 21
370.1
 31
0.0
  0
TEXT
  5
39D
  8
W
 62
     6
 10
0.8333333333333334
 20
329.1
 30
0.0
 40
2.0
  1
B
  7
SIMPLEX
 72
     4
 11
1.5
 21
330.1
 31
0.0
  0
TEXT
  5
39E
  8
W
 62
     6
 10
0.78125
 20
289.1
 30
0.0
 40
2.0
  1
C
  7
SIMPLEX
 72
     4
 11
1.5
 21
290.1
 31
0.0
  0
TEXT
  5
39F
  8
W
 62
     6
 10
0.8333333333333334
 20
249.1
 30
0.0
 40
2.0
  1
D
  7
SIMPLEX
 72
     4
 11
1.5
 21
250.1
 31
0.0
  0
TEXT
  5
3A0
  8
W
 62
     6
 10
0.8333333333333334
 20
209.1
 30
0.0
 40
2.0
  1
D
  7
SIMPLEX
 72
     4
 11
1.5
 21
210.1
 31
0.0
  0
TEXT
  5
3A1
  8
W
 62
     6
 10
0.8854803961177518
 20
169.1
 30
0.0
 40
2.0
  1
E
  7
SIMPLEX
 72
     4
 11
1.500063729451085
 21
170.1
 31
0.0
  0
TEXT
  5
3A2
  8
W
 62
     6
 10
0.8854166666666667
 20
129.1
 30
0.0
 40
2.0
  1
F
  7
SIMPLEX
 72
     4
 11
1.5
 21
130.1
 31
0.0
  0
TEXT
  5
3A3
  8
W
 62
     6
 10
0.78125
 20
89.10000000000004
 30
0.0
 40
2.0
  1
G
  7
SIMPLEX
 72
     4
 11
1.5
 21
90.10000000000004
 31
0.0
  0
TEXT
  5
3A4
  8
W
 62
     6
 10
0.8333333333333334
 20
49.10000000000002
 30
0.0
 40
2.0
  1
H
  7
SIMPLEX
 72
     4
 11
1.5
 21
50.10000000000002
 31
0.0
  0
TEXT
  5
3A5
  8
W
 62
     6
 10
1.5
 20
9.10000000000002
 30
0.0
 40
2.0
  1
I
  7
SIMPLEX
 72
     4
 11
1.5
 21
10.10000000000002
 31
0.0
  0
LINE
  5
3A6
  8
W
 62
     2
 10
556.3999999999996
 20
387.3
 30
0.0
 11
2.800000000000181
 21
387.3
 31
0.0
  0
LINE
  5
3A7
  8
W
 62
     2
 10
2.800000000000181
 20
387.3
 30
0.0
 11
2.800000000000181
 21
0.0
 31
0.0
  0
LINE
  5
3A8
  8
W
 62
     2
 10
2.800000000000181
 20
0.0
 30
0.0
 11
556.3999999999996
 21
0.0
 31
0.0
  0
LINE
  5
3A9
  8
W
 10
0.0
 20
0.0
 30
0.0
 11
-25.34078603316448
 21
0.0
 31
0.0
  0
LINE
  5
3AA
  8
W
 10
0.0
 20
0.0
 30
0.0
 11
0.0
 21
-16.39209549929387
 31
0.0
  0
LINE
  5
3AB
  8
W
 62
     2
 10
2.800000000000181
 20
0.2000000000000455
 30
0.0
 11
556.1999999999998
 21
0.2000000000000455
 31
0.0
  0
TEXT
  5
3ED
  8
S
 62
     2
 10
335.1000000000003
 20
287.1
 30
0.0
 40
3.0
  1
2
 50
90.0
  7
SIMPLEX
 72
     1
 11
335.1000000000003
 21
288.1
 31
0.0
  0
INSERT
  5
3EE
  8
S
  2
SUG-AR01
 10
336.0
 20
294.2490516304275
 30
0.0
 41
0.5
 42
0.5
 43
0.5
 50
90.0
  0
INSERT
  5
3EF
  8
S
  2
SUG-AR01
 10
336.0
 20
292.2490516304284
 30
0.0
 41
0.5
 42
0.5
 43
0.5
 50
270.0
  0
LINE
  5
3F0
  8
S
 10
336.0
 20
286.9
 30
0.0
 11
336.0
 21
301.2490516304275
 31
0.0
  0
LINE
  5
3F1
  8
S
 10
326.5999999999995
 20
292.2490516304284
 30
0.0
 11
337.0
 21
292.2490516304284
 31
0.0
  0
TEXT
  5
3F2
  8
S
 62
     2
 10
335.1000000000003
 20
344.4000000000001
 30
0.0
 40
3.0
  1
2
 50
90.0
  7
SIMPLEX
 72
     1
 11
335.1000000000003
 21
345.4000000000001
 31
0.0
  0
INSERT
  5
3F3
  8
S
  2
SUG-AR01
 10
336.0
 20
341.6490516304281
 30
0.0
 41
0.5
 42
0.5
 43
0.5
 50
90.0
  0
INSERT
  5
3F4
  8
S
  2
SUG-AR01
 10
336.0
 20
339.6490516304281
 30
0.0
 41
0.5
 42
0.5
 43
0.5
 50
270.0
  0
LINE
  5
3F5
  8
S
 10
336.0
 20
332.6490516304281
 30
0.0
 11
336.0
 21
346.6000000000001
 31
0.0
  0
LINE
  5
3F6
  8
S
 10
326.5999999999995
 20
341.6490516304281
 30
0.0
 11
337.0
 21
341.6490516304281
 31
0.0
  0
TEXT
  5
3F7
  8
S
 10
272.4000000000005
 20
323.0919087732853
 30
0.0
 40
1.649999999999999
  1
-0
 50
90.0
  7
SIMPLEX
  0
TEXT
  5
3F8
  8
S
 10
269.7000000000007
 20
323.0919087732853
 30
0.0
 40
1.649999999999999
  1
+0.5
 50
90.0
  7
SIMPLEX
  0
TEXT
  5
441
  8
S
 10
117.8825376010609
 20
354.7000000000001
 30
0.0
 40
1.649999999999999
  1
-0
  7
SIMPLEX
  0
TEXT
  5
442
  8
S
 10
117.8825376010609
 20
357.4000000000001
 30
0.0
 40
1.649999999999999
  1
+0.2
  7
SIMPLEX
  0
TEXT
  5
443
  8
S
 10
32.39999999999964
 20
326.642320275633
 30
0.0
 40
1.649999999999999
  1
-0
 50
90.0
  7
SIMPLEX
  0
TEXT
  5
444
  8
S
 10
29.70000000000073
 20
326.642320275633
 30
0.0
 40
1.649999999999999
  1
+0.2
 50
90.0
  7
SIMPLEX
  0
TEXT
  5
445
  8
S
 62
     2
 10
32.10000000000036
 20
315.9994631327759
 30
0.0
 40
3.0
  1
45.2
 50
90.0
  7
SIMPLEX
 72
     1
 11
32.10000000000036
 21
320.5708917042044
 31
0.0
  0
INSERT
  5
446
  8
S
  2
SUG-AR01
 10
33.0
 20
297.9708917042045
 30
0.0
 41
0.5
 42
0.5
 43
0.5
 50
90.0
  0
INSERT
  5
447
  8
S
  2
SUG-AR01
 10
33.0
 20
343.1708917042044
 30
0.0
 41
0.5
 42
0.5
 43
0.5
 50
270.0
  0
LINE
  5
448
  8
S
 10
33.0
 20
343.1708917042044
 30
0.0
 11
33.0
 21
297.9708917042045
 31
0.0
  0
LINE
  5
449
  8
S
 10
47.81825188677522
 20
297.9708917042045
 30
0.0
 11
32.0
 21
297.9708917042045
 31
0.0
  0
LINE
  5
44A
  8
S
 10
47.81825188677522
 20
343.1708917042044
 30
0.0
 11
32.0
 21
343.1708917042044
 31
0.0
  0
TEXT
  5
44B
  8
S
 62
     2
 10
104.9539661724899
 20
355.0
 30
0.0
 40
3.0
  1
122.7
  7
SIMPLEX
 72
     1
 11
110.6682518867756
 21
355.0
 31
0.0
  0
INSERT
  5
44C
  8
S
  2
SUG-AR01
 10
172.0182518867759
 20
354.1
 30
0.0
 41
0.5
 42
0.5
 43
0.5
 50
180.0
  0
INSERT
  5
44D
  8
S
  2
SUG-AR01
 10
49.31825188677521
 20
354.1
 30
0.0
 41
0.5
 42
0.5
 43
0.5
  0
LINE
  5
44E
  8
S
 10
49.31825188677521
 20
354.1
 30
0.0
 11
172.0182518867759
 21
354.1
 31
0.0
  0
LINE
  5
44F
  8
S
 10
172.0182518867759
 20
344.6708917042043
 30
0.0
 11
172.0182518867759
 21
355.1
 31
0.0
  0
LINE
  5
450
  8
S
 10
49.31825188677521
 20
344.6708917042043
 30
0.0
 11
49.31825188677521
 21
355.1
 31
0.0
  0
LINE
  5
451
  8
T
 10
110.6682518867756
 20
288.1
 30
0.0
 11
110.6682518867756
 21
351.1
 31
0.0
  0
LINE
  5
452
  8
T
 10
39.0
 20
320.5708917042044
 30
0.0
 11
183.0
 21
320.5708917042044
 31
0.0
  0
TEXT
  5
457
  8
S
 10
320.4852609905247
 20
329.2121345433511
 30
0.0
 40
1.649999999999999
  1
-0
  7
SIMPLEX
  0
TEXT
  5
458
  8
S
 10
320.4852609905247
 20
331.9121345433509
 30
0.0
 40
1.649999999999999
  1
+1
  7
SIMPLEX
  0
TEXT
  5
459
  8
S
 10
405.9852609905237
 20
329.2121345433511
 30
0.0
 40
1.649999999999999
  1
-0
  7
SIMPLEX
  0
TEXT
  5
45A
  8
S
 10
405.9852609905237
 20
331.9121345433509
 30
0.0
 40
1.649999999999999
  1
+1
  7
SIMPLEX
  0
TEXT
  5
45C
  8
S
 10
367.9214285714279
 20
325.4499999999995
 30
0.0
 40
2.1
  1
±0.5
  7
SIMPLEX
  0
TEXT
  5
45F
  8
S
 10
368.9928571428554
 20
351.6999999999995
 30
0.0
 40
1.649999999999999
  1
+0
  7
SIMPLEX
  0
TEXT
  5
460
  8
S
 10
368.9928571428554
 20
354.3999999999993
 30
0.0
 40
1.649999999999999
  1
+0.5
  7
SIMPLEX
  0
TEXT
  5
463
  8
S
 62
     2
 10
402.4571428571413
 20
324.9999999999996
 30
0.0
 40
3.0
  1
12
  7
SIMPLEX
 72
     1
 11
404.5999999999985
 21
324.9999999999996
 31
0.0
  0
INSERT
  5
464
  8
S
  2
SUG-AR01
 10
410.5999999999985
 20
324.1
 30
0.0
 41
0.5
 42
0.5
 43
0.5
 50
180.0
  0
INSERT
  5
465
  8
S
  2
SUG-AR01
 10
398.5999999999986
 20
324.1
 30
0.0
 41
0.5
 42
0.5
 43
0.5
  0
LINE
  5
466
  8
S
 10
398.5999999999986
 20
324.1
 30
0.0
 11
410.5999999999985
 21
324.1
 31
0.0
  0
LINE
  5
467
  8
S
 10
410.5999999999985
 20
338.149051630428
 30
0.0
 11
410.5999999999985
 21
323.1
 31
0.0
  0
LINE
  5
468
  8
S
 10
398.5999999999986
 20
336.6490516304281
 30
0.0
 11
398.5999999999986
 21
323.1
 31
0.0
  0
TEXT
  5
469
  8
S
 62
     2
 10
316.9571428571433
 20
324.9999999999996
 30
0.0
 40
3.0
  1
12
  7
SIMPLEX
 72
     1
 11
319.1000000000004
 21
324.9999999999996
 31
0.0
  0
INSERT
  5
46A
  8
S
  2
SUG-AR01
 10
325.1000000000004
 20
324.1
 30
0.0
 41
0.5
 42
0.5
 43
0.5
 50
180.0
  0
INSERT
  5
46B
  8
S
  2
SUG-AR01
 10
313.0999999999994
 20
324.1
 30
0.0
 41
0.5
 42
0.5
 43
0.5
  0
LINE
  5
46C
  8
S
 10
313.0999999999994
 20
324.1
 30
0.0
 11
325.1000000000004
 21
324.1
 31
0.0
  0
LINE
  5
46D
  8
S
 10
325.1000000000004
 20
336.6490516304281
 30
0.0
 11
325.1000000000004
 21
323.1
 31
0.0
  0
LINE
  5
46E
  8
S
 10
313.0999999999994
 20
338.149051630428
 30
0.0
 11
313.0999999999994
 21
323.1
 31
0.0
  0
TEXT
  5
46F
  8
S
 62
     2
 10
357.278571428571
 20
324.9999999999996
 30
0.0
 40
3.0
  1
73.5
  7
SIMPLEX
 72
     1
 11
361.8499999999995
 21
324.9999999999996
 31
0.0
  0
INSERT
  5
470
  8
S
  2
SUG-AR01
 10
398.5999999999986
 20
324.1
 30
0.0
 41
0.5
 42
0.5
 43
0.5
 50
180.0
  0
INSERT
  5
471
  8
S
  2
SUG-AR01
 10
325.1000000000004
 20
324.1
 30
0.0
 41
0.5
 42
0.5
 43
0.5
  0
LINE
  5
472
  8
S
 10
325.1000000000004
 20
324.1
 30
0.0
 11
398.5999999999986
 21
324.1
 31
0.0
  0
LINE
  5
473
  8
S
 10
398.5999999999986
 20
338.149051630428
 30
0.0
 11
398.5999999999986
 21
323.1
 31
0.0
  0
LINE
  5
474
  8
S
 10
325.1000000000004
 20
338.149051630428
 30
0.0
 11
325.1000000000004
 21
323.1
 31
0.0
  0
LINE
  5
4A3
  8
T
 10
361.8499999999981
 20
348.1
 30
0.0
 11
361.849999999999
 21
288.1000000000001
 31
0.0
  0
LINE
  5
4A4
  8
2
 10
398.5999999999986
 20
294.2490516304275
 30
0.0
 11
325.0999999999995
 21
294.2490516304284
 31
0.0
  0
LINE
  5
4A5
  8
2
 10
313.0999999999986
 20
294.2490516304284
 30
0.0
 11
304.3999999999978
 21
294.2490516304284
 31
0.0
  0
LINE
  5
4A6
  8
2
 10
325.0999999999995
 20
294.2490516304275
 30
0.0
 11
325.0999999999995
 21
292.2490516304284
 31
0.0
  0
LINE
  5
4A7
  8
2
 10
313.0999999999994
 20
294.2490516304275
 30
0.0
 11
313.0999999999994
 21
292.2490516304284
 31
0.0
  0
LINE
  5
4A8
  8
2
 10
325.0999999999995
 20
292.2490516304284
 30
0.0
 11
313.0999999999994
 21
292.2490516304284
 31
0.0
  0
LINE
  5
4A9
  8
2
 10
410.5999999999985
 20
292.2490516304284
 30
0.0
 11
398.5999999999986
 21
292.2490516304284
 31
0.0
  0
LINE
  5
4AA
  8
2
 10
410.5999999999985
 20
294.2490516304284
 30
0.0
 11
410.5999999999985
 21
292.2490516304284
 31
0.0
  0
LINE
  5
4AB
  8
2
 10
398.5999999999986
 20
294.2490516304284
 30
0.0
 11
398.5999999999986
 21
292.2490516304284
 31
0.0
  0
LINE
  5
4AC
  8
2
 10
313.0999999999994
 20
339.6490516304281
 30
0.0
 11
304.3999999999974
 21
339.6490516304281
 31
0.0
  0
LINE
  5
4AD
  8
2
 10
398.5999999999986
 20
339.6490516304281
 30
0.0
 11
325.1000000000004
 21
339.6490516304281
 31
0.0
  0
LINE
  5
4AE
  8
2
 10
325.0999999999995
 20
341.6490516304281
 30
0.0
 11
313.0999999999994
 21
341.6490516304281
 31
0.0
  0
LINE
  5
4AF
  8
2
 10
398.5999999999986
 20
339.6490516304281
 30
0.0
 11
398.5999999999986
 21
341.6490516304281
 31
0.0
  0
LINE
  5
4B0
  8
2
 10
410.5999999999985
 20
339.6490516304281
 30
0.0
 11
410.5999999999985
 21
341.6490516304281
 31
0.0
  0
LINE
  5
4B1
  8
2
 10
410.5999999999985
 20
341.6490516304281
 30
0.0
 11
398.5999999999986
 21
341.6490516304281
 31
0.0
  0
LINE
  5
4B2
  8
2
 10
313.0999999999994
 20
339.6490516304281
 30
0.0
 11
313.0999999999994
 21
341.6490516304281
 31
0.0
  0
LINE
  5
4B3
  8
2
 10
325.0999999999995
 20
339.6490516304281
 30
0.0
 11
325.0999999999995
 21
341.6490516304281
 31
0.0
  0
LINE
  5
4B4
  8
2
 10
419.2999999999992
 20
294.2490516304276
 30
0.0
 11
410.5999999999994
 21
294.2490516304275
 31
0.0
  0
LINE
  5
4B5
  8
2
 10
419.2999999999979
 20
339.6490516304281
 30
0.0
 11
410.5999999999985
 21
339.6490516304281
 31
0.0
  0
LINE
  5
4B6
  8
2
 10
300.3999999999978
 20
298.2490516304284
 30
0.0
 11
300.3999999999974
 21
335.6490516304281
 31
0.0
  0
LINE
  5
4B7
  8
2
 10
423.2999999999979
 20
335.6490516304282
 30
0.0
 11
423.2999999999992
 21
298.2490516304277
 31
0.0
  0
LINE
  5
4F1
  8
2
 10
49.31825188677521
 20
343.1708917042044
 30
0.0
 11
49.31825188677521
 21
297.9708917042045
 31
0.0
  0
LINE
  5
4F2
  8
2
 10
49.31825188677521
 20
297.9708917042045
 30
0.0
 11
172.0182518867759
 21
297.9708917042045
 31
0.0
  0
LINE
  5
4F3
  8
2
 10
172.0182518867759
 20
297.9708917042045
 30
0.0
 11
172.0182518867759
 21
343.1708917042044
 31
0.0
  0
LINE
  5
4F4
  8
2
 10
172.0182518867759
 20
343.1708917042044
 30
0.0
 11
49.31825188677521
 21
343.1708917042044
 31
0.0
  0
CIRCLE
  5
509
  8
2
 10
293.4999999999982
 20
335.9490516304281
 30
0.0
 40
1.25
  0
CIRCLE
  5
50A
  8
2
 10
293.4999999999991
 20
297.9490516304281
 30
0.0
 40
1.25
  0
CIRCLE
  5
50B
  8
2
 10
430.199999999998
 20
335.9490516304274
 30
0.0
 40
1.25
  0
CIRCLE
  5
50C
  8
2
 10
430.1999999999988
 20
297.9490516304275
 30
0.0
 40
1.25
  0
LINE
  5
50D
  8
T
 10
295.9999999999982
 20
335.9490516304281
 30
0.0
 11
290.9999999999982
 21
335.9490516304281
 31
0.0
  0
LINE
  5
50E
  8
T
 10
293.4999999999982
 20
338.4490516304279
 30
0.0
 11
293.4999999999982
 21
333.4490516304283
 31
0.0
  0
LINE
  5
50F
  8
T
 10
295.9999999999991
 20
297.9490516304281
 30
0.0
 11
290.9999999999991
 21
297.9490516304281
 31
0.0
  0
LINE
  5
510
  8
T
 10
293.4999999999991
 20
300.4490516304279
 30
0.0
 11
293.4999999999991
 21
295.4490516304284
 31
0.0
  0
LINE
  5
511
  8
T
 10
432.6999999999984
 20
297.9490516304275
 30
0.0
 11
427.6999999999993
 21
297.9490516304275
 31
0.0
  0
LINE
  5
512
  8
T
 10
430.1999999999988
 20
300.4490516304272
 30
0.0
 11
430.1999999999988
 21
295.4490516304277
 31
0.0
  0
LINE
  5
513
  8
T
 10
432.699999999998
 20
335.9490516304274
 30
0.0
 11
427.6999999999979
 21
335.9490516304274
 31
0.0
  0
LINE
  5
514
  8
T
 10
430.199999999998
 20
338.4490516304272
 30
0.0
 11
430.199999999998
 21
333.4490516304277
 31
0.0
  0
LINE
  5
515
  8
S
 10
289.4999999999982
 20
335.9490516304281
 30
0.0
 11
278.0
 21
335.9490516304281
 31
0.0
  0
LINE
  5
516
  8
S
 10
289.4999999999991
 20
297.9490516304281
 30
0.0
 11
278.0
 21
297.9490516304281
 31
0.0
  0
LINE
  5
517
  8
S
 10
279.0
 20
335.9490516304281
 30
0.0
 11
279.0
 21
297.9490516304281
 31
0.0
  0
INSERT
  5
518
  8
S
  2
SUG-AR01
 10
279.0
 20
335.9490516304281
 30
0.0
 41
0.5
 42
0.5
 43
0.5
 50
270.0
  0
INSERT
  5
519
  8
S
  2
SUG-AR01
 10
279.0
 20
297.9490516304281
 30
0.0
 41
0.5
 42
0.5
 43
0.5
 50
90.0
  0
TEXT
  5
51A
  8
S
 62
     2
 10
278.0999999999999
 20
314.5204802018566
 30
0.0
 40
3.0
  1
38
 50
90.0
  7
SIMPLEX
 72
     1
 11
278.0999999999999
 21
316.9490516304281
 31
0.0
  0
TEXT
  5
51B
  8
S
 10
277.6500000000001
 20
320.8776230589996
 30
0.0
 40
2.1
  1
±0.15
 50
90.0
  7
SIMPLEX
  0
LINE
  5
51C
  8
S
 10
293.4999999999982
 20
339.9490516304279
 30
0.0
 11
293.4999999999982
 21
358.1
 31
0.0
  0
LINE
  5
51D
  8
S
 10
430.199999999998
 20
339.9490516304272
 30
0.0
 11
430.199999999998
 21
358.1
 31
0.0
  0
LINE
  5
51E
  8
S
 10
293.4999999999982
 20
357.1
 30
0.0
 11
430.199999999998
 21
357.1
 31
0.0
  0
INSERT
  5
51F
  8
S
  2
SUG-AR01
 10
293.4999999999982
 20
357.1
 30
0.0
 41
0.5
 42
0.5
 43
0.5
  0
INSERT
  5
520
  8
S
  2
SUG-AR01
 10
430.199999999998
 20
357.1
 30
0.0
 41
0.5
 42
0.5
 43
0.5
 50
180.0
  0
TEXT
  5
521
  8
S
 62
     2
 10
356.1357142857124
 20
358.0
 30
0.0
 40
3.0
  1
136.7
  7
SIMPLEX
 72
     1
 11
361.8499999999981
 21
358.0
 31
0.0
  0
TEXT
  5
522
  8
S
 10
369.0642857142839
 20
358.45
 30
0.0
 40
2.1
  1
±0.2
  7
SIMPLEX
  0
POLYLINE
  5
523
  8
S
 66
     1
 10
0.0
 20
0.0
 30
0.0
  0
VERTEX
  5
937
  8
S
 10
431.424592204869
 20
337.7256428203152
 30
0.0
  0
VERTEX
  5
938
  8
S
 10
441.0
 20
357.1
 30
0.0
  0
VERTEX
  5
939
  8
S
 10
495.0
 20
357.1
 30
0.0
  0
SEQEND
  5
93D
  8
S
  0
INSERT
  5
524
  8
S
  2
SUG-AR01
 10
431.424592204869
 20
337.7256428203152
 30
0.0
 41
0.4999999999999357
 42
0.5
 43
0.5
 50
63.69999033203976
  0
TEXT
  5
525
  8
S
 62
     6
 10
442.8571428571428
 20
358.0
 30
0.0
 40
3.0
  1
4-木ネジφ4.1用下穴 深さ15
  7
SIMPLEX
 72
     2
 11
495.0
 21
358.0
 31
0.0
  0
TEXT
  5
526
  8
S
 62
     6
 10
471.65
 20
351.8063323899091
 30
0.0
 40
3.0
  1
必要な場合のみ
  7
SIMPLEX
 72
     2
 11
495.0
 21
351.8063323899091
 31
0.0
  0
TEXT
  5
56C
  8
S
 62
     2
 10
458.4809735853532
 20
7.126814140316582
 30
0.0
 40
3.0
  1
NW2＊,01用
  7
SIMPLEX
  0
TEXT
  5
5F7
  8
2
 10
248.1891751764697
 20
345.5532619245214
 30
0.0
 40
3.0
  1
ｱﾀﾞﾌﾟﾀ　NW-20A使用
  7
OPNUS
  0
LINE
  5
5F9
  8
T
 10
286.9556101323397
 20
316.9490516304283
 30
0.0
 11
431.4126169313433
 21
316.9490516304283
 31
0.0
  0
ENDSEC
  0
EOF
