  0
SECTION
  2
HEADER
  9
$ACADVER
  1
AC1015
  9
$ACADMAINTVER
 70
    20
  9
$DWGCODEPAGE
  3
ANSI_932
  9
$INSBASE
 10
0.0
 20
0.0
 30
0.0
  9
$EXTMIN
 10
-27.71343177534777
 20
-15.78910723693036
 30
-0.0015258207003583
  9
$EXTMAX
 10
592.7023583578802
 20
422.2844185621095
 30
0.0000000349246037
  9
$LIMMIN
 10
0.0
 20
0.0
  9
$LIMMAX
 10
285.0
 20
198.0
  9
$ORTHOMODE
 70
     0
  9
$REGENMODE
 70
     1
  9
$FILLMODE
 70
     1
  9
$QTEXTMODE
 70
     0
  9
$MIRRTEXT
 70
     0
  9
$LTSCALE
 40
0.7
  9
$ATTMODE
 70
     1
  9
$TEXTSIZE
 40
3.0
  9
$TRACEWID
 40
0.05
  9
$TEXTSTYLE
  7
OPNUS
  9
$CLAYER
  8
4
  9
$CELTYPE
  6
ByLayer
  9
$CECOLOR
 62
   256
  9
$CELTSCALE
 40
0.7
  9
$DISPSILH
 70
     0
  9
$DIMSCALE
 40
1.0
  9
$DIMASZ
 40
3.0
  9
$DIMEXO
 40
1.0
  9
$DIMDLI
 40
6.0
  9
$DIMRND
 40
0.0
  9
$DIMDLE
 40
0.0
  9
$DIMEXE
 40
1.0
  9
$DIMTP
 40
0.0
  9
$DIMTM
 40
0.0
  9
$DIMTXT
 40
3.0
  9
$DIMCEN
 40
0.0
  9
$DIMTSZ
 40
0.0
  9
$DIMTOL
 70
     0
  9
$DIMLIM
 70
     0
  9
$DIMTIH
 70
     0
  9
$DIMTOH
 70
     0
  9
$DIMSE1
 70
     0
  9
$DIMSE2
 70
     0
  9
$DIMTAD
 70
     1
  9
$DIMZIN
 70
     8
  9
$DIMBLK
  1

  9
$DIMASO
 70
     1
  9
$DIMSHO
 70
     1
  9
$DIMPOST
  1

  9
$DIMAPOST
  1

  9
$DIMALT
 70
     0
  9
$DIMALTD
 70
     2
  9
$DIMALTF
 40
25.4
  9
$DIMLFAC
 40
1.0
  9
$DIMTOFL
 70
     1
  9
$DIMTVP
 40
0.0
  9
$DIMTIX
 70
     0
  9
$DIMSOXD
 70
     0
  9
$DIMSAH
 70
     0
  9
$DIMBLK1
  1

  9
$DIMBLK2
  1

  9
$DIMSTYLE
  2
OPNUS
  9
$DIMCLRD
 70
     6
  9
$DIMCLRE
 70
     6
  9
$DIMCLRT
 70
     2
  9
$DIMTFAC
 40
1.0
  9
$DIMGAP
 40
0.5
  9
$DIMJUST
 70
     0
  9
$DIMSD1
 70
     0
  9
$DIMSD2
 70
     0
  9
$DIMTOLJ
 70
     1
  9
$DIMTZIN
 70
     0
  9
$DIMALTZ
 70
     0
  9
$DIMALTTZ
 70
     0
  9
$DIMUPT
 70
     0
  9
$DIMDEC
 70
     2
  9
$DIMTDEC
 70
     2
  9
$DIMALTU
 70
     2
  9
$DIMALTTD
 70
     2
  9
$DIMTXSTY
  7
OPNUS
  9
$DIMAUNIT
 70
     0
  9
$DIMADEC
 70
     2
  9
$DIMALTRND
 40
0.0
  9
$DIMAZIN
 70
     2
  9
$DIMDSEP
 70
    46
  9
$DIMATFIT
 70
     3
  9
$DIMFRAC
 70
     0
  9
$DIMLDRBLK
  1

  9
$DIMLUNIT
 70
     2
  9
$DIMLWD
 70
    15
  9
$DIMLWE
 70
    15
  9
$DIMTMOVE
 70
     0
  9
$LUNITS
 70
     2
  9
$LUPREC
 70
     3
  9
$SKETCHINC
 40
0.1
  9
$FILLETRAD
 40
0.0
  9
$AUNITS
 70
     0
  9
$AUPREC
 70
     2
  9
$MENU
  1
.
  9
$ELEVATION
 40
0.0
  9
$PELEVATION
 40
0.0
  9
$THICKNESS
 40
0.0
  9
$LIMCHECK
 70
     0
  9
$CHAMFERA
 40
0.0
  9
$CHAMFERB
 40
0.0
  9
$CHAMFERC
 40
0.0
  9
$CHAMFERD
 40
0.0
  9
$SKPOLY
 70
     0
  9
$TDCREATE
 40
2453306.388240370
  9
$TDUCREATE
 40
2453306.013240371
  9
$TDUPDATE
 40
2455140.702520429
  9
$TDUUPDATE
 40
2455140.327520428
  9
$TDINDWG
 40
0.2467182060
  9
$TDUSRTIMER
 40
0.2467164005
  9
$USRTIMER
 70
     1
  9
$ANGBASE
 50
0.0
  9
$ANGDIR
 70
     0
  9
$PDMODE
 70
     0
  9
$PDSIZE
 40
0.0
  9
$PLINEWID
 40
0.0
  9
$SPLFRAME
 70
     0
  9
$SPLINETYPE
 70
     6
  9
$SPLINESEGS
 70
     8
  9
$HANDSEED
  5
5AE2
  9
$SURFTAB1
 70
     6
  9
$SURFTAB2
 70
     6
  9
$SURFTYPE
 70
     6
  9
$SURFU
 70
     6
  9
$SURFV
 70
     6
  9
$UCSBASE
  2

  9
$UCSNAME
  2

  9
$UCSORG
 10
0.0
 20
0.0
 30
0.0
  9
$UCSXDIR
 10
1.0
 20
0.0
 30
0.0
  9
$UCSYDIR
 10
0.0
 20
1.0
 30
0.0
  9
$UCSORTHOREF
  2

  9
$UCSORTHOVIEW
 70
     0
  9
$UCSORGTOP
 10
0.0
 20
0.0
 30
0.0
  9
$UCSORGBOTTOM
 10
0.0
 20
0.0
 30
0.0
  9
$UCSORGLEFT
 10
0.0
 20
0.0
 30
0.0
  9
$UCSORGRIGHT
 10
0.0
 20
0.0
 30
0.0
  9
$UCSORGFRONT
 10
0.0
 20
0.0
 30
0.0
  9
$UCSORGBACK
 10
0.0
 20
0.0
 30
0.0
  9
$PUCSBASE
  2

  9
$PUCSNAME
  2

  9
$PUCSORG
 10
0.0
 20
0.0
 30
0.0
  9
$PUCSXDIR
 10
1.0
 20
0.0
 30
0.0
  9
$PUCSYDIR
 10
0.0
 20
1.0
 30
0.0
  9
$PUCSORTHOREF
  2

  9
$PUCSORTHOVIEW
 70
     0
  9
$PUCSORGTOP
 10
0.0
 20
0.0
 30
0.0
  9
$PUCSORGBOTTOM
 10
0.0
 20
0.0
 30
0.0
  9
$PUCSORGLEFT
 10
0.0
 20
0.0
 30
0.0
  9
$PUCSORGRIGHT
 10
0.0
 20
0.0
 30
0.0
  9
$PUCSORGFRONT
 10
0.0
 20
0.0
 30
0.0
  9
$PUCSORGBACK
 10
0.0
 20
0.0
 30
0.0
  9
$USERI1
 70
     1
  9
$USERI2
 70
     6
  9
$USERI3
 70
     0
  9
$USERI4
 70
     0
  9
$USERI5
 70
     0
  9
$USERR1
 40
2.0
  9
$USERR2
 40
1.5
  9
$USERR3
 40
0.0
  9
$USERR4
 40
5.0
  9
$USERR5
 40
1.0
  9
$WORLDVIEW
 70
     1
  9
$SHADEDGE
 70
     3
  9
$SHADEDIF
 70
    70
  9
$TILEMODE
 70
     1
  9
$MAXACTVP
 70
    64
  9
$PINSBASE
 10
0.0
 20
0.0
 30
0.0
  9
$PLIMCHECK
 70
     0
  9
$PEXTMIN
 10
0.0
 20
0.0
 30
0.0
  9
$PEXTMAX
 10
0.0
 20
0.0
 30
0.0
  9
$PLIMMIN
 10
0.0
 20
0.0
  9
$PLIMMAX
 10
12.0
 20
9.0
  9
$UNITMODE
 70
     0
  9
$VISRETAIN
 70
     1
  9
$PLINEGEN
 70
     0
  9
$PSLTSCALE
 70
     1
  9
$TREEDEPTH
 70
  3020
  9
$CMLSTYLE
  2
Standard
  9
$CMLJUST
 70
     0
  9
$CMLSCALE
 40
1.0
  9
$PROXYGRAPHICS
 70
     1
  9
$MEASUREMENT
 70
     1
  9
$CELWEIGHT
370
    -1
  9
$ENDCAPS
280
     0
  9
$JOINSTYLE
280
     0
  9
$LWDISPLAY
290
     0
  9
$INSUNITS
 70
     1
  9
$HYPERLINKBASE
  1

  9
$STYLESHEET
  1
monochrome.ctb
  9
$XEDIT
290
     1
  9
$CEPSNTYPE
380
     0
  9
$PSTYLEMODE
290
     1
  9
$FINGERPRINTGUID
  2
{FDEAD576-A652-11D2-9A35-0060089B3A3F}
  9
$VERSIONGUID
  2
{AE791A39-8AF1-48FB-9292-CAF4BA76BE96}
  9
$EXTNAMES
290
     1
  9
$PSVPSCALE
 40
0.0
  9
$OLESTARTUP
290
     0
  0
ENDSEC
  0
SECTION
  2
CLASSES
  0
CLASS
  1
ACDBDICTIONARYWDFLT
  2
AcDbDictionaryWithDefault
  3
ObjectDBX Classes
 90
        0
280
     0
281
     0
  0
CLASS
  1
ACDBPLACEHOLDER
  2
AcDbPlaceHolder
  3
ObjectDBX Classes
 90
        0
280
     0
281
     0
  0
CLASS
  1
LAYOUT
  2
AcDbLayout
  3
ObjectDBX Classes
 90
        0
280
     0
281
     0
  0
CLASS
  1
DICTIONARYVAR
  2
AcDbDictionaryVar
  3
ObjectDBX Classes
 90
        0
280
     0
281
     0
  0
CLASS
  1
DIMASSOC
  2
AcDbDimAssoc
  3
"AcDbDimAssoc|Product Desc:     AcDim ARX App For Dimension|Company:          Autodesk, Inc.|WEB Address:      www.autodesk.com"
 90
    32768
280
     0
281
     0
  0
ENDSEC
  0
SECTION
  2
TABLES
  0
TABLE
  2
VPORT
  5
8
330
0
100
AcDbSymbolTable
 70
     3
  0
VPORT
  5
5ADA
330
8
100
AcDbSymbolTableRecord
100
AcDbViewportTableRecord
  2
*Active
 70
     0
 10
0.0
 20
0.0
 11
1.0
 21
1.0
 12
355.8572763326807
 22
180.5691586361176
 13
0.0
 23
0.0
 14
0.5
 24
0.5
 15
0.5
 25
0.5
 16
0.0
 26
0.0
 36
1.0
 17
0.0
 27
0.0
 37
0.0
 40
542.4364830834017
 41
2.050420168067226
 42
50.0
 43
0.0
 44
0.0
 50
0.0
 51
0.0
 71
     0
 72
  1000
 73
     1
 74
     3
 75
     0
 76
     0
 77
     0
 78
     0
281
     0
 65
     1
110
0.0
120
0.0
130
0.0
111
1.0
121
0.0
131
0.0
112
0.0
122
1.0
132
0.0
 79
     0
146
0.0
  0
ENDTAB
  0
TABLE
  2
LTYPE
  5
5
330
0
100
AcDbSymbolTable
 70
    12
  0
LTYPE
  5
14
330
5
100
AcDbSymbolTableRecord
100
AcDbLinetypeTableRecord
  2
ByBlock
 70
     0
  3

 72
    65
 73
     0
 40
0.0
  0
LTYPE
  5
15
330
5
100
AcDbSymbolTableRecord
100
AcDbLinetypeTableRecord
  2
ByLayer
 70
     0
  3

 72
    65
 73
     0
 40
0.0
  0
LTYPE
  5
16
330
5
100
AcDbSymbolTableRecord
100
AcDbLinetypeTableRecord
  2
Continuous
 70
     0
  3
Solid line
 72
    65
 73
     0
 40
0.0
  0
LTYPE
  5
10C
330
5
100
AcDbSymbolTableRecord
100
AcDbLinetypeTableRecord
  2
CENTER2
 70
     0
  3
Center (.5x) ___ _ ___ _ ___ _ ___ _ ___ _ ___
 72
    65
 73
     4
 40
28.575
 49
19.05
 74
     0
 49
-3.174999999999999
 74
     0
 49
3.174999999999999
 74
     0
 49
-3.174999999999999
 74
     0
  0
LTYPE
  5
429
330
5
100
AcDbSymbolTableRecord
100
AcDbLinetypeTableRecord
  2
H4
 70
     0
  3
\\\\@@\\\\@@\\\\@@\\\\@
 72
    65
 73
     2
 40
2.7
 49
1.6
 74
     0
 49
-1.1
 74
     0
  0
LTYPE
  5
3E83
330
5
100
AcDbSymbolTableRecord
100
AcDbLinetypeTableRecord
  2
H2
 70
     0
  3
\\@\\@\\@\\@\\@\\@\\@\\
 72
    65
 73
     2
 40
1.36
 49
0.8
 74
     0
 49
-0.5600000000000001
 74
     0
  0
ENDTAB
  0
TABLE
  2
LAYER
  5
2
102
{ACAD_XDICTIONARY
360
9F
102
}
330
0
100
AcDbSymbolTable
 70
    15
  0
LAYER
  5
10
330
2
100
AcDbSymbolTableRecord
100
AcDbLayerTableRecord
  2
0
 70
     0
 62
     7
  6
Continuous
370
    15
390
F
  0
LAYER
  5
8F
330
2
100
AcDbSymbolTableRecord
100
AcDbLayerTableRecord
  2
1
 70
     0
 62
     1
  6
Continuous
370
    30
390
F
  0
LAYER
  5
90
330
2
100
AcDbSymbolTableRecord
100
AcDbLayerTableRecord
  2
2
 70
     0
 62
     2
  6
Continuous
370
    30
390
F
  0
LAYER
  5
91
330
2
100
AcDbSymbolTableRecord
100
AcDbLayerTableRecord
  2
3
 70
     0
 62
     3
  6
Continuous
370
    30
390
F
  0
LAYER
  5
92
330
2
100
AcDbSymbolTableRecord
100
AcDbLayerTableRecord
  2
4
 70
     0
 62
     4
  6
Continuous
370
    30
390
F
  0
LAYER
  5
93
330
2
100
AcDbSymbolTableRecord
100
AcDbLayerTableRecord
  2
5
 70
     0
 62
     5
  6
Continuous
370
    15
390
F
  0
LAYER
  5
94
330
2
100
AcDbSymbolTableRecord
100
AcDbLayerTableRecord
  2
6
 70
     0
 62
     6
  6
Continuous
370
    15
390
F
  0
LAYER
  5
95
330
2
100
AcDbSymbolTableRecord
100
AcDbLayerTableRecord
  2
7
 70
     0
 62
     7
  6
Continuous
370
    15
390
F
  0
LAYER
  5
B0
330
2
100
AcDbSymbolTableRecord
100
AcDbLayerTableRecord
  2
S
 70
     0
 62
     6
  6
Continuous
370
    15
390
F
  0
LAYER
  5
B1
330
2
100
AcDbSymbolTableRecord
100
AcDbLayerTableRecord
  2
T
 70
     0
 62
     5
  6
CENTER2
370
    15
390
F
  0
LAYER
  5
B2
330
2
100
AcDbSymbolTableRecord
100
AcDbLayerTableRecord
  2
W
 70
     0
 62
     7
  6
Continuous
370
    15
390
F
  0
LAYER
  5
E0
330
2
100
AcDbSymbolTableRecord
100
AcDbLayerTableRecord
  2
Defpoints
 70
     0
 62
     7
  6
Continuous
290
     0
370
    -3
390
F
  0
LAYER
  5
42B
330
2
100
AcDbSymbolTableRecord
100
AcDbLayerTableRecord
  2
97
 70
     0
 62
     3
  6
Continuous
370
    -3
390
F
  0
ENDTAB
  0
TABLE
  2
STYLE
  5
3
330
0
100
AcDbSymbolTable
 70
     6
  0
STYLE
  5
11
330
3
100
AcDbSymbolTableRecord
100
AcDbTextStyleTableRecord
  2
Standard
 70
     0
 40
0.0
 41
1.0
 50
0.0
 71
     0
 42
0.2
  3
MS Mincho.ttf
  4

1001
ACAD
1000
MS Mincho
1071
    32785
  0
STYLE
  5
BC
330
3
100
AcDbSymbolTableRecord
100
AcDbTextStyleTableRecord
  2
OPNUS
 70
     0
 40
0.0
 41
1.0
 50
0.0
 71
     0
 42
3.0
  3
MS PGothic.ttf
  4

1001
ACAD
1000
MS PGothic
1071
    32818
  0
STYLE
  5
42C
330
3
100
AcDbSymbolTableRecord
100
AcDbTextStyleTableRecord
  2
SIMPLEX
 70
     0
 40
0.0
 41
1.0
 50
0.0
 71
     0
 42
4.4
  3
T:SIMPLEX
  4
T:SUG-BIG1
  0
STYLE
  5
42D
330
3
100
AcDbSymbolTableRecord
100
AcDbTextStyleTableRecord
  2
SIMPLEX-T
 70
     4
 40
0.0
 41
1.0
 50
0.0
 71
     0
 42
1.5
  3
T:TXT
  4
T:SUG-BIG1
  0
ENDTAB
  0
TABLE
  2
VIEW
  5
6
330
0
100
AcDbSymbolTable
 70
     0
  0
ENDTAB
  0
TABLE
  2
UCS
  5
7
330
0
100
AcDbSymbolTable
 70
     0
  0
ENDTAB
  0
TABLE
  2
APPID
  5
9
330
0
100
AcDbSymbolTable
 70
     1
  0
APPID
  5
12
330
9
100
AcDbSymbolTableRecord
100
AcDbRegAppTableRecord
  2
ACAD
 70
     0
  0
ENDTAB
  0
TABLE
  2
DIMSTYLE
  5
A
330
0
100
AcDbSymbolTable
 70
     3
100
AcDbDimStyleTable
 71
     2
340
BB
340
27
  0
DIMSTYLE
105
27
330
A
100
AcDbSymbolTableRecord
100
AcDbDimStyleTableRecord
  2
Standard
 70
     0
340
11
  0
DIMSTYLE
105
BB
330
A
100
AcDbSymbolTableRecord
100
AcDbDimStyleTableRecord
  2
OPNUS
 70
     0
 41
3.0
 42
1.0
 43
6.0
 44
1.0
 73
     0
 74
     0
 77
     1
 78
     8
 79
     2
140
3.0
141
0.0
147
0.5
172
     1
176
     6
177
     6
178
     2
179
     2
271
     2
272
     2
340
BC
371
    15
372
    15
  0
ENDTAB
  0
TABLE
  2
BLOCK_RECORD
  5
1
330
0
100
AcDbSymbolTable
 70
    12
  0
BLOCK_RECORD
  5
1F
330
1
100
AcDbSymbolTableRecord
100
AcDbBlockTableRecord
  2
*Model_Space
340
22
  0
BLOCK_RECORD
  5
58
330
1
100
AcDbSymbolTableRecord
100
AcDbBlockTableRecord
  2
*Paper_Space
340
59
  0
BLOCK_RECORD
  5
21A
330
1
100
AcDbSymbolTableRecord
100
AcDbBlockTableRecord
  2
SUG-AR01
340
0
102
{BLKREFS
331
3C9F
331
3CBF
331
3CD9
331
36B6
331
36C4
331
38AE
331
38AF
331
3980
331
3981
331
3985
331
3987
331
39BB
331
3A09
331
36D9
331
36FD
331
3731
331
3736
331
3748
331
37AC
331
37F5
331
3814
331
382E
331
3860
331
38AC
331
3B4C
331
3B71
331
3B78
331
3B79
331
3C32
331
3C46
331
3C47
331
468F
331
4678
331
5AA6
331
5A96
331
5A95
331
5A93
331
5A8D
331
5A8A
331
5A87
331
5AB6
331
5AB3
102
}
  0
BLOCK_RECORD
  5
220
330
1
100
AcDbSymbolTableRecord
100
AcDbBlockTableRecord
  2
SUG-AR04
340
0
102
{BLKREFS
331
3C79
331
3C7E
331
3C95
331
3998
331
39AD
331
39D5
331
39D9
331
39DD
331
36E2
331
3722
331
375F
331
3AF2
331
3B4B
331
3B50
331
3B5A
331
3B97
331
3BC7
331
3BE0
331
3C34
331
3C5D
331
3C63
331
3C66
331
3C67
102
}
  0
BLOCK_RECORD
  5
2BC
330
1
100
AcDbSymbolTableRecord
100
AcDbBlockTableRecord
  2
*X3
340
0
102
{BLKREFS
331
496
102
}
  0
BLOCK_RECORD
  5
3FB
330
1
100
AcDbSymbolTableRecord
100
AcDbBlockTableRecord
  2
SUG-AR06
340
0
102
{BLKREFS
331
400
102
}
  0
BLOCK_RECORD
  5
3D15
330
1
100
AcDbSymbolTableRecord
100
AcDbBlockTableRecord
  2
*X10
340
0
102
{BLKREFS
331
3770
102
}
  0
ENDTAB
  0
ENDSEC
  0
SECTION
  2
BLOCKS
  0
BLOCK
  5
20
330
1F
100
AcDbEntity
  8
0
100
AcDbBlockBegin
  2
*Model_Space
 70
     0
 10
0.0
 20
0.0
 30
0.0
  3
*Model_Space
  1

  0
ENDBLK
  5
21
330
1F
100
AcDbEntity
  8
0
100
AcDbBlockEnd
  0
BLOCK
  5
5A
330
58
100
AcDbEntity
 67
     1
  8
0
100
AcDbBlockBegin
  2
*Paper_Space
 70
     0
 10
0.0
 20
0.0
 30
0.0
  3
*Paper_Space
  1

  0
ENDBLK
  5
5B
330
58
100
AcDbEntity
 67
     1
  8
0
100
AcDbBlockEnd
  0
BLOCK
  5
21B
330
21A
100
AcDbEntity
  8
0
100
AcDbBlockBegin
  2
SUG-AR01
 70
     0
 10
0.0
 20
0.0
 30
0.0
  3
SUG-AR01
  1

  0
LINE
  5
21C
330
21A
100
AcDbEntity
  8
0
100
AcDbLine
 10
0.0
 20
0.0
 30
0.0
 11
5.0
 21
1.339745962155659
 31
0.0
  0
LINE
  5
21D
330
21A
100
AcDbEntity
  8
0
100
AcDbLine
 10
5.0
 20
-1.339745962155659
 30
0.0
 11
5.0
 21
1.339745962155659
 31
0.0
  0
LINE
  5
21E
330
21A
100
AcDbEntity
  8
0
100
AcDbLine
 10
0.0
 20
0.0
 30
0.0
 11
5.0
 21
-1.339745962155659
 31
0.0
  0
ENDBLK
  5
21F
330
21A
100
AcDbEntity
  8
0
100
AcDbBlockEnd
  0
BLOCK
  5
221
330
220
100
AcDbEntity
  8
0
100
AcDbBlockBegin
  2
SUG-AR04
 70
     0
 10
0.0
 20
0.0
 30
0.0
  3
SUG-AR04
  1

  0
CIRCLE
  5
222
330
220
100
AcDbEntity
  8
0
100
AcDbCircle
 10
0.0
 20
0.0
 30
0.0
 40
0.75
  0
ENDBLK
  5
223
330
220
100
AcDbEntity
  8
0
100
AcDbBlockEnd
  0
BLOCK
  5
2BD
330
2BC
100
AcDbEntity
  8
0
100
AcDbBlockBegin
  2
*X3
 70
     1
 10
0.0
 20
0.0
 30
0.0
  3
*X3
  1

  0
LINE
  5
2BE
330
2BC
100
AcDbEntity
  8
0
 62
     0
100
AcDbLine
 10
-367.3576674071351
 20
124.7374491893554
 30
0.0
 11
-367.3576674071351
 21
124.7374491893554
 31
0.0
  0
LINE
  5
2BF
330
2BC
100
AcDbEntity
  8
0
 62
     0
100
AcDbLine
 10
-367.1576674071352
 20
124.7374491893554
 30
0.0
 11
-367.1576674071352
 21
124.7374491893554
 31
0.0
  0
LINE
  5
2C0
330
2BC
100
AcDbEntity
  8
0
 62
     0
100
AcDbLine
 10
-357.1576674071351
 20
124.7374491893554
 30
0.0
 11
-357.1576674071351
 21
124.7374491893554
 31
0.0
  0
LINE
  5
2C1
330
2BC
100
AcDbEntity
  8
0
 62
     0
100
AcDbLine
 10
-356.9576674071351
 20
124.7374491893554
 30
0.0
 11
-356.9576674071351
 21
124.7374491893554
 31
0.0
  0
LINE
  5
2C2
330
2BC
100
AcDbEntity
  8
0
 62
     0
100
AcDbLine
 10
-365.557667407135
 20
124.7374491893554
 30
0.0
 11
-365.557667407135
 21
124.7374491893554
 31
0.0
  0
LINE
  5
2C3
330
2BC
100
AcDbEntity
  8
0
 62
     0
100
AcDbLine
 10
-365.357667407135
 20
124.7374491893554
 30
0.0
 11
-365.357667407135
 21
124.7374491893554
 31
0.0
  0
LINE
  5
2C4
330
2BC
100
AcDbEntity
  8
0
 62
     0
100
AcDbLine
 10
-358.7576674071351
 20
124.7374491893554
 30
0.0
 11
-358.7576674071351
 21
124.7374491893554
 31
0.0
  0
LINE
  5
2C5
330
2BC
100
AcDbEntity
  8
0
 62
     0
100
AcDbLine
 10
-358.5576674071351
 20
124.7374491893554
 30
0.0
 11
-358.5576674071351
 21
124.7374491893554
 31
0.0
  0
LINE
  5
2C6
330
2BC
100
AcDbEntity
  8
0
 62
     0
100
AcDbLine
 10
-364.7576674071351
 20
124.7374491893554
 30
0.0
 11
-364.7576674071351
 21
124.7374491893554
 31
0.0
  0
LINE
  5
2C7
330
2BC
100
AcDbEntity
  8
0
 62
     0
100
AcDbLine
 10
-364.557667407135
 20
124.7374491893554
 30
0.0
 11
-364.557667407135
 21
124.7374491893554
 31
0.0
  0
LINE
  5
2C8
330
2BC
100
AcDbEntity
  8
0
 62
     0
100
AcDbLine
 10
-360.1576674071349
 20
124.7374491893554
 30
0.0
 11
-360.1576674071349
 21
124.7374491893554
 31
0.0
  0
LINE
  5
2C9
330
2BC
100
AcDbEntity
  8
0
 62
     0
100
AcDbLine
 10
-359.957667407135
 20
124.7374491893554
 30
0.0
 11
-359.957667407135
 21
124.7374491893554
 31
0.0
  0
LINE
  5
2CA
330
2BC
100
AcDbEntity
  8
0
 62
     0
100
AcDbLine
 10
-363.1576674071351
 20
124.7374491893554
 30
0.0
 11
-363.1576674071351
 21
124.7374491893554
 31
0.0
  0
LINE
  5
2CB
330
2BC
100
AcDbEntity
  8
0
 62
     0
100
AcDbLine
 10
-362.9576674071352
 20
124.7374491893554
 30
0.0
 11
-362.9576674071352
 21
124.7374491893554
 31
0.0
  0
LINE
  5
2CC
330
2BC
100
AcDbEntity
  8
0
 62
     0
100
AcDbLine
 10
-360.9576674071352
 20
124.7374491893554
 30
0.0
 11
-360.9576674071352
 21
124.7374491893554
 31
0.0
  0
LINE
  5
2CD
330
2BC
100
AcDbEntity
  8
0
 62
     0
100
AcDbLine
 10
-360.7576674071351
 20
124.7374491893554
 30
0.0
 11
-360.7576674071351
 21
124.7374491893554
 31
0.0
  0
LINE
  5
2CE
330
2BC
100
AcDbEntity
  8
0
 62
     0
100
AcDbLine
 10
-362.3576674071351
 20
124.7374491893554
 30
0.0
 11
-362.3576674071351
 21
124.7374491893554
 31
0.0
  0
LINE
  5
2CF
330
2BC
100
AcDbEntity
  8
0
 62
     0
100
AcDbLine
 10
-362.1576674071351
 20
124.7374491893554
 30
0.0
 11
-362.1576674071351
 21
124.7374491893554
 31
0.0
  0
LINE
  5
2D0
330
2BC
100
AcDbEntity
  8
0
 62
     0
100
AcDbLine
 10
-367.2576674071348
 20
124.9374491893554
 30
0.0
 11
-367.2576674071348
 21
124.9374491893554
 31
0.0
  0
LINE
  5
2D1
330
2BC
100
AcDbEntity
  8
0
 62
     0
100
AcDbLine
 10
-357.457667407135
 20
124.9374491893554
 30
0.0
 11
-357.457667407135
 21
124.9374491893554
 31
0.0
  0
LINE
  5
2D2
330
2BC
100
AcDbEntity
  8
0
 62
     0
100
AcDbLine
 10
-357.257667407135
 20
124.9374491893554
 30
0.0
 11
-357.257667407135
 21
124.9374491893554
 31
0.0
  0
LINE
  5
2D3
330
2BC
100
AcDbEntity
  8
0
 62
     0
100
AcDbLine
 10
-357.0576674071351
 20
124.9374491893554
 30
0.0
 11
-357.0576674071351
 21
124.9374491893554
 31
0.0
  0
LINE
  5
2D4
330
2BC
100
AcDbEntity
  8
0
 62
     0
100
AcDbLine
 10
-365.4576674071349
 20
124.9374491893554
 30
0.0
 11
-365.4576674071349
 21
124.9374491893554
 31
0.0
  0
LINE
  5
2D5
330
2BC
100
AcDbEntity
  8
0
 62
     0
100
AcDbLine
 10
-365.2576674071349
 20
124.9374491893554
 30
0.0
 11
-365.2576674071349
 21
124.9374491893554
 31
0.0
  0
LINE
  5
2D6
330
2BC
100
AcDbEntity
  8
0
 62
     0
100
AcDbLine
 10
-358.6576674071348
 20
124.9374491893554
 30
0.0
 11
-358.6576674071348
 21
124.9374491893554
 31
0.0
  0
LINE
  5
2D7
330
2BC
100
AcDbEntity
  8
0
 62
     0
100
AcDbLine
 10
-358.4576674071348
 20
124.9374491893554
 30
0.0
 11
-358.4576674071348
 21
124.9374491893554
 31
0.0
  0
LINE
  5
2D8
330
2BC
100
AcDbEntity
  8
0
 62
     0
100
AcDbLine
 10
-364.6576674071349
 20
124.9374491893554
 30
0.0
 11
-364.6576674071349
 21
124.9374491893554
 31
0.0
  0
LINE
  5
2D9
330
2BC
100
AcDbEntity
  8
0
 62
     0
100
AcDbLine
 10
-364.4576674071349
 20
124.9374491893554
 30
0.0
 11
-364.4576674071349
 21
124.9374491893554
 31
0.0
  0
LINE
  5
2DA
330
2BC
100
AcDbEntity
  8
0
 62
     0
100
AcDbLine
 10
-360.057667407135
 20
124.9374491893554
 30
0.0
 11
-360.057667407135
 21
124.9374491893554
 31
0.0
  0
LINE
  5
2DB
330
2BC
100
AcDbEntity
  8
0
 62
     0
100
AcDbLine
 10
-359.8576674071351
 20
124.9374491893554
 30
0.0
 11
-359.8576674071351
 21
124.9374491893554
 31
0.0
  0
LINE
  5
2DC
330
2BC
100
AcDbEntity
  8
0
 62
     0
100
AcDbLine
 10
-363.0576674071349
 20
124.9374491893554
 30
0.0
 11
-363.0576674071349
 21
124.9374491893554
 31
0.0
  0
LINE
  5
2DD
330
2BC
100
AcDbEntity
  8
0
 62
     0
100
AcDbLine
 10
-361.0576674071348
 20
124.9374491893554
 30
0.0
 11
-361.0576674071348
 21
124.9374491893554
 31
0.0
  0
LINE
  5
2DE
330
2BC
100
AcDbEntity
  8
0
 62
     0
100
AcDbLine
 10
-360.8576674071348
 20
124.9374491893554
 30
0.0
 11
-360.8576674071348
 21
124.9374491893554
 31
0.0
  0
LINE
  5
2DF
330
2BC
100
AcDbEntity
  8
0
 62
     0
100
AcDbLine
 10
-362.457667407135
 20
124.9374491893554
 30
0.0
 11
-362.457667407135
 21
124.9374491893554
 31
0.0
  0
LINE
  5
2E0
330
2BC
100
AcDbEntity
  8
0
 62
     0
100
AcDbLine
 10
-362.257667407135
 20
124.9374491893554
 30
0.0
 11
-362.257667407135
 21
124.9374491893554
 31
0.0
  0
LINE
  5
2E1
330
2BC
100
AcDbEntity
  8
0
 62
     0
100
AcDbLine
 10
-367.3576674071351
 20
125.1374491893554
 30
0.0
 11
-367.3576674071351
 21
125.1374491893554
 31
0.0
  0
LINE
  5
2E2
330
2BC
100
AcDbEntity
  8
0
 62
     0
100
AcDbLine
 10
-367.1576674071351
 20
125.1374491893554
 30
0.0
 11
-367.1576674071351
 21
125.1374491893554
 31
0.0
  0
LINE
  5
2E3
330
2BC
100
AcDbEntity
  8
0
 62
     0
100
AcDbLine
 10
-357.5576674071351
 20
125.1374491893554
 30
0.0
 11
-357.5576674071351
 21
125.1374491893554
 31
0.0
  0
LINE
  5
2E4
330
2BC
100
AcDbEntity
  8
0
 62
     0
100
AcDbLine
 10
-357.3576674071351
 20
125.1374491893554
 30
0.0
 11
-357.3576674071351
 21
125.1374491893554
 31
0.0
  0
LINE
  5
2E5
330
2BC
100
AcDbEntity
  8
0
 62
     0
100
AcDbLine
 10
-365.5576674071349
 20
125.1374491893554
 30
0.0
 11
-365.5576674071349
 21
125.1374491893554
 31
0.0
  0
LINE
  5
2E6
330
2BC
100
AcDbEntity
  8
0
 62
     0
100
AcDbLine
 10
-365.3576674071349
 20
125.1374491893554
 30
0.0
 11
-365.3576674071349
 21
125.1374491893554
 31
0.0
  0
LINE
  5
2E7
330
2BC
100
AcDbEntity
  8
0
 62
     0
100
AcDbLine
 10
-358.7576674071349
 20
125.1374491893554
 30
0.0
 11
-358.7576674071349
 21
125.1374491893554
 31
0.0
  0
LINE
  5
2E8
330
2BC
100
AcDbEntity
  8
0
 62
     0
100
AcDbLine
 10
-358.5576674071349
 20
125.1374491893554
 30
0.0
 11
-358.5576674071349
 21
125.1374491893554
 31
0.0
  0
LINE
  5
2E9
330
2BC
100
AcDbEntity
  8
0
 62
     0
100
AcDbLine
 10
-364.757667407135
 20
125.1374491893554
 30
0.0
 11
-364.757667407135
 21
125.1374491893554
 31
0.0
  0
LINE
  5
2EA
330
2BC
100
AcDbEntity
  8
0
 62
     0
100
AcDbLine
 10
-364.557667407135
 20
125.1374491893554
 30
0.0
 11
-364.557667407135
 21
125.1374491893554
 31
0.0
  0
LINE
  5
2EB
330
2BC
100
AcDbEntity
  8
0
 62
     0
100
AcDbLine
 10
-360.1576674071351
 20
125.1374491893554
 30
0.0
 11
-360.1576674071351
 21
125.1374491893554
 31
0.0
  0
LINE
  5
2EC
330
2BC
100
AcDbEntity
  8
0
 62
     0
100
AcDbLine
 10
-359.9576674071351
 20
125.1374491893554
 30
0.0
 11
-359.9576674071351
 21
125.1374491893554
 31
0.0
  0
LINE
  5
2ED
330
2BC
100
AcDbEntity
  8
0
 62
     0
100
AcDbLine
 10
-363.157667407135
 20
125.1374491893554
 30
0.0
 11
-363.157667407135
 21
125.1374491893554
 31
0.0
  0
LINE
  5
2EE
330
2BC
100
AcDbEntity
  8
0
 62
     0
100
AcDbLine
 10
-362.957667407135
 20
125.1374491893554
 30
0.0
 11
-362.957667407135
 21
125.1374491893554
 31
0.0
  0
LINE
  5
2EF
330
2BC
100
AcDbEntity
  8
0
 62
     0
100
AcDbLine
 10
-360.9576674071349
 20
125.1374491893554
 30
0.0
 11
-360.9576674071349
 21
125.1374491893554
 31
0.0
  0
LINE
  5
2F0
330
2BC
100
AcDbEntity
  8
0
 62
     0
100
AcDbLine
 10
-360.7576674071349
 20
125.1374491893554
 30
0.0
 11
-360.7576674071349
 21
125.1374491893554
 31
0.0
  0
LINE
  5
2F1
330
2BC
100
AcDbEntity
  8
0
 62
     0
100
AcDbLine
 10
-362.3576674071351
 20
125.1374491893554
 30
0.0
 11
-362.3576674071351
 21
125.1374491893554
 31
0.0
  0
LINE
  5
2F2
330
2BC
100
AcDbEntity
  8
0
 62
     0
100
AcDbLine
 10
-362.1576674071351
 20
125.1374491893554
 30
0.0
 11
-362.1576674071351
 21
125.1374491893554
 31
0.0
  0
LINE
  5
2F3
330
2BC
100
AcDbEntity
  8
0
 62
     0
100
AcDbLine
 10
-367.2576674071349
 20
125.3374491893554
 30
0.0
 11
-367.2576674071349
 21
125.3374491893554
 31
0.0
  0
LINE
  5
2F4
330
2BC
100
AcDbEntity
  8
0
 62
     0
100
AcDbLine
 10
-367.0576674071349
 20
125.3374491893554
 30
0.0
 11
-367.0576674071349
 21
125.3374491893554
 31
0.0
  0
LINE
  5
2F5
330
2BC
100
AcDbEntity
  8
0
 62
     0
100
AcDbLine
 10
-357.657667407135
 20
125.3374491893554
 30
0.0
 11
-357.657667407135
 21
125.3374491893554
 31
0.0
  0
LINE
  5
2F6
330
2BC
100
AcDbEntity
  8
0
 62
     0
100
AcDbLine
 10
-357.457667407135
 20
125.3374491893554
 30
0.0
 11
-357.457667407135
 21
125.3374491893554
 31
0.0
  0
LINE
  5
2F7
330
2BC
100
AcDbEntity
  8
0
 62
     0
100
AcDbLine
 10
-365.6576674071349
 20
125.3374491893554
 30
0.0
 11
-365.6576674071349
 21
125.3374491893554
 31
0.0
  0
LINE
  5
2F8
330
2BC
100
AcDbEntity
  8
0
 62
     0
100
AcDbLine
 10
-365.4576674071349
 20
125.3374491893554
 30
0.0
 11
-365.4576674071349
 21
125.3374491893554
 31
0.0
  0
LINE
  5
2F9
330
2BC
100
AcDbEntity
  8
0
 62
     0
100
AcDbLine
 10
-358.6576674071348
 20
125.3374491893554
 30
0.0
 11
-358.6576674071348
 21
125.3374491893554
 31
0.0
  0
LINE
  5
2FA
330
2BC
100
AcDbEntity
  8
0
 62
     0
100
AcDbLine
 10
-358.4576674071348
 20
125.3374491893554
 30
0.0
 11
-358.4576674071348
 21
125.3374491893554
 31
0.0
  0
LINE
  5
2FB
330
2BC
100
AcDbEntity
  8
0
 62
     0
100
AcDbLine
 10
-364.6576674071348
 20
125.3374491893554
 30
0.0
 11
-364.6576674071348
 21
125.3374491893554
 31
0.0
  0
LINE
  5
2FC
330
2BC
100
AcDbEntity
  8
0
 62
     0
100
AcDbLine
 10
-364.4576674071348
 20
125.3374491893554
 30
0.0
 11
-364.4576674071348
 21
125.3374491893554
 31
0.0
  0
LINE
  5
2FD
330
2BC
100
AcDbEntity
  8
0
 62
     0
100
AcDbLine
 10
-360.0576674071348
 20
125.3374491893554
 30
0.0
 11
-360.0576674071348
 21
125.3374491893554
 31
0.0
  0
LINE
  5
2FE
330
2BC
100
AcDbEntity
  8
0
 62
     0
100
AcDbLine
 10
-359.8576674071348
 20
125.3374491893554
 30
0.0
 11
-359.8576674071348
 21
125.3374491893554
 31
0.0
  0
LINE
  5
2FF
330
2BC
100
AcDbEntity
  8
0
 62
     0
100
AcDbLine
 10
-363.057667407135
 20
125.3374491893554
 30
0.0
 11
-363.057667407135
 21
125.3374491893554
 31
0.0
  0
LINE
  5
300
330
2BC
100
AcDbEntity
  8
0
 62
     0
100
AcDbLine
 10
-361.057667407135
 20
125.3374491893554
 30
0.0
 11
-361.057667407135
 21
125.3374491893554
 31
0.0
  0
LINE
  5
301
330
2BC
100
AcDbEntity
  8
0
 62
     0
100
AcDbLine
 10
-360.857667407135
 20
125.3374491893554
 30
0.0
 11
-360.857667407135
 21
125.3374491893554
 31
0.0
  0
LINE
  5
302
330
2BC
100
AcDbEntity
  8
0
 62
     0
100
AcDbLine
 10
-362.4576674071347
 20
125.3374491893554
 30
0.0
 11
-362.4576674071347
 21
125.3374491893554
 31
0.0
  0
LINE
  5
303
330
2BC
100
AcDbEntity
  8
0
 62
     0
100
AcDbLine
 10
-362.2576674071348
 20
125.3374491893554
 30
0.0
 11
-362.2576674071348
 21
125.3374491893554
 31
0.0
  0
LINE
  5
304
330
2BC
100
AcDbEntity
  8
0
 62
     0
100
AcDbLine
 10
-367.1576674071348
 20
125.5374491893554
 30
0.0
 11
-367.1576674071348
 21
125.5374491893554
 31
0.0
  0
LINE
  5
305
330
2BC
100
AcDbEntity
  8
0
 62
     0
100
AcDbLine
 10
-366.9576674071349
 20
125.5374491893554
 30
0.0
 11
-366.9576674071349
 21
125.5374491893554
 31
0.0
  0
LINE
  5
306
330
2BC
100
AcDbEntity
  8
0
 62
     0
100
AcDbLine
 10
-357.757667407135
 20
125.5374491893554
 30
0.0
 11
-357.757667407135
 21
125.5374491893554
 31
0.0
  0
LINE
  5
307
330
2BC
100
AcDbEntity
  8
0
 62
     0
100
AcDbLine
 10
-357.557667407135
 20
125.5374491893554
 30
0.0
 11
-357.557667407135
 21
125.5374491893554
 31
0.0
  0
LINE
  5
308
330
2BC
100
AcDbEntity
  8
0
 62
     0
100
AcDbLine
 10
-357.357667407135
 20
125.5374491893554
 30
0.0
 11
-357.357667407135
 21
125.5374491893554
 31
0.0
  0
LINE
  5
309
330
2BC
100
AcDbEntity
  8
0
 62
     0
100
AcDbLine
 10
-365.757667407135
 20
125.5374491893554
 30
0.0
 11
-365.757667407135
 21
125.5374491893554
 31
0.0
  0
LINE
  5
30A
330
2BC
100
AcDbEntity
  8
0
 62
     0
100
AcDbLine
 10
-365.5576674071349
 20
125.5374491893554
 30
0.0
 11
-365.5576674071349
 21
125.5374491893554
 31
0.0
  0
LINE
  5
30B
330
2BC
100
AcDbEntity
  8
0
 62
     0
100
AcDbLine
 10
-358.757667407135
 20
125.5374491893554
 30
0.0
 11
-358.757667407135
 21
125.5374491893554
 31
0.0
  0
LINE
  5
30C
330
2BC
100
AcDbEntity
  8
0
 62
     0
100
AcDbLine
 10
-358.557667407135
 20
125.5374491893554
 30
0.0
 11
-358.557667407135
 21
125.5374491893554
 31
0.0
  0
LINE
  5
30D
330
2BC
100
AcDbEntity
  8
0
 62
     0
100
AcDbLine
 10
-364.7576674071349
 20
125.5374491893554
 30
0.0
 11
-364.7576674071349
 21
125.5374491893554
 31
0.0
  0
LINE
  5
30E
330
2BC
100
AcDbEntity
  8
0
 62
     0
100
AcDbLine
 10
-364.5576674071349
 20
125.5374491893554
 30
0.0
 11
-364.5576674071349
 21
125.5374491893554
 31
0.0
  0
LINE
  5
30F
330
2BC
100
AcDbEntity
  8
0
 62
     0
100
AcDbLine
 10
-360.1576674071349
 20
125.5374491893554
 30
0.0
 11
-360.1576674071349
 21
125.5374491893554
 31
0.0
  0
LINE
  5
310
330
2BC
100
AcDbEntity
  8
0
 62
     0
100
AcDbLine
 10
-359.9576674071349
 20
125.5374491893554
 30
0.0
 11
-359.9576674071349
 21
125.5374491893554
 31
0.0
  0
LINE
  5
311
330
2BC
100
AcDbEntity
  8
0
 62
     0
100
AcDbLine
 10
-363.157667407135
 20
125.5374491893554
 30
0.0
 11
-363.157667407135
 21
125.5374491893554
 31
0.0
  0
LINE
  5
312
330
2BC
100
AcDbEntity
  8
0
 62
     0
100
AcDbLine
 10
-362.957667407135
 20
125.5374491893554
 30
0.0
 11
-362.957667407135
 21
125.5374491893554
 31
0.0
  0
LINE
  5
313
330
2BC
100
AcDbEntity
  8
0
 62
     0
100
AcDbLine
 10
-360.9576674071351
 20
125.5374491893554
 30
0.0
 11
-360.9576674071351
 21
125.5374491893554
 31
0.0
  0
LINE
  5
314
330
2BC
100
AcDbEntity
  8
0
 62
     0
100
AcDbLine
 10
-360.7576674071351
 20
125.5374491893554
 30
0.0
 11
-360.7576674071351
 21
125.5374491893554
 31
0.0
  0
LINE
  5
315
330
2BC
100
AcDbEntity
  8
0
 62
     0
100
AcDbLine
 10
-362.3576674071348
 20
125.5374491893554
 30
0.0
 11
-362.3576674071348
 21
125.5374491893554
 31
0.0
  0
LINE
  5
316
330
2BC
100
AcDbEntity
  8
0
 62
     0
100
AcDbLine
 10
-362.1576674071349
 20
125.5374491893554
 30
0.0
 11
-362.1576674071349
 21
125.5374491893554
 31
0.0
  0
LINE
  5
317
330
2BC
100
AcDbEntity
  8
0
 62
     0
100
AcDbLine
 10
-367.0576674071351
 20
125.7374491893554
 30
0.0
 11
-367.0576674071351
 21
125.7374491893554
 31
0.0
  0
LINE
  5
318
330
2BC
100
AcDbEntity
  8
0
 62
     0
100
AcDbLine
 10
-366.8576674071351
 20
125.7374491893554
 30
0.0
 11
-366.8576674071351
 21
125.7374491893554
 31
0.0
  0
LINE
  5
319
330
2BC
100
AcDbEntity
  8
0
 62
     0
100
AcDbLine
 10
-366.6576674071351
 20
125.7374491893554
 30
0.0
 11
-366.6576674071351
 21
125.7374491893554
 31
0.0
  0
LINE
  5
31A
330
2BC
100
AcDbEntity
  8
0
 62
     0
100
AcDbLine
 10
-357.8576674071351
 20
125.7374491893554
 30
0.0
 11
-357.8576674071351
 21
125.7374491893554
 31
0.0
  0
LINE
  5
31B
330
2BC
100
AcDbEntity
  8
0
 62
     0
100
AcDbLine
 10
-357.6576674071351
 20
125.7374491893554
 30
0.0
 11
-357.6576674071351
 21
125.7374491893554
 31
0.0
  0
LINE
  5
31C
330
2BC
100
AcDbEntity
  8
0
 62
     0
100
AcDbLine
 10
-357.4576674071352
 20
125.7374491893554
 30
0.0
 11
-357.4576674071352
 21
125.7374491893554
 31
0.0
  0
LINE
  5
31D
330
2BC
100
AcDbEntity
  8
0
 62
     0
100
AcDbLine
 10
-365.857667407135
 20
125.7374491893554
 30
0.0
 11
-365.857667407135
 21
125.7374491893554
 31
0.0
  0
LINE
  5
31E
330
2BC
100
AcDbEntity
  8
0
 62
     0
100
AcDbLine
 10
-365.657667407135
 20
125.7374491893554
 30
0.0
 11
-365.657667407135
 21
125.7374491893554
 31
0.0
  0
LINE
  5
31F
330
2BC
100
AcDbEntity
  8
0
 62
     0
100
AcDbLine
 10
-365.457667407135
 20
125.7374491893554
 30
0.0
 11
-365.457667407135
 21
125.7374491893554
 31
0.0
  0
LINE
  5
320
330
2BC
100
AcDbEntity
  8
0
 62
     0
100
AcDbLine
 10
-358.6576674071352
 20
125.7374491893554
 30
0.0
 11
-358.6576674071352
 21
125.7374491893554
 31
0.0
  0
LINE
  5
321
330
2BC
100
AcDbEntity
  8
0
 62
     0
100
AcDbLine
 10
-358.4576674071351
 20
125.7374491893554
 30
0.0
 11
-358.4576674071351
 21
125.7374491893554
 31
0.0
  0
LINE
  5
322
330
2BC
100
AcDbEntity
  8
0
 62
     0
100
AcDbLine
 10
-364.657667407135
 20
125.7374491893554
 30
0.0
 11
-364.657667407135
 21
125.7374491893554
 31
0.0
  0
LINE
  5
323
330
2BC
100
AcDbEntity
  8
0
 62
     0
100
AcDbLine
 10
-364.457667407135
 20
125.7374491893554
 30
0.0
 11
-364.457667407135
 21
125.7374491893554
 31
0.0
  0
LINE
  5
324
330
2BC
100
AcDbEntity
  8
0
 62
     0
100
AcDbLine
 10
-360.057667407135
 20
125.7374491893554
 30
0.0
 11
-360.057667407135
 21
125.7374491893554
 31
0.0
  0
LINE
  5
325
330
2BC
100
AcDbEntity
  8
0
 62
     0
100
AcDbLine
 10
-359.8576674071349
 20
125.7374491893554
 30
0.0
 11
-359.8576674071349
 21
125.7374491893554
 31
0.0
  0
LINE
  5
326
330
2BC
100
AcDbEntity
  8
0
 62
     0
100
AcDbLine
 10
-363.2576674071351
 20
125.7374491893554
 30
0.0
 11
-363.2576674071351
 21
125.7374491893554
 31
0.0
  0
LINE
  5
327
330
2BC
100
AcDbEntity
  8
0
 62
     0
100
AcDbLine
 10
-363.0576674071351
 20
125.7374491893554
 30
0.0
 11
-363.0576674071351
 21
125.7374491893554
 31
0.0
  0
LINE
  5
328
330
2BC
100
AcDbEntity
  8
0
 62
     0
100
AcDbLine
 10
-361.0576674071352
 20
125.7374491893554
 30
0.0
 11
-361.0576674071352
 21
125.7374491893554
 31
0.0
  0
LINE
  5
329
330
2BC
100
AcDbEntity
  8
0
 62
     0
100
AcDbLine
 10
-360.8576674071352
 20
125.7374491893554
 30
0.0
 11
-360.8576674071352
 21
125.7374491893554
 31
0.0
  0
LINE
  5
32A
330
2BC
100
AcDbEntity
  8
0
 62
     0
100
AcDbLine
 10
-362.457667407135
 20
125.7374491893554
 30
0.0
 11
-362.457667407135
 21
125.7374491893554
 31
0.0
  0
LINE
  5
32B
330
2BC
100
AcDbEntity
  8
0
 62
     0
100
AcDbLine
 10
-362.257667407135
 20
125.7374491893554
 30
0.0
 11
-362.257667407135
 21
125.7374491893554
 31
0.0
  0
LINE
  5
32C
330
2BC
100
AcDbEntity
  8
0
 62
     0
100
AcDbLine
 10
-366.957667407135
 20
125.9374491893554
 30
0.0
 11
-366.957667407135
 21
125.9374491893554
 31
0.0
  0
LINE
  5
32D
330
2BC
100
AcDbEntity
  8
0
 62
     0
100
AcDbLine
 10
-366.757667407135
 20
125.9374491893554
 30
0.0
 11
-366.757667407135
 21
125.9374491893554
 31
0.0
  0
LINE
  5
32E
330
2BC
100
AcDbEntity
  8
0
 62
     0
100
AcDbLine
 10
-366.557667407135
 20
125.9374491893554
 30
0.0
 11
-366.557667407135
 21
125.9374491893554
 31
0.0
  0
LINE
  5
32F
330
2BC
100
AcDbEntity
  8
0
 62
     0
100
AcDbLine
 10
-366.357667407135
 20
125.9374491893554
 30
0.0
 11
-366.357667407135
 21
125.9374491893554
 31
0.0
  0
LINE
  5
330
330
2BC
100
AcDbEntity
  8
0
 62
     0
100
AcDbLine
 10
-366.157667407135
 20
125.9374491893554
 30
0.0
 11
-366.157667407135
 21
125.9374491893554
 31
0.0
  0
LINE
  5
331
330
2BC
100
AcDbEntity
  8
0
 62
     0
100
AcDbLine
 10
-365.957667407135
 20
125.9374491893554
 30
0.0
 11
-365.957667407135
 21
125.9374491893554
 31
0.0
  0
LINE
  5
332
330
2BC
100
AcDbEntity
  8
0
 62
     0
100
AcDbLine
 10
-365.757667407135
 20
125.9374491893554
 30
0.0
 11
-365.757667407135
 21
125.9374491893554
 31
0.0
  0
LINE
  5
333
330
2BC
100
AcDbEntity
  8
0
 62
     0
100
AcDbLine
 10
-357.7576674071349
 20
125.9374491893554
 30
0.0
 11
-357.7576674071349
 21
125.9374491893554
 31
0.0
  0
LINE
  5
334
330
2BC
100
AcDbEntity
  8
0
 62
     0
100
AcDbLine
 10
-357.5576674071349
 20
125.9374491893554
 30
0.0
 11
-357.5576674071349
 21
125.9374491893554
 31
0.0
  0
LINE
  5
335
330
2BC
100
AcDbEntity
  8
0
 62
     0
100
AcDbLine
 10
-357.3576674071349
 20
125.9374491893554
 30
0.0
 11
-357.3576674071349
 21
125.9374491893554
 31
0.0
  0
LINE
  5
336
330
2BC
100
AcDbEntity
  8
0
 62
     0
100
AcDbLine
 10
-357.1576674071349
 20
125.9374491893554
 30
0.0
 11
-357.1576674071349
 21
125.9374491893554
 31
0.0
  0
LINE
  5
337
330
2BC
100
AcDbEntity
  8
0
 62
     0
100
AcDbLine
 10
-356.9576674071349
 20
125.9374491893554
 30
0.0
 11
-356.9576674071349
 21
125.9374491893554
 31
0.0
  0
LINE
  5
338
330
2BC
100
AcDbEntity
  8
0
 62
     0
100
AcDbLine
 10
-364.757667407135
 20
125.9374491893554
 30
0.0
 11
-364.757667407135
 21
125.9374491893554
 31
0.0
  0
LINE
  5
339
330
2BC
100
AcDbEntity
  8
0
 62
     0
100
AcDbLine
 10
-364.557667407135
 20
125.9374491893554
 30
0.0
 11
-364.557667407135
 21
125.9374491893554
 31
0.0
  0
LINE
  5
33A
330
2BC
100
AcDbEntity
  8
0
 62
     0
100
AcDbLine
 10
-364.357667407135
 20
125.9374491893554
 30
0.0
 11
-364.357667407135
 21
125.9374491893554
 31
0.0
  0
LINE
  5
33B
330
2BC
100
AcDbEntity
  8
0
 62
     0
100
AcDbLine
 10
-364.157667407135
 20
125.9374491893554
 30
0.0
 11
-364.157667407135
 21
125.9374491893554
 31
0.0
  0
LINE
  5
33C
330
2BC
100
AcDbEntity
  8
0
 62
     0
100
AcDbLine
 10
-363.957667407135
 20
125.9374491893554
 30
0.0
 11
-363.957667407135
 21
125.9374491893554
 31
0.0
  0
LINE
  5
33D
330
2BC
100
AcDbEntity
  8
0
 62
     0
100
AcDbLine
 10
-363.757667407135
 20
125.9374491893554
 30
0.0
 11
-363.757667407135
 21
125.9374491893554
 31
0.0
  0
LINE
  5
33E
330
2BC
100
AcDbEntity
  8
0
 62
     0
100
AcDbLine
 10
-363.5576674071351
 20
125.9374491893554
 30
0.0
 11
-363.5576674071351
 21
125.9374491893554
 31
0.0
  0
LINE
  5
33F
330
2BC
100
AcDbEntity
  8
0
 62
     0
100
AcDbLine
 10
-363.3576674071351
 20
125.9374491893554
 30
0.0
 11
-363.3576674071351
 21
125.9374491893554
 31
0.0
  0
LINE
  5
340
330
2BC
100
AcDbEntity
  8
0
 62
     0
100
AcDbLine
 10
-363.1576674071351
 20
125.9374491893554
 30
0.0
 11
-363.1576674071351
 21
125.9374491893554
 31
0.0
  0
LINE
  5
341
330
2BC
100
AcDbEntity
  8
0
 62
     0
100
AcDbLine
 10
-358.757667407135
 20
125.9374491893554
 30
0.0
 11
-358.757667407135
 21
125.9374491893554
 31
0.0
  0
LINE
  5
342
330
2BC
100
AcDbEntity
  8
0
 62
     0
100
AcDbLine
 10
-358.557667407135
 20
125.9374491893554
 30
0.0
 11
-358.557667407135
 21
125.9374491893554
 31
0.0
  0
LINE
  5
343
330
2BC
100
AcDbEntity
  8
0
 62
     0
100
AcDbLine
 10
-362.357667407135
 20
125.9374491893554
 30
0.0
 11
-362.357667407135
 21
125.9374491893554
 31
0.0
  0
LINE
  5
344
330
2BC
100
AcDbEntity
  8
0
 62
     0
100
AcDbLine
 10
-362.1576674071349
 20
125.9374491893554
 30
0.0
 11
-362.1576674071349
 21
125.9374491893554
 31
0.0
  0
LINE
  5
345
330
2BC
100
AcDbEntity
  8
0
 62
     0
100
AcDbLine
 10
-361.957667407135
 20
125.9374491893554
 30
0.0
 11
-361.957667407135
 21
125.9374491893554
 31
0.0
  0
LINE
  5
346
330
2BC
100
AcDbEntity
  8
0
 62
     0
100
AcDbLine
 10
-361.757667407135
 20
125.9374491893554
 30
0.0
 11
-361.757667407135
 21
125.9374491893554
 31
0.0
  0
LINE
  5
347
330
2BC
100
AcDbEntity
  8
0
 62
     0
100
AcDbLine
 10
-361.557667407135
 20
125.9374491893554
 30
0.0
 11
-361.557667407135
 21
125.9374491893554
 31
0.0
  0
LINE
  5
348
330
2BC
100
AcDbEntity
  8
0
 62
     0
100
AcDbLine
 10
-361.357667407135
 20
125.9374491893554
 30
0.0
 11
-361.357667407135
 21
125.9374491893554
 31
0.0
  0
LINE
  5
349
330
2BC
100
AcDbEntity
  8
0
 62
     0
100
AcDbLine
 10
-361.157667407135
 20
125.9374491893554
 30
0.0
 11
-361.157667407135
 21
125.9374491893554
 31
0.0
  0
LINE
  5
34A
330
2BC
100
AcDbEntity
  8
0
 62
     0
100
AcDbLine
 10
-360.957667407135
 20
125.9374491893554
 30
0.0
 11
-360.957667407135
 21
125.9374491893554
 31
0.0
  0
LINE
  5
34B
330
2BC
100
AcDbEntity
  8
0
 62
     0
100
AcDbLine
 10
-360.7576674071351
 20
125.9374491893554
 30
0.0
 11
-360.7576674071351
 21
125.9374491893554
 31
0.0
  0
LINE
  5
34C
330
2BC
100
AcDbEntity
  8
0
 62
     0
100
AcDbLine
 10
-360.157667407135
 20
125.9374491893554
 30
0.0
 11
-360.157667407135
 21
125.9374491893554
 31
0.0
  0
LINE
  5
34D
330
2BC
100
AcDbEntity
  8
0
 62
     0
100
AcDbLine
 10
-359.9576674071351
 20
125.9374491893554
 30
0.0
 11
-359.9576674071351
 21
125.9374491893554
 31
0.0
  0
LINE
  5
34E
330
2BC
100
AcDbEntity
  8
0
 62
     0
100
AcDbLine
 10
-366.8576674071351
 20
126.1374491893554
 30
0.0
 11
-366.8576674071351
 21
126.1374491893554
 31
0.0
  0
LINE
  5
34F
330
2BC
100
AcDbEntity
  8
0
 62
     0
100
AcDbLine
 10
-366.6576674071351
 20
126.1374491893554
 30
0.0
 11
-366.6576674071351
 21
126.1374491893554
 31
0.0
  0
LINE
  5
350
330
2BC
100
AcDbEntity
  8
0
 62
     0
100
AcDbLine
 10
-366.4576674071351
 20
126.1374491893554
 30
0.0
 11
-366.4576674071351
 21
126.1374491893554
 31
0.0
  0
LINE
  5
351
330
2BC
100
AcDbEntity
  8
0
 62
     0
100
AcDbLine
 10
-366.2576674071352
 20
126.1374491893554
 30
0.0
 11
-366.2576674071352
 21
126.1374491893554
 31
0.0
  0
LINE
  5
352
330
2BC
100
AcDbEntity
  8
0
 62
     0
100
AcDbLine
 10
-366.0576674071352
 20
126.1374491893554
 30
0.0
 11
-366.0576674071352
 21
126.1374491893554
 31
0.0
  0
LINE
  5
353
330
2BC
100
AcDbEntity
  8
0
 62
     0
100
AcDbLine
 10
-365.8576674071352
 20
126.1374491893554
 30
0.0
 11
-365.8576674071352
 21
126.1374491893554
 31
0.0
  0
LINE
  5
354
330
2BC
100
AcDbEntity
  8
0
 62
     0
100
AcDbLine
 10
-357.657667407135
 20
126.1374491893554
 30
0.0
 11
-357.657667407135
 21
126.1374491893554
 31
0.0
  0
LINE
  5
355
330
2BC
100
AcDbEntity
  8
0
 62
     0
100
AcDbLine
 10
-357.457667407135
 20
126.1374491893554
 30
0.0
 11
-357.457667407135
 21
126.1374491893554
 31
0.0
  0
LINE
  5
356
330
2BC
100
AcDbEntity
  8
0
 62
     0
100
AcDbLine
 10
-357.257667407135
 20
126.1374491893554
 30
0.0
 11
-357.257667407135
 21
126.1374491893554
 31
0.0
  0
LINE
  5
357
330
2BC
100
AcDbEntity
  8
0
 62
     0
100
AcDbLine
 10
-357.057667407135
 20
126.1374491893554
 30
0.0
 11
-357.057667407135
 21
126.1374491893554
 31
0.0
  0
LINE
  5
358
330
2BC
100
AcDbEntity
  8
0
 62
     0
100
AcDbLine
 10
-364.657667407135
 20
126.1374491893554
 30
0.0
 11
-364.657667407135
 21
126.1374491893554
 31
0.0
  0
LINE
  5
359
330
2BC
100
AcDbEntity
  8
0
 62
     0
100
AcDbLine
 10
-364.457667407135
 20
126.1374491893554
 30
0.0
 11
-364.457667407135
 21
126.1374491893554
 31
0.0
  0
LINE
  5
35A
330
2BC
100
AcDbEntity
  8
0
 62
     0
100
AcDbLine
 10
-364.257667407135
 20
126.1374491893554
 30
0.0
 11
-364.257667407135
 21
126.1374491893554
 31
0.0
  0
LINE
  5
35B
330
2BC
100
AcDbEntity
  8
0
 62
     0
100
AcDbLine
 10
-364.057667407135
 20
126.1374491893554
 30
0.0
 11
-364.057667407135
 21
126.1374491893554
 31
0.0
  0
LINE
  5
35C
330
2BC
100
AcDbEntity
  8
0
 62
     0
100
AcDbLine
 10
-363.8576674071351
 20
126.1374491893554
 30
0.0
 11
-363.8576674071351
 21
126.1374491893554
 31
0.0
  0
LINE
  5
35D
330
2BC
100
AcDbEntity
  8
0
 62
     0
100
AcDbLine
 10
-363.6576674071351
 20
126.1374491893554
 30
0.0
 11
-363.6576674071351
 21
126.1374491893554
 31
0.0
  0
LINE
  5
35E
330
2BC
100
AcDbEntity
  8
0
 62
     0
100
AcDbLine
 10
-363.4576674071351
 20
126.1374491893554
 30
0.0
 11
-363.4576674071351
 21
126.1374491893554
 31
0.0
  0
LINE
  5
35F
330
2BC
100
AcDbEntity
  8
0
 62
     0
100
AcDbLine
 10
-363.2576674071351
 20
126.1374491893554
 30
0.0
 11
-363.2576674071351
 21
126.1374491893554
 31
0.0
  0
LINE
  5
360
330
2BC
100
AcDbEntity
  8
0
 62
     0
100
AcDbLine
 10
-358.6576674071352
 20
126.1374491893554
 30
0.0
 11
-358.6576674071352
 21
126.1374491893554
 31
0.0
  0
LINE
  5
361
330
2BC
100
AcDbEntity
  8
0
 62
     0
100
AcDbLine
 10
-358.4576674071351
 20
126.1374491893554
 30
0.0
 11
-358.4576674071351
 21
126.1374491893554
 31
0.0
  0
LINE
  5
362
330
2BC
100
AcDbEntity
  8
0
 62
     0
100
AcDbLine
 10
-362.4576674071351
 20
126.1374491893554
 30
0.0
 11
-362.4576674071351
 21
126.1374491893554
 31
0.0
  0
LINE
  5
363
330
2BC
100
AcDbEntity
  8
0
 62
     0
100
AcDbLine
 10
-362.2576674071352
 20
126.1374491893554
 30
0.0
 11
-362.2576674071352
 21
126.1374491893554
 31
0.0
  0
LINE
  5
364
330
2BC
100
AcDbEntity
  8
0
 62
     0
100
AcDbLine
 10
-362.0576674071352
 20
126.1374491893554
 30
0.0
 11
-362.0576674071352
 21
126.1374491893554
 31
0.0
  0
LINE
  5
365
330
2BC
100
AcDbEntity
  8
0
 62
     0
100
AcDbLine
 10
-361.8576674071352
 20
126.1374491893554
 30
0.0
 11
-361.8576674071352
 21
126.1374491893554
 31
0.0
  0
LINE
  5
366
330
2BC
100
AcDbEntity
  8
0
 62
     0
100
AcDbLine
 10
-361.6576674071352
 20
126.1374491893554
 30
0.0
 11
-361.6576674071352
 21
126.1374491893554
 31
0.0
  0
LINE
  5
367
330
2BC
100
AcDbEntity
  8
0
 62
     0
100
AcDbLine
 10
-361.4576674071352
 20
126.1374491893554
 30
0.0
 11
-361.4576674071352
 21
126.1374491893554
 31
0.0
  0
LINE
  5
368
330
2BC
100
AcDbEntity
  8
0
 62
     0
100
AcDbLine
 10
-361.2576674071352
 20
126.1374491893554
 30
0.0
 11
-361.2576674071352
 21
126.1374491893554
 31
0.0
  0
LINE
  5
369
330
2BC
100
AcDbEntity
  8
0
 62
     0
100
AcDbLine
 10
-361.0576674071352
 20
126.1374491893554
 30
0.0
 11
-361.0576674071352
 21
126.1374491893554
 31
0.0
  0
LINE
  5
36A
330
2BC
100
AcDbEntity
  8
0
 62
     0
100
AcDbLine
 10
-360.8576674071352
 20
126.1374491893554
 30
0.0
 11
-360.8576674071352
 21
126.1374491893554
 31
0.0
  0
LINE
  5
36B
330
2BC
100
AcDbEntity
  8
0
 62
     0
100
AcDbLine
 10
-360.0576674071351
 20
126.1374491893554
 30
0.0
 11
-360.0576674071351
 21
126.1374491893554
 31
0.0
  0
LINE
  5
36C
330
2BC
100
AcDbEntity
  8
0
 62
     0
100
AcDbLine
 10
-359.8576674071351
 20
126.1374491893554
 30
0.0
 11
-359.8576674071351
 21
126.1374491893554
 31
0.0
  0
LINE
  5
36D
330
2BC
100
AcDbEntity
  8
0
 62
     0
100
AcDbLine
 10
-367.2576674071351
 20
124.5374491893554
 30
0.0
 11
-367.2576674071351
 21
124.5374491893554
 31
0.0
  0
LINE
  5
36E
330
2BC
100
AcDbEntity
  8
0
 62
     0
100
AcDbLine
 10
-367.0576674071351
 20
124.5374491893554
 30
0.0
 11
-367.0576674071351
 21
124.5374491893554
 31
0.0
  0
LINE
  5
36F
330
2BC
100
AcDbEntity
  8
0
 62
     0
100
AcDbLine
 10
-356.8576674071351
 20
124.5374491893554
 30
0.0
 11
-356.8576674071351
 21
124.5374491893554
 31
0.0
  0
LINE
  5
370
330
2BC
100
AcDbEntity
  8
0
 62
     0
100
AcDbLine
 10
-356.6576674071351
 20
124.5374491893554
 30
0.0
 11
-356.6576674071351
 21
124.5374491893554
 31
0.0
  0
LINE
  5
371
330
2BC
100
AcDbEntity
  8
0
 62
     0
100
AcDbLine
 10
-365.457667407135
 20
124.5374491893554
 30
0.0
 11
-365.457667407135
 21
124.5374491893554
 31
0.0
  0
LINE
  5
372
330
2BC
100
AcDbEntity
  8
0
 62
     0
100
AcDbLine
 10
-358.657667407135
 20
124.5374491893554
 30
0.0
 11
-358.657667407135
 21
124.5374491893554
 31
0.0
  0
LINE
  5
373
330
2BC
100
AcDbEntity
  8
0
 62
     0
100
AcDbLine
 10
-358.457667407135
 20
124.5374491893554
 30
0.0
 11
-358.457667407135
 21
124.5374491893554
 31
0.0
  0
LINE
  5
374
330
2BC
100
AcDbEntity
  8
0
 62
     0
100
AcDbLine
 10
-364.657667407135
 20
124.5374491893554
 30
0.0
 11
-364.657667407135
 21
124.5374491893554
 31
0.0
  0
LINE
  5
375
330
2BC
100
AcDbEntity
  8
0
 62
     0
100
AcDbLine
 10
-364.457667407135
 20
124.5374491893554
 30
0.0
 11
-364.457667407135
 21
124.5374491893554
 31
0.0
  0
LINE
  5
376
330
2BC
100
AcDbEntity
  8
0
 62
     0
100
AcDbLine
 10
-360.0576674071348
 20
124.5374491893554
 30
0.0
 11
-360.0576674071348
 21
124.5374491893554
 31
0.0
  0
LINE
  5
377
330
2BC
100
AcDbEntity
  8
0
 62
     0
100
AcDbLine
 10
-359.8576674071348
 20
124.5374491893554
 30
0.0
 11
-359.8576674071348
 21
124.5374491893554
 31
0.0
  0
LINE
  5
378
330
2BC
100
AcDbEntity
  8
0
 62
     0
100
AcDbLine
 10
-363.257667407135
 20
124.5374491893554
 30
0.0
 11
-363.257667407135
 21
124.5374491893554
 31
0.0
  0
LINE
  5
379
330
2BC
100
AcDbEntity
  8
0
 62
     0
100
AcDbLine
 10
-363.057667407135
 20
124.5374491893554
 30
0.0
 11
-363.057667407135
 21
124.5374491893554
 31
0.0
  0
LINE
  5
37A
330
2BC
100
AcDbEntity
  8
0
 62
     0
100
AcDbLine
 10
-361.0576674071351
 20
124.5374491893554
 30
0.0
 11
-361.0576674071351
 21
124.5374491893554
 31
0.0
  0
LINE
  5
37B
330
2BC
100
AcDbEntity
  8
0
 62
     0
100
AcDbLine
 10
-360.8576674071351
 20
124.5374491893554
 30
0.0
 11
-360.8576674071351
 21
124.5374491893554
 31
0.0
  0
LINE
  5
37C
330
2BC
100
AcDbEntity
  8
0
 62
     0
100
AcDbLine
 10
-362.457667407135
 20
124.5374491893554
 30
0.0
 11
-362.457667407135
 21
124.5374491893554
 31
0.0
  0
LINE
  5
37D
330
2BC
100
AcDbEntity
  8
0
 62
     0
100
AcDbLine
 10
-362.257667407135
 20
124.5374491893554
 30
0.0
 11
-362.257667407135
 21
124.5374491893554
 31
0.0
  0
LINE
  5
37E
330
2BC
100
AcDbEntity
  8
0
 62
     0
100
AcDbLine
 10
-367.157667407135
 20
124.3374491893554
 30
0.0
 11
-367.157667407135
 21
124.3374491893554
 31
0.0
  0
LINE
  5
37F
330
2BC
100
AcDbEntity
  8
0
 62
     0
100
AcDbLine
 10
-356.7576674071349
 20
124.3374491893554
 30
0.0
 11
-356.7576674071349
 21
124.3374491893554
 31
0.0
  0
LINE
  5
380
330
2BC
100
AcDbEntity
  8
0
 62
     0
100
AcDbLine
 10
-356.5576674071349
 20
124.3374491893554
 30
0.0
 11
-356.5576674071349
 21
124.3374491893554
 31
0.0
  0
LINE
  5
381
330
2BC
100
AcDbEntity
  8
0
 62
     0
100
AcDbLine
 10
-365.5576674071348
 20
124.3374491893554
 30
0.0
 11
-365.5576674071348
 21
124.3374491893554
 31
0.0
  0
LINE
  5
382
330
2BC
100
AcDbEntity
  8
0
 62
     0
100
AcDbLine
 10
-365.3576674071348
 20
124.3374491893554
 30
0.0
 11
-365.3576674071348
 21
124.3374491893554
 31
0.0
  0
LINE
  5
383
330
2BC
100
AcDbEntity
  8
0
 62
     0
100
AcDbLine
 10
-358.7576674071349
 20
124.3374491893554
 30
0.0
 11
-358.7576674071349
 21
124.3374491893554
 31
0.0
  0
LINE
  5
384
330
2BC
100
AcDbEntity
  8
0
 62
     0
100
AcDbLine
 10
-358.5576674071349
 20
124.3374491893554
 30
0.0
 11
-358.5576674071349
 21
124.3374491893554
 31
0.0
  0
LINE
  5
385
330
2BC
100
AcDbEntity
  8
0
 62
     0
100
AcDbLine
 10
-364.7576674071349
 20
124.3374491893554
 30
0.0
 11
-364.7576674071349
 21
124.3374491893554
 31
0.0
  0
LINE
  5
386
330
2BC
100
AcDbEntity
  8
0
 62
     0
100
AcDbLine
 10
-364.5576674071349
 20
124.3374491893554
 30
0.0
 11
-364.5576674071349
 21
124.3374491893554
 31
0.0
  0
LINE
  5
387
330
2BC
100
AcDbEntity
  8
0
 62
     0
100
AcDbLine
 10
-364.357667407135
 20
124.3374491893554
 30
0.0
 11
-364.357667407135
 21
124.3374491893554
 31
0.0
  0
LINE
  5
388
330
2BC
100
AcDbEntity
  8
0
 62
     0
100
AcDbLine
 10
-364.1576674071349
 20
124.3374491893554
 30
0.0
 11
-364.1576674071349
 21
124.3374491893554
 31
0.0
  0
LINE
  5
389
330
2BC
100
AcDbEntity
  8
0
 62
     0
100
AcDbLine
 10
-363.957667407135
 20
124.3374491893554
 30
0.0
 11
-363.957667407135
 21
124.3374491893554
 31
0.0
  0
LINE
  5
38A
330
2BC
100
AcDbEntity
  8
0
 62
     0
100
AcDbLine
 10
-363.757667407135
 20
124.3374491893554
 30
0.0
 11
-363.757667407135
 21
124.3374491893554
 31
0.0
  0
LINE
  5
38B
330
2BC
100
AcDbEntity
  8
0
 62
     0
100
AcDbLine
 10
-363.557667407135
 20
124.3374491893554
 30
0.0
 11
-363.557667407135
 21
124.3374491893554
 31
0.0
  0
LINE
  5
38C
330
2BC
100
AcDbEntity
  8
0
 62
     0
100
AcDbLine
 10
-363.357667407135
 20
124.3374491893554
 30
0.0
 11
-363.357667407135
 21
124.3374491893554
 31
0.0
  0
LINE
  5
38D
330
2BC
100
AcDbEntity
  8
0
 62
     0
100
AcDbLine
 10
-363.157667407135
 20
124.3374491893554
 30
0.0
 11
-363.157667407135
 21
124.3374491893554
 31
0.0
  0
LINE
  5
38E
330
2BC
100
AcDbEntity
  8
0
 62
     0
100
AcDbLine
 10
-360.1576674071347
 20
124.3374491893554
 30
0.0
 11
-360.1576674071347
 21
124.3374491893554
 31
0.0
  0
LINE
  5
38F
330
2BC
100
AcDbEntity
  8
0
 62
     0
100
AcDbLine
 10
-359.9576674071347
 20
124.3374491893554
 30
0.0
 11
-359.9576674071347
 21
124.3374491893554
 31
0.0
  0
LINE
  5
390
330
2BC
100
AcDbEntity
  8
0
 62
     0
100
AcDbLine
 10
-362.3576674071349
 20
124.3374491893554
 30
0.0
 11
-362.3576674071349
 21
124.3374491893554
 31
0.0
  0
LINE
  5
391
330
2BC
100
AcDbEntity
  8
0
 62
     0
100
AcDbLine
 10
-362.1576674071349
 20
124.3374491893554
 30
0.0
 11
-362.1576674071349
 21
124.3374491893554
 31
0.0
  0
LINE
  5
392
330
2BC
100
AcDbEntity
  8
0
 62
     0
100
AcDbLine
 10
-360.957667407135
 20
124.3374491893554
 30
0.0
 11
-360.957667407135
 21
124.3374491893554
 31
0.0
  0
LINE
  5
393
330
2BC
100
AcDbEntity
  8
0
 62
     0
100
AcDbLine
 10
-360.757667407135
 20
124.3374491893554
 30
0.0
 11
-360.757667407135
 21
124.3374491893554
 31
0.0
  0
LINE
  5
394
330
2BC
100
AcDbEntity
  8
0
 62
     0
100
AcDbLine
 10
-367.2576674071349
 20
124.1374491893554
 30
0.0
 11
-367.2576674071349
 21
124.1374491893554
 31
0.0
  0
LINE
  5
395
330
2BC
100
AcDbEntity
  8
0
 62
     0
100
AcDbLine
 10
-367.0576674071349
 20
124.1374491893554
 30
0.0
 11
-367.0576674071349
 21
124.1374491893554
 31
0.0
  0
LINE
  5
396
330
2BC
100
AcDbEntity
  8
0
 62
     0
100
AcDbLine
 10
-356.857667407135
 20
124.1374491893554
 30
0.0
 11
-356.857667407135
 21
124.1374491893554
 31
0.0
  0
LINE
  5
397
330
2BC
100
AcDbEntity
  8
0
 62
     0
100
AcDbLine
 10
-356.657667407135
 20
124.1374491893554
 30
0.0
 11
-356.657667407135
 21
124.1374491893554
 31
0.0
  0
LINE
  5
398
330
2BC
100
AcDbEntity
  8
0
 62
     0
100
AcDbLine
 10
-356.457667407135
 20
124.1374491893554
 30
0.0
 11
-356.457667407135
 21
124.1374491893554
 31
0.0
  0
LINE
  5
399
330
2BC
100
AcDbEntity
  8
0
 62
     0
100
AcDbLine
 10
-365.6576674071349
 20
124.1374491893554
 30
0.0
 11
-365.6576674071349
 21
124.1374491893554
 31
0.0
  0
LINE
  5
39A
330
2BC
100
AcDbEntity
  8
0
 62
     0
100
AcDbLine
 10
-365.4576674071349
 20
124.1374491893554
 30
0.0
 11
-365.4576674071349
 21
124.1374491893554
 31
0.0
  0
LINE
  5
39B
330
2BC
100
AcDbEntity
  8
0
 62
     0
100
AcDbLine
 10
-358.657667407135
 20
124.1374491893554
 30
0.0
 11
-358.657667407135
 21
124.1374491893554
 31
0.0
  0
LINE
  5
39C
330
2BC
100
AcDbEntity
  8
0
 62
     0
100
AcDbLine
 10
-358.457667407135
 20
124.1374491893554
 30
0.0
 11
-358.457667407135
 21
124.1374491893554
 31
0.0
  0
LINE
  5
39D
330
2BC
100
AcDbEntity
  8
0
 62
     0
100
AcDbLine
 10
-364.6576674071351
 20
124.1374491893554
 30
0.0
 11
-364.6576674071351
 21
124.1374491893554
 31
0.0
  0
LINE
  5
39E
330
2BC
100
AcDbEntity
  8
0
 62
     0
100
AcDbLine
 10
-364.4576674071351
 20
124.1374491893554
 30
0.0
 11
-364.4576674071351
 21
124.1374491893554
 31
0.0
  0
LINE
  5
39F
330
2BC
100
AcDbEntity
  8
0
 62
     0
100
AcDbLine
 10
-364.2576674071351
 20
124.1374491893554
 30
0.0
 11
-364.2576674071351
 21
124.1374491893554
 31
0.0
  0
LINE
  5
3A0
330
2BC
100
AcDbEntity
  8
0
 62
     0
100
AcDbLine
 10
-364.0576674071351
 20
124.1374491893554
 30
0.0
 11
-364.0576674071351
 21
124.1374491893554
 31
0.0
  0
LINE
  5
3A1
330
2BC
100
AcDbEntity
  8
0
 62
     0
100
AcDbLine
 10
-363.8576674071351
 20
124.1374491893554
 30
0.0
 11
-363.8576674071351
 21
124.1374491893554
 31
0.0
  0
LINE
  5
3A2
330
2BC
100
AcDbEntity
  8
0
 62
     0
100
AcDbLine
 10
-363.6576674071351
 20
124.1374491893554
 30
0.0
 11
-363.6576674071351
 21
124.1374491893554
 31
0.0
  0
LINE
  5
3A3
330
2BC
100
AcDbEntity
  8
0
 62
     0
100
AcDbLine
 10
-363.4576674071352
 20
124.1374491893554
 30
0.0
 11
-363.4576674071352
 21
124.1374491893554
 31
0.0
  0
LINE
  5
3A4
330
2BC
100
AcDbEntity
  8
0
 62
     0
100
AcDbLine
 10
-363.2576674071352
 20
124.1374491893554
 30
0.0
 11
-363.2576674071352
 21
124.1374491893554
 31
0.0
  0
LINE
  5
3A5
330
2BC
100
AcDbEntity
  8
0
 62
     0
100
AcDbLine
 10
-360.0576674071351
 20
124.1374491893554
 30
0.0
 11
-360.0576674071351
 21
124.1374491893554
 31
0.0
  0
LINE
  5
3A6
330
2BC
100
AcDbEntity
  8
0
 62
     0
100
AcDbLine
 10
-359.8576674071351
 20
124.1374491893554
 30
0.0
 11
-359.8576674071351
 21
124.1374491893554
 31
0.0
  0
LINE
  5
3A7
330
2BC
100
AcDbEntity
  8
0
 62
     0
100
AcDbLine
 10
-362.457667407135
 20
124.1374491893554
 30
0.0
 11
-362.457667407135
 21
124.1374491893554
 31
0.0
  0
LINE
  5
3A8
330
2BC
100
AcDbEntity
  8
0
 62
     0
100
AcDbLine
 10
-362.257667407135
 20
124.1374491893554
 30
0.0
 11
-362.257667407135
 21
124.1374491893554
 31
0.0
  0
LINE
  5
3A9
330
2BC
100
AcDbEntity
  8
0
 62
     0
100
AcDbLine
 10
-361.0576674071349
 20
124.1374491893554
 30
0.0
 11
-361.0576674071349
 21
124.1374491893554
 31
0.0
  0
LINE
  5
3AA
330
2BC
100
AcDbEntity
  8
0
 62
     0
100
AcDbLine
 10
-360.8576674071349
 20
124.1374491893554
 30
0.0
 11
-360.8576674071349
 21
124.1374491893554
 31
0.0
  0
LINE
  5
3AB
330
2BC
100
AcDbEntity
  8
0
 62
     0
100
AcDbLine
 10
-367.1576674071349
 20
123.9374491893554
 30
0.0
 11
-367.1576674071349
 21
123.9374491893554
 31
0.0
  0
LINE
  5
3AC
330
2BC
100
AcDbEntity
  8
0
 62
     0
100
AcDbLine
 10
-366.9576674071349
 20
123.9374491893554
 30
0.0
 11
-366.9576674071349
 21
123.9374491893554
 31
0.0
  0
LINE
  5
3AD
330
2BC
100
AcDbEntity
  8
0
 62
     0
100
AcDbLine
 10
-366.7576674071349
 20
123.9374491893554
 30
0.0
 11
-366.7576674071349
 21
123.9374491893554
 31
0.0
  0
LINE
  5
3AE
330
2BC
100
AcDbEntity
  8
0
 62
     0
100
AcDbLine
 10
-356.9576674071348
 20
123.9374491893554
 30
0.0
 11
-356.9576674071348
 21
123.9374491893554
 31
0.0
  0
LINE
  5
3AF
330
2BC
100
AcDbEntity
  8
0
 62
     0
100
AcDbLine
 10
-356.7576674071348
 20
123.9374491893554
 30
0.0
 11
-356.7576674071348
 21
123.9374491893554
 31
0.0
  0
LINE
  5
3B0
330
2BC
100
AcDbEntity
  8
0
 62
     0
100
AcDbLine
 10
-356.5576674071348
 20
123.9374491893554
 30
0.0
 11
-356.5576674071348
 21
123.9374491893554
 31
0.0
  0
LINE
  5
3B1
330
2BC
100
AcDbEntity
  8
0
 62
     0
100
AcDbLine
 10
-365.957667407135
 20
123.9374491893554
 30
0.0
 11
-365.957667407135
 21
123.9374491893554
 31
0.0
  0
LINE
  5
3B2
330
2BC
100
AcDbEntity
  8
0
 62
     0
100
AcDbLine
 10
-365.757667407135
 20
123.9374491893554
 30
0.0
 11
-365.757667407135
 21
123.9374491893554
 31
0.0
  0
LINE
  5
3B3
330
2BC
100
AcDbEntity
  8
0
 62
     0
100
AcDbLine
 10
-365.557667407135
 20
123.9374491893554
 30
0.0
 11
-365.557667407135
 21
123.9374491893554
 31
0.0
  0
LINE
  5
3B4
330
2BC
100
AcDbEntity
  8
0
 62
     0
100
AcDbLine
 10
-358.7576674071349
 20
123.9374491893554
 30
0.0
 11
-358.7576674071349
 21
123.9374491893554
 31
0.0
  0
LINE
  5
3B5
330
2BC
100
AcDbEntity
  8
0
 62
     0
100
AcDbLine
 10
-358.5576674071349
 20
123.9374491893554
 30
0.0
 11
-358.5576674071349
 21
123.9374491893554
 31
0.0
  0
LINE
  5
3B6
330
2BC
100
AcDbEntity
  8
0
 62
     0
100
AcDbLine
 10
-364.7576674071351
 20
123.9374491893554
 30
0.0
 11
-364.7576674071351
 21
123.9374491893554
 31
0.0
  0
LINE
  5
3B7
330
2BC
100
AcDbEntity
  8
0
 62
     0
100
AcDbLine
 10
-364.557667407135
 20
123.9374491893554
 30
0.0
 11
-364.557667407135
 21
123.9374491893554
 31
0.0
  0
LINE
  5
3B8
330
2BC
100
AcDbEntity
  8
0
 62
     0
100
AcDbLine
 10
-364.3576674071351
 20
123.9374491893554
 30
0.0
 11
-364.3576674071351
 21
123.9374491893554
 31
0.0
  0
LINE
  5
3B9
330
2BC
100
AcDbEntity
  8
0
 62
     0
100
AcDbLine
 10
-364.1576674071351
 20
123.9374491893554
 30
0.0
 11
-364.1576674071351
 21
123.9374491893554
 31
0.0
  0
LINE
  5
3BA
330
2BC
100
AcDbEntity
  8
0
 62
     0
100
AcDbLine
 10
-363.9576674071351
 20
123.9374491893554
 30
0.0
 11
-363.9576674071351
 21
123.9374491893554
 31
0.0
  0
LINE
  5
3BB
330
2BC
100
AcDbEntity
  8
0
 62
     0
100
AcDbLine
 10
-363.7576674071351
 20
123.9374491893554
 30
0.0
 11
-363.7576674071351
 21
123.9374491893554
 31
0.0
  0
LINE
  5
3BC
330
2BC
100
AcDbEntity
  8
0
 62
     0
100
AcDbLine
 10
-363.5576674071351
 20
123.9374491893554
 30
0.0
 11
-363.5576674071351
 21
123.9374491893554
 31
0.0
  0
LINE
  5
3BD
330
2BC
100
AcDbEntity
  8
0
 62
     0
100
AcDbLine
 10
-360.1576674071349
 20
123.9374491893554
 30
0.0
 11
-360.1576674071349
 21
123.9374491893554
 31
0.0
  0
LINE
  5
3BE
330
2BC
100
AcDbEntity
  8
0
 62
     0
100
AcDbLine
 10
-359.9576674071349
 20
123.9374491893554
 30
0.0
 11
-359.9576674071349
 21
123.9374491893554
 31
0.0
  0
LINE
  5
3BF
330
2BC
100
AcDbEntity
  8
0
 62
     0
100
AcDbLine
 10
-362.3576674071348
 20
123.9374491893554
 30
0.0
 11
-362.3576674071348
 21
123.9374491893554
 31
0.0
  0
LINE
  5
3C0
330
2BC
100
AcDbEntity
  8
0
 62
     0
100
AcDbLine
 10
-362.1576674071349
 20
123.9374491893554
 30
0.0
 11
-362.1576674071349
 21
123.9374491893554
 31
0.0
  0
LINE
  5
3C1
330
2BC
100
AcDbEntity
  8
0
 62
     0
100
AcDbLine
 10
-360.9576674071348
 20
123.9374491893554
 30
0.0
 11
-360.9576674071348
 21
123.9374491893554
 31
0.0
  0
LINE
  5
3C2
330
2BC
100
AcDbEntity
  8
0
 62
     0
100
AcDbLine
 10
-360.7576674071348
 20
123.9374491893554
 30
0.0
 11
-360.7576674071348
 21
123.9374491893554
 31
0.0
  0
LINE
  5
3C3
330
2BC
100
AcDbEntity
  8
0
 62
     0
100
AcDbLine
 10
-367.0576674071352
 20
123.7374491893554
 30
0.0
 11
-367.0576674071352
 21
123.7374491893554
 31
0.0
  0
LINE
  5
3C4
330
2BC
100
AcDbEntity
  8
0
 62
     0
100
AcDbLine
 10
-366.8576674071352
 20
123.7374491893554
 30
0.0
 11
-366.8576674071352
 21
123.7374491893554
 31
0.0
  0
LINE
  5
3C5
330
2BC
100
AcDbEntity
  8
0
 62
     0
100
AcDbLine
 10
-366.6576674071352
 20
123.7374491893554
 30
0.0
 11
-366.6576674071352
 21
123.7374491893554
 31
0.0
  0
LINE
  5
3C6
330
2BC
100
AcDbEntity
  8
0
 62
     0
100
AcDbLine
 10
-366.4576674071352
 20
123.7374491893554
 30
0.0
 11
-366.4576674071352
 21
123.7374491893554
 31
0.0
  0
LINE
  5
3C7
330
2BC
100
AcDbEntity
  8
0
 62
     0
100
AcDbLine
 10
-366.2576674071352
 20
123.7374491893554
 30
0.0
 11
-366.2576674071352
 21
123.7374491893554
 31
0.0
  0
LINE
  5
3C8
330
2BC
100
AcDbEntity
  8
0
 62
     0
100
AcDbLine
 10
-366.0576674071352
 20
123.7374491893554
 30
0.0
 11
-366.0576674071352
 21
123.7374491893554
 31
0.0
  0
LINE
  5
3C9
330
2BC
100
AcDbEntity
  8
0
 62
     0
100
AcDbLine
 10
-365.8576674071353
 20
123.7374491893554
 30
0.0
 11
-365.8576674071353
 21
123.7374491893554
 31
0.0
  0
LINE
  5
3CA
330
2BC
100
AcDbEntity
  8
0
 62
     0
100
AcDbLine
 10
-365.6576674071353
 20
123.7374491893554
 30
0.0
 11
-365.6576674071353
 21
123.7374491893554
 31
0.0
  0
LINE
  5
3CB
330
2BC
100
AcDbEntity
  8
0
 62
     0
100
AcDbLine
 10
-357.857667407135
 20
123.7374491893554
 30
0.0
 11
-357.857667407135
 21
123.7374491893554
 31
0.0
  0
LINE
  5
3CC
330
2BC
100
AcDbEntity
  8
0
 62
     0
100
AcDbLine
 10
-357.657667407135
 20
123.7374491893554
 30
0.0
 11
-357.657667407135
 21
123.7374491893554
 31
0.0
  0
LINE
  5
3CD
330
2BC
100
AcDbEntity
  8
0
 62
     0
100
AcDbLine
 10
-357.457667407135
 20
123.7374491893554
 30
0.0
 11
-357.457667407135
 21
123.7374491893554
 31
0.0
  0
LINE
  5
3CE
330
2BC
100
AcDbEntity
  8
0
 62
     0
100
AcDbLine
 10
-357.257667407135
 20
123.7374491893554
 30
0.0
 11
-357.257667407135
 21
123.7374491893554
 31
0.0
  0
LINE
  5
3CF
330
2BC
100
AcDbEntity
  8
0
 62
     0
100
AcDbLine
 10
-357.057667407135
 20
123.7374491893554
 30
0.0
 11
-357.057667407135
 21
123.7374491893554
 31
0.0
  0
LINE
  5
3D0
330
2BC
100
AcDbEntity
  8
0
 62
     0
100
AcDbLine
 10
-356.857667407135
 20
123.7374491893554
 30
0.0
 11
-356.857667407135
 21
123.7374491893554
 31
0.0
  0
LINE
  5
3D1
330
2BC
100
AcDbEntity
  8
0
 62
     0
100
AcDbLine
 10
-356.657667407135
 20
123.7374491893554
 30
0.0
 11
-356.657667407135
 21
123.7374491893554
 31
0.0
  0
LINE
  5
3D2
330
2BC
100
AcDbEntity
  8
0
 62
     0
100
AcDbLine
 10
-364.657667407135
 20
123.7374491893554
 30
0.0
 11
-364.657667407135
 21
123.7374491893554
 31
0.0
  0
LINE
  5
3D3
330
2BC
100
AcDbEntity
  8
0
 62
     0
100
AcDbLine
 10
-364.457667407135
 20
123.7374491893554
 30
0.0
 11
-364.457667407135
 21
123.7374491893554
 31
0.0
  0
LINE
  5
3D4
330
2BC
100
AcDbEntity
  8
0
 62
     0
100
AcDbLine
 10
-360.057667407135
 20
123.7374491893554
 30
0.0
 11
-360.057667407135
 21
123.7374491893554
 31
0.0
  0
LINE
  5
3D5
330
2BC
100
AcDbEntity
  8
0
 62
     0
100
AcDbLine
 10
-359.857667407135
 20
123.7374491893554
 30
0.0
 11
-359.857667407135
 21
123.7374491893554
 31
0.0
  0
LINE
  5
3D6
330
2BC
100
AcDbEntity
  8
0
 62
     0
100
AcDbLine
 10
-359.657667407135
 20
123.7374491893554
 30
0.0
 11
-359.657667407135
 21
123.7374491893554
 31
0.0
  0
LINE
  5
3D7
330
2BC
100
AcDbEntity
  8
0
 62
     0
100
AcDbLine
 10
-359.457667407135
 20
123.7374491893554
 30
0.0
 11
-359.457667407135
 21
123.7374491893554
 31
0.0
  0
LINE
  5
3D8
330
2BC
100
AcDbEntity
  8
0
 62
     0
100
AcDbLine
 10
-359.257667407135
 20
123.7374491893554
 30
0.0
 11
-359.257667407135
 21
123.7374491893554
 31
0.0
  0
LINE
  5
3D9
330
2BC
100
AcDbEntity
  8
0
 62
     0
100
AcDbLine
 10
-359.0576674071351
 20
123.7374491893554
 30
0.0
 11
-359.0576674071351
 21
123.7374491893554
 31
0.0
  0
LINE
  5
3DA
330
2BC
100
AcDbEntity
  8
0
 62
     0
100
AcDbLine
 10
-358.8576674071351
 20
123.7374491893554
 30
0.0
 11
-358.8576674071351
 21
123.7374491893554
 31
0.0
  0
LINE
  5
3DB
330
2BC
100
AcDbEntity
  8
0
 62
     0
100
AcDbLine
 10
-358.6576674071351
 20
123.7374491893554
 30
0.0
 11
-358.6576674071351
 21
123.7374491893554
 31
0.0
  0
LINE
  5
3DC
330
2BC
100
AcDbEntity
  8
0
 62
     0
100
AcDbLine
 10
-358.4576674071351
 20
123.7374491893554
 30
0.0
 11
-358.4576674071351
 21
123.7374491893554
 31
0.0
  0
LINE
  5
3DD
330
2BC
100
AcDbEntity
  8
0
 62
     0
100
AcDbLine
 10
-362.4576674071351
 20
123.7374491893554
 30
0.0
 11
-362.4576674071351
 21
123.7374491893554
 31
0.0
  0
LINE
  5
3DE
330
2BC
100
AcDbEntity
  8
0
 62
     0
100
AcDbLine
 10
-362.2576674071352
 20
123.7374491893554
 30
0.0
 11
-362.2576674071352
 21
123.7374491893554
 31
0.0
  0
LINE
  5
3DF
330
2BC
100
AcDbEntity
  8
0
 62
     0
100
AcDbLine
 10
-361.0576674071352
 20
123.7374491893554
 30
0.0
 11
-361.0576674071352
 21
123.7374491893554
 31
0.0
  0
LINE
  5
3E0
330
2BC
100
AcDbEntity
  8
0
 62
     0
100
AcDbLine
 10
-360.8576674071352
 20
123.7374491893554
 30
0.0
 11
-360.8576674071352
 21
123.7374491893554
 31
0.0
  0
LINE
  5
3E1
330
2BC
100
AcDbEntity
  8
0
 62
     0
100
AcDbLine
 10
-366.7576674071349
 20
123.5374491893554
 30
0.0
 11
-366.7576674071349
 21
123.5374491893554
 31
0.0
  0
LINE
  5
3E2
330
2BC
100
AcDbEntity
  8
0
 62
     0
100
AcDbLine
 10
-366.557667407135
 20
123.5374491893554
 30
0.0
 11
-366.557667407135
 21
123.5374491893554
 31
0.0
  0
LINE
  5
3E3
330
2BC
100
AcDbEntity
  8
0
 62
     0
100
AcDbLine
 10
-366.357667407135
 20
123.5374491893554
 30
0.0
 11
-366.357667407135
 21
123.5374491893554
 31
0.0
  0
LINE
  5
3E4
330
2BC
100
AcDbEntity
  8
0
 62
     0
100
AcDbLine
 10
-366.157667407135
 20
123.5374491893554
 30
0.0
 11
-366.157667407135
 21
123.5374491893554
 31
0.0
  0
LINE
  5
3E5
330
2BC
100
AcDbEntity
  8
0
 62
     0
100
AcDbLine
 10
-365.957667407135
 20
123.5374491893554
 30
0.0
 11
-365.957667407135
 21
123.5374491893554
 31
0.0
  0
LINE
  5
3E6
330
2BC
100
AcDbEntity
  8
0
 62
     0
100
AcDbLine
 10
-357.7576674071349
 20
123.5374491893554
 30
0.0
 11
-357.7576674071349
 21
123.5374491893554
 31
0.0
  0
LINE
  5
3E7
330
2BC
100
AcDbEntity
  8
0
 62
     0
100
AcDbLine
 10
-357.5576674071349
 20
123.5374491893554
 30
0.0
 11
-357.5576674071349
 21
123.5374491893554
 31
0.0
  0
LINE
  5
3E8
330
2BC
100
AcDbEntity
  8
0
 62
     0
100
AcDbLine
 10
-357.3576674071349
 20
123.5374491893554
 30
0.0
 11
-357.3576674071349
 21
123.5374491893554
 31
0.0
  0
LINE
  5
3E9
330
2BC
100
AcDbEntity
  8
0
 62
     0
100
AcDbLine
 10
-357.1576674071349
 20
123.5374491893554
 30
0.0
 11
-357.1576674071349
 21
123.5374491893554
 31
0.0
  0
LINE
  5
3EA
330
2BC
100
AcDbEntity
  8
0
 62
     0
100
AcDbLine
 10
-356.9576674071349
 20
123.5374491893554
 30
0.0
 11
-356.9576674071349
 21
123.5374491893554
 31
0.0
  0
LINE
  5
3EB
330
2BC
100
AcDbEntity
  8
0
 62
     0
100
AcDbLine
 10
-356.7576674071349
 20
123.5374491893554
 30
0.0
 11
-356.7576674071349
 21
123.5374491893554
 31
0.0
  0
LINE
  5
3EC
330
2BC
100
AcDbEntity
  8
0
 62
     0
100
AcDbLine
 10
-364.7576674071349
 20
123.5374491893554
 30
0.0
 11
-364.7576674071349
 21
123.5374491893554
 31
0.0
  0
LINE
  5
3ED
330
2BC
100
AcDbEntity
  8
0
 62
     0
100
AcDbLine
 10
-364.5576674071349
 20
123.5374491893554
 30
0.0
 11
-364.5576674071349
 21
123.5374491893554
 31
0.0
  0
LINE
  5
3EE
330
2BC
100
AcDbEntity
  8
0
 62
     0
100
AcDbLine
 10
-359.957667407135
 20
123.5374491893554
 30
0.0
 11
-359.957667407135
 21
123.5374491893554
 31
0.0
  0
LINE
  5
3EF
330
2BC
100
AcDbEntity
  8
0
 62
     0
100
AcDbLine
 10
-359.757667407135
 20
123.5374491893554
 30
0.0
 11
-359.757667407135
 21
123.5374491893554
 31
0.0
  0
LINE
  5
3F0
330
2BC
100
AcDbEntity
  8
0
 62
     0
100
AcDbLine
 10
-359.557667407135
 20
123.5374491893554
 30
0.0
 11
-359.557667407135
 21
123.5374491893554
 31
0.0
  0
LINE
  5
3F1
330
2BC
100
AcDbEntity
  8
0
 62
     0
100
AcDbLine
 10
-359.357667407135
 20
123.5374491893554
 30
0.0
 11
-359.357667407135
 21
123.5374491893554
 31
0.0
  0
LINE
  5
3F2
330
2BC
100
AcDbEntity
  8
0
 62
     0
100
AcDbLine
 10
-359.157667407135
 20
123.5374491893554
 30
0.0
 11
-359.157667407135
 21
123.5374491893554
 31
0.0
  0
LINE
  5
3F3
330
2BC
100
AcDbEntity
  8
0
 62
     0
100
AcDbLine
 10
-358.957667407135
 20
123.5374491893554
 30
0.0
 11
-358.957667407135
 21
123.5374491893554
 31
0.0
  0
LINE
  5
3F4
330
2BC
100
AcDbEntity
  8
0
 62
     0
100
AcDbLine
 10
-358.7576674071351
 20
123.5374491893554
 30
0.0
 11
-358.7576674071351
 21
123.5374491893554
 31
0.0
  0
LINE
  5
3F5
330
2BC
100
AcDbEntity
  8
0
 62
     0
100
AcDbLine
 10
-358.5576674071351
 20
123.5374491893554
 30
0.0
 11
-358.5576674071351
 21
123.5374491893554
 31
0.0
  0
LINE
  5
3F6
330
2BC
100
AcDbEntity
  8
0
 62
     0
100
AcDbLine
 10
-362.3576674071351
 20
123.5374491893554
 30
0.0
 11
-362.3576674071351
 21
123.5374491893554
 31
0.0
  0
LINE
  5
3F7
330
2BC
100
AcDbEntity
  8
0
 62
     0
100
AcDbLine
 10
-362.1576674071351
 20
123.5374491893554
 30
0.0
 11
-362.1576674071351
 21
123.5374491893554
 31
0.0
  0
LINE
  5
3F8
330
2BC
100
AcDbEntity
  8
0
 62
     0
100
AcDbLine
 10
-360.9576674071351
 20
123.5374491893554
 30
0.0
 11
-360.9576674071351
 21
123.5374491893554
 31
0.0
  0
LINE
  5
3F9
330
2BC
100
AcDbEntity
  8
0
 62
     0
100
AcDbLine
 10
-360.7576674071351
 20
123.5374491893554
 30
0.0
 11
-360.7576674071351
 21
123.5374491893554
 31
0.0
  0
ENDBLK
  5
3FA
330
2BC
100
AcDbEntity
  8
0
100
AcDbBlockEnd
  0
BLOCK
  5
3FC
330
3FB
100
AcDbEntity
  8
0
100
AcDbBlockBegin
  2
SUG-AR06
 70
     0
 10
0.0
 20
0.0
 30
0.0
  3
SUG-AR06
  1

  0
ENDBLK
  5
3FD
330
3FB
100
AcDbEntity
  8
0
100
AcDbBlockEnd
  0
BLOCK
  5
3D16
330
3D15
100
AcDbEntity
  8
0
100
AcDbBlockBegin
  2
*X10
 70
     1
 10
0.0
 20
0.0
 30
0.0
  3
*X10
  1

  0
LINE
  5
3D17
330
3D15
100
AcDbEntity
  8
0
 62
     0
100
AcDbLine
 10
-233.1
 20
-122.2176698662353
 30
0.0
 11
-233.1
 21
-106.6769100471542
 31
0.0
  0
LINE
  5
3D18
330
3D15
100
AcDbEntity
  8
0
 62
     0
100
AcDbLine
 10
-233.8
 20
-121.8795177206687
 30
0.0
 11
-233.8
 21
-107.0150621927207
 31
0.0
  0
LINE
  5
3D19
330
3D15
100
AcDbEntity
  8
0
 62
     0
100
AcDbLine
 10
-234.5
 20
-121.2219148609854
 30
0.0
 11
-234.5
 21
-107.6726650524144
 31
0.0
  0
ENDBLK
  5
3D1A
330
3D15
100
AcDbEntity
  8
0
100
AcDbBlockEnd
  0
ENDSEC
  0
SECTION
  2
ENTITIES
  0
LINE
  5
444
330
1F
100
AcDbEntity
  8
0
100
AcDbLine
 10
0.0
 20
0.0
 30
0.0
 11
0.0
 21
-15.77574012969967
 31
0.0
  0
LINE
  5
446
330
1F
100
AcDbEntity
  8
0
100
AcDbLine
 10
-27.69450078795444
 20
0.0
 30
0.0
 11
0.0
 21
0.0
 31
0.0
  0
LWPOLYLINE
  5
47B
330
1F
100
AcDbEntity
  8
0
100
AcDbPolyline
 90
        6
 70
     0
 43
0.0
 10
523.8359984333678
 20
288.6431263219295
 10
525.9062651767985
 20
287.6777450850438
 42
-0.2914734195860857
 10
526.1949560459283
 20
287.2245911915259
 10
526.1949560459283
 20
284.4616614523332
 42
-0.2914734195860855
 10
525.9062651767985
 20
284.0085075588147
 10
523.8359984333678
 20
283.0431263219296
  0
LINE
  5
47C
330
1F
100
AcDbEntity
  8
0
100
AcDbLine
 10
491.7413695430068
 20
282.828399224594
 30
0.0
 11
489.8949560459286
 21
284.3777241089931
 31
0.0
  0
LINE
  5
47D
330
1F
100
AcDbEntity
  8
0
100
AcDbLine
 10
491.0601406056034
 20
282.2567802744718
 30
0.0
 11
491.0601406056034
 21
283.4000181747163
 31
0.0
  0
LINE
  5
47E
330
1F
100
AcDbEntity
  8
0
100
AcDbLine
 10
490.3601406056036
 20
281.6694105326476
 30
0.0
 11
490.3601406056036
 21
283.9873879165405
 31
0.0
  0
LINE
  5
47F
330
1F
100
AcDbEntity
  8
0
100
AcDbLine
 10
494.5601406056034
 20
282.9442493060258
 30
0.0
 11
494.5601406056034
 21
283.7576809653267
 31
0.0
  0
LINE
  5
480
330
1F
100
AcDbEntity
  8
0
100
AcDbLine
 10
495.2601406056037
 20
282.358042405416
 30
0.0
 11
495.2601406056037
 21
284.3450507071509
 31
0.0
  0
LWPOLYLINE
  5
481
330
1F
100
AcDbEntity
  8
0
100
AcDbPolyline
 90
        8
 70
     0
 43
0.0
 10
494.7949560459282
 20
292.3431263219293
 10
495.8949560459286
 20
292.3431263219293
 10
495.8949560459286
 20
284.8777241089931
 10
494.0749552832971
 20
283.3505621403267
 10
495.8949560459286
 20
281.8264235600839
 10
495.8949560459286
 20
279.3431263219293
 10
492.5970176477799
 20
282.1104252154612
 10
489.8949560459286
 20
279.8431263219293
  0
LINE
  5
482
330
1F
100
AcDbEntity
  8
0
100
AcDbLine
 10
488.9601406056035
 20
276.86242368334
 30
0.0
 11
488.9601406056035
 21
294.823828960519
 31
0.0
  0
LINE
  5
483
330
1F
100
AcDbEntity
  8
0
100
AcDbLine
 10
489.6601406056038
 20
276.8431696118139
 30
0.0
 11
489.6601406056038
 21
294.8430830320451
 31
0.0
  0
LINE
  5
485
330
1F
100
AcDbEntity
  8
0
100
AcDbLine
 10
495.9601406056036
 20
278.3232436374472
 30
0.0
 11
495.9601406056036
 21
293.3630090064119
 31
0.0
  0
LINE
  5
486
330
1F
100
AcDbEntity
  8
0
100
AcDbLine
 10
496.6601406056038
 20
278.7730298472027
 30
0.0
 11
496.6601406056038
 21
292.9132227966563
 31
0.0
  0
LINE
  5
487
330
1F
100
AcDbEntity
  8
0
100
AcDbLine
 10
496.8949560459286
 20
292.2694118075981
 30
0.0
 11
496.8949560459286
 21
279.4168408362614
 31
0.0
  0
LINE
  5
488
330
1F
100
AcDbEntity
  8
0
100
AcDbLine
 10
472.6949560459283
 20
283.136121769048
 30
0.0
 11
472.6949560459283
 21
292.9674819749114
 31
0.0
  0
LINE
  5
489
330
1F
100
AcDbEntity
  8
0
100
AcDbLine
 10
481.6949560459284
 20
282.4361217690478
 30
0.0
 11
481.6949560459284
 21
292.9674819749114
 31
0.0
  0
LINE
  5
48A
330
1F
100
AcDbEntity
  8
0
100
AcDbLine
 10
483.3601406056036
 20
283.0902173437432
 30
0.0
 11
483.3601406056036
 21
293.3225268813997
 31
0.0
  0
LINE
  5
48B
330
1F
100
AcDbEntity
  8
0
100
AcDbLine
 10
482.8949560459286
 20
282.874487639631
 30
0.0
 11
482.8949560459286
 21
292.4775579797286
 31
0.0
  0
LWPOLYLINE
  5
48C
330
1F
100
AcDbEntity
  8
0
100
AcDbPolyline
 90
        7
 70
     0
 43
0.0
 10
469.6949560459284
 20
284.0050130909819
 42
0.0735732784180264
 10
471.1845484058426
 20
283.0146991971835
 42
0.0619120471428774
 10
473.7485258956003
 20
282.1758909360562
 42
0.048164715234573
 10
477.1949560459283
 20
281.8431263219297
 42
0.0481647152345715
 10
480.6413861962568
 20
282.1758909360562
 42
0.0619120471428726
 10
483.2053636860141
 20
283.0146991971835
 42
0.0935215137749404
 10
485.0414029110729
 20
284.3431263219297
 42
0.1824266424712656
  0
ARC
  5
48D
330
1F
100
AcDbEntity
  8
0
100
AcDbCircle
 10
479.1428007201602
 20
290.5176206719273
 30
0.0
 40
9.148034673266606
100
AcDbArc
 50
294.2148684572205
 51
317.5494918425075
  0
LWPOLYLINE
  5
48E
330
1F
100
AcDbEntity
  8
0
100
AcDbPolyline
 90
        4
 70
     0
 43
0.0
 10
469.6949560459284
 20
284.7050130909822
 42
0.0735732784180301
 10
471.1845484058426
 20
283.7146991971833
 42
0.0619120471428732
 10
473.7485258955998
 20
282.8758909360561
 42
0.0160454922619853
 10
474.8895388944766
 20
282.6912609588788
 42
0.0481647152345752
  0
LINE
  5
48F
330
1F
100
AcDbEntity
  8
0
100
AcDbLine
 10
458.7196349477353
 20
283.7444107147005
 30
0.0
 11
458.7196349477353
 21
282.7700070399158
 31
0.0
  0
LINE
  5
490
330
1F
100
AcDbEntity
  8
0
100
AcDbLine
 10
458.1949560459284
 20
283.7444107147005
 30
0.0
 11
458.1949560459284
 21
282.3952363957681
 31
0.0
  0
ARC
  5
491
330
1F
100
AcDbEntity
  8
0
100
AcDbCircle
 10
470.7970097722245
 20
285.1431263219299
 30
0.0
 40
2.143171170351632
100
AcDbArc
 50
176.8491455706383
 51
239.0549087248027
  0
LWPOLYLINE
  5
492
330
1F
100
AcDbEntity
  8
0
100
AcDbPolyline
 90
        6
 70
     0
 43
0.0
 10
430.5539136584889
 20
288.6431263219295
 10
428.4836469150582
 20
287.6777450850438
 42
0.2914734195860857
 10
428.1949560459284
 20
287.2245911915259
 10
428.1949560459284
 20
284.4616614523332
 42
0.2914734195860855
 10
428.4836469150582
 20
284.0085075588147
 10
430.5539136584889
 20
283.0431263219296
  0
LINE
  5
493
330
1F
100
AcDbEntity
  8
0
100
AcDbLine
 10
465.4949560459285
 20
294.8073663656976
 30
0.0
 11
465.4949560459285
 21
276.8788862781601
 31
0.0
  0
LINE
  5
494
330
1F
100
AcDbEntity
  8
0
100
AcDbLine
 10
464.9949560459285
 20
294.8341949015619
 30
0.0
 11
464.9949560459285
 21
276.8520577422957
 31
0.0
  0
LINE
  5
495
330
1F
100
AcDbEntity
  8
0
100
AcDbLine
 10
465.6949560459284
 20
291.6526013412402
 30
0.0
 11
465.6949560459284
 21
280.0336513026175
 31
0.0
  0
INSERT
  5
496
330
1F
100
AcDbEntity
  8
0
100
AcDbBlockReference
  2
*X3
 10
334.8569361092282
 20
-76.06010832430332
 30
0.0
 50
270.0
1001
ACAD
1000
HATCH
1002
{
1070
    16
1000
E01
1040
0.2
1040
0.0
1002
}
  0
TEXT
  5
497
330
1F
100
AcDbEntity
  8
0
100
AcDbText
 10
461.9949560459286
 20
294.128840607644
 30
0.0
 40
2.5
  1
A20000
 50
270.0
 41
1.199999999999999
  7
SIMPLEX
 72
     1
 11
461.9949560459286
 21
285.8431263219297
 31
0.0
100
AcDbText
  0
LINE
  5
498
330
1F
100
AcDbEntity
  8
0
100
AcDbLine
 10
457.4949560459286
 20
283.4420021545027
 30
0.0
 11
457.4949560459286
 21
279.4168408362605
 31
0.0
  0
LWPOLYLINE
  5
499
330
1F
100
AcDbEntity
  8
0
100
AcDbPolyline
 90
        6
 70
     0
 43
0.0
 10
488.6949560459283
 20
280.0336513026184
 10
488.6949560459283
 20
291.652601341241
 42
0.3419987131195985
 10
488.3199560459283
 20
292.1367242595172
 42
0.127016653792374
 10
485.0699560459283
 20
292.1367242595163
 42
0.341998713120648
 10
484.6949560459283
 20
291.652601341241
 10
484.6949560459283
 20
284.0050130909828
 42
0.3419987131196601
  0
ARC
  5
4A9
330
1F
100
AcDbEntity
  8
0
100
AcDbCircle
 10
467.6949560459283
 20
285.8431263219288
 30
0.0
 40
6.5
100
AcDbArc
 50
255.5224878140705
 51
284.4775121859295
  0
ARC
  5
4AA
330
1F
100
AcDbEntity
  8
0
100
AcDbCircle
 10
464.6949560459283
 20
290.8431263219288
 30
0.0
 40
14.0
100
AcDbArc
 50
241.5153646048204
 51
296.4971851676592
  0
ARC
  5
4AB
330
1F
100
AcDbEntity
  8
0
100
AcDbCircle
 10
464.6949560459283
 20
290.8431263219293
 30
0.0
 40
15.0
100
AcDbArc
 50
228.5903778907302
 51
299.9999999999973
  0
TEXT
  5
4AC
330
1F
100
AcDbEntity
  8
0
100
AcDbText
 10
460.3999999999995
 20
7.700000000000045
 30
0.0
 40
4.0
  1
SH420L-03
  7
SIMPLEX
100
AcDbText
  0
TEXT
  5
4B3
330
1F
100
AcDbEntity
  8
0
100
AcDbText
 10
460.3999999999995
 20
16.70000000000004
 30
0.0
 40
4.0
  1
`F[Xn[hbN
 41
0.7
  7
SIMPLEX
100
AcDbText
  0
ARC
  5
600
330
1F
100
AcDbEntity
  8
0
100
AcDbCircle
 10
460.5498903871775
 20
280.9037541513374
 30
0.0
 40
0.9608998298130892
100
AcDbArc
 50
82.9130225520395
 51
120.0434690248103
  0
ARC
  5
601
330
1F
100
AcDbEntity
  8
0
100
AcDbCircle
 10
460.3795436213212
 20
281.2801976688913
 30
0.0
 40
0.551275229829199
100
AcDbArc
 50
124.3096129107898
 51
141.1286274958521
  0
LINE
  5
602
330
1F
100
AcDbEntity
  8
0
100
AcDbLine
 10
460.6684422973044
 20
281.2543669916902
 30
0.0
 11
460.6684422973044
 21
280.8961538191768
 31
0.0
  0
LINE
  5
603
330
1F
100
AcDbEntity
  8
0
100
AcDbLine
 10
461.1931211991113
 20
281.3458785921536
 30
0.0
 11
461.1931211991118
 21
280.8961538191768
 31
0.0
  0
ARC
  5
604
330
1F
100
AcDbEntity
  8
0
100
AcDbCircle
 10
460.5185340396451
 20
281.0155827162837
 30
0.0
 40
0.8549747776775021
100
AcDbArc
 50
71.27837721582834
 51
79.90176095119669
  0
ARC
  5
605
330
1F
100
AcDbEntity
  8
0
100
AcDbCircle
 10
460.5733438129218
 20
281.1773102138324
 30
0.0
 40
0.6842120923213382
100
AcDbArc
 50
50.71059313758259
 51
71.27837721584069
  0
ARC
  5
606
330
1F
100
AcDbEntity
  8
0
100
AcDbCircle
 10
460.6575244579694
 20
281.2801976688909
 30
0.0
 40
0.5512752298299287
100
AcDbArc
 50
26.85131591379775
 51
50.71059313755601
  0
ARC
  5
607
330
1F
100
AcDbEntity
  8
0
100
AcDbCircle
 10
460.7872617290213
 20
281.3458785921546
 30
0.0
 40
0.4058594700898474
100
AcDbArc
 50
359.9999999999609
 51
26.85131591379775
  0
LINE
  5
608
330
1F
100
AcDbEntity
  8
0
100
AcDbLine
 10
461.1931211991113
 20
282.7700070399162
 30
0.0
 11
461.1931211991113
 21
282.3952363957681
 31
0.0
  0
LINE
  5
609
330
1F
100
AcDbEntity
  8
0
100
AcDbLine
 10
460.6684422973044
 20
280.8961538191768
 30
0.0
 11
461.1931211991118
 21
280.8961538191768
 31
0.0
  0
ARC
  5
60A
330
1F
100
AcDbEntity
  8
0
100
AcDbCircle
 10
460.4357592179435
 20
280.3844958293782
 30
0.0
 40
0.8510917451476068
100
AcDbArc
 50
129.2894068625274
 51
141.1216012888271
  0
LWPOLYLINE
  5
60B
330
1F
100
AcDbEntity
  8
0
100
AcDbPolyline
 90
        7
 70
     0
 43
0.0
 10
458.7196349477353
 20
281.2709244633245
 42
0.0754446162288198
 10
458.7443224938392
 20
281.1082420312894
 42
0.0857828071081956
 10
458.8154772674352
 20
280.9689772176364
 42
0.1060700219652435
 10
458.9394255645879
 20
280.861152146849
 42
0.1268223572472497
 10
459.0944055918835
 20
280.8211996903472
 42
0.126822357249983
 10
459.2493856191818
 20
280.8611521468508
 42
0.0965127511265071
 10
459.3642215826239
 20
280.9572946204214
 42
0.0965127511265071
  0
LINE
  5
60C
330
1F
100
AcDbEntity
  8
0
100
AcDbLine
 10
458.1949560459279
 20
281.8705574939611
 30
0.0
 11
458.1949560459284
 21
281.0460620768356
 31
0.0
  0
LINE
  5
60D
330
1F
100
AcDbEntity
  8
0
100
AcDbLine
 10
458.1949560459279
 20
281.8705574939611
 30
0.0
 11
458.7196349477353
 21
281.8705574939611
 31
0.0
  0
LINE
  5
60E
330
1F
100
AcDbEntity
  8
0
100
AcDbLine
 10
458.7196349477353
 20
281.8705574939611
 30
0.0
 11
458.7196349477353
 21
281.2709244633245
 31
0.0
  0
LINE
  5
60F
330
1F
100
AcDbEntity
  8
0
100
AcDbLine
 10
458.1949560459284
 20
282.3952363957681
 30
0.0
 11
458.7196349477353
 21
282.3952363957685
 31
0.0
  0
ARC
  5
610
330
1F
100
AcDbEntity
  8
0
100
AcDbCircle
 10
460.5199398629915
 20
280.2816083743189
 30
0.0
 40
0.9840286076396395
100
AcDbArc
 50
81.32017625485204
 51
129.2894068625141
  0
LINE
  5
611
330
1F
100
AcDbEntity
  8
0
100
AcDbLine
 10
458.7196349477353
 20
282.7700070399158
 30
0.0
 11
461.1931211991113
 21
282.7700070399162
 31
0.0
  0
LINE
  5
612
330
1F
100
AcDbEntity
  8
0
100
AcDbLine
 10
458.7196349477353
 20
282.3952363957681
 30
0.0
 11
461.1931211991113
 21
282.3952363957681
 31
0.0
  0
LINE
  5
613
330
1F
100
AcDbEntity
  8
0
100
AcDbLine
 10
459.348732716603
 20
280.9394292905597
 30
0.0
 11
459.946463673577
 21
281.6227427119259
 31
0.0
  0
ARC
  5
614
330
1F
100
AcDbEntity
  8
0
100
AcDbCircle
 10
451.1949560459283
 20
281.3431263219293
 30
0.0
 40
0.5
100
AcDbArc
 50
180.0
 51
270.0
  0
ARC
  5
615
330
1F
100
AcDbEntity
  8
0
100
AcDbCircle
 10
450.4949560459281
 20
282.8431263219293
 30
0.0
 40
0.2
100
AcDbArc
 50
0.0
 51
90.0
  0
LINE
  5
616
330
1F
100
AcDbEntity
  8
0
100
AcDbLine
 10
450.6949560459283
 20
281.3431263219293
 30
0.0
 11
450.6949560459283
 21
282.8431263219293
 31
0.0
  0
LINE
  5
617
330
1F
100
AcDbEntity
  8
0
100
AcDbLine
 10
451.4661994906055
 20
280.8431263219293
 30
0.0
 11
451.1949560459283
 21
280.8431263219293
 31
0.0
  0
LINE
  5
618
330
1F
100
AcDbEntity
  8
0
100
AcDbLine
 10
450.4949560459281
 20
283.0431263219296
 30
0.0
 11
430.5539136584889
 21
283.0431263219296
 31
0.0
  0
LINE
  5
619
330
1F
100
AcDbEntity
  8
0
100
AcDbLine
 10
466.9949560459285
 20
279.3623856235206
 30
0.0
 11
466.9949560459285
 21
277.068149007973
 31
0.0
  0
LINE
  5
61A
330
1F
100
AcDbEntity
  8
0
100
AcDbLine
 10
466.4949560459286
 20
279.420510032596
 30
0.0
 11
466.4949560459286
 21
276.9867198613777
 31
0.0
  0
LINE
  5
61B
330
1F
100
AcDbEntity
  8
0
100
AcDbLine
 10
465.9949560459286
 20
279.5185710015919
 30
0.0
 11
465.9949560459286
 21
276.9237154148539
 31
0.0
  0
LINE
  5
61C
330
1F
100
AcDbEntity
  8
0
100
AcDbLine
 10
467.9949560459285
 20
279.362385623521
 30
0.0
 11
467.9949560459285
 21
277.2876846102029
 31
0.0
  0
LINE
  5
61D
330
1F
100
AcDbEntity
  8
0
100
AcDbLine
 10
467.4949560459285
 20
279.3431263219288
 30
0.0
 11
467.4949560459285
 21
277.1683319907513
 31
0.0
  0
LINE
  5
61E
330
1F
100
AcDbEntity
  8
0
100
AcDbLine
 10
459.9949560459285
 20
280.1106678253329
 30
0.0
 11
459.9949560459285
 21
277.6556322461008
 31
0.0
  0
LINE
  5
61F
330
1F
100
AcDbEntity
  8
0
100
AcDbLine
 10
460.9949560459285
 20
280.1961538191765
 30
0.0
 11
460.9949560459285
 21
277.3409042825758
 31
0.0
  0
LINE
  5
620
330
1F
100
AcDbEntity
  8
0
100
AcDbLine
 10
458.9949560459285
 20
279.6367109790915
 30
0.0
 11
458.9949560459285
 21
278.0560234444195
 31
0.0
  0
LINE
  5
621
330
1F
100
AcDbEntity
  8
0
100
AcDbLine
 10
458.4949560459286
 20
279.7353201183066
 30
0.0
 11
458.4949560459286
 21
278.2908356943183
 31
0.0
  0
LINE
  5
622
330
1F
100
AcDbEntity
  8
0
100
AcDbLine
 10
459.4949560459285
 20
279.71416556176
 30
0.0
 11
459.4949560459285
 21
277.8446648745114
 31
0.0
  0
ARC
  5
623
330
1F
100
AcDbEntity
  8
0
100
AcDbCircle
 10
466.1949560459284
 20
280.0336513026175
 30
0.0
 40
0.5
100
AcDbArc
 50
180.0
 51
255.5224878140705
  0
ARC
  5
624
330
1F
100
AcDbEntity
  8
0
100
AcDbCircle
 10
458.4949560459286
 20
279.4168408362605
 30
0.0
 40
1.0
100
AcDbArc
 50
180.0
 51
241.5153646048204
  0
LWPOLYLINE
  5
625
330
1F
100
AcDbEntity
  8
0
100
AcDbPolyline
 90
        3
 70
     0
 43
0.0
 10
459.0944055918835
 20
280.3339978529546
 42
0.1268223572475736
 10
459.2591376805808
 20
280.3764643031357
 42
0.0576258872680318
 10
459.3610351374772
 20
280.449166766524
 42
0.0081535545860314
  0
LINE
  5
626
330
1F
100
AcDbEntity
  8
0
100
AcDbLine
 10
457.9949560459286
 20
280.0183354953968
 30
0.0
 11
457.9949560459286
 21
278.5508154324759
 31
0.0
  0
LINE
  5
627
330
1F
100
AcDbEntity
  8
0
100
AcDbLine
 10
460.4949560459285
 20
280.5645360308724
 30
0.0
 11
460.4949560459285
 21
277.4879775020916
 31
0.0
  0
LWPOLYLINE
  5
628
330
1F
100
AcDbEntity
  8
0
100
AcDbPolyline
 90
        5
 70
     0
 43
0.0
 10
458.1949560459284
 20
281.0460620768356
 42
0.117295982938376
 10
458.2552444934163
 20
280.7926050675649
 42
0.1043956093345458
 10
458.4475502540808
 20
280.5523935364051
 42
0.0901710756146071
 10
458.7323461821115
 20
280.3939062445122
 42
0.0821741584486471
 10
459.0944055918835
 20
280.3339978529546
 42
0.0821741584486471
  0
LINE
  5
629
330
1F
100
AcDbEntity
  8
0
100
AcDbLine
 10
459.3610351374081
 20
280.4491667664458
 30
0.0
 11
459.777070716751
 21
280.9247704316046
 31
0.0
  0
ARC
  5
62A
330
1F
100
AcDbEntity
  8
0
100
AcDbCircle
 10
451.4661994906055
 20
275.8431263219293
 30
0.0
 40
5.0
100
AcDbArc
 50
48.59037789073025
 51
90.0
  0
LINE
  5
675
330
1F
100
AcDbEntity
  8
0
100
AcDbLine
 10
503.8949560459286
 20
283.0431263219296
 30
0.0
 11
523.8359984333678
 21
283.0431263219296
 31
0.0
  0
LINE
  5
67A
330
1F
100
AcDbEntity
  8
0
100
AcDbLine
 10
489.8949560459286
 20
281.2790743401949
 30
0.0
 11
491.7413695430068
 21
282.828399224594
 31
0.0
  0
ARC
  5
67B
330
1F
100
AcDbEntity
  8
0
100
AcDbCircle
 10
503.1949560459284
 20
281.3431263219293
 30
0.0
 40
0.5
100
AcDbArc
 50
270.0
 51
0.0
  0
LINE
  5
67C
330
1F
100
AcDbEntity
  8
0
100
AcDbLine
 10
502.9237126012512
 20
280.8431263219293
 30
0.0
 11
503.1949560459284
 21
280.8431263219293
 31
0.0
  0
ARC
  5
67D
330
1F
100
AcDbEntity
  8
0
100
AcDbCircle
 10
503.8949560459286
 20
282.8431263219293
 30
0.0
 40
0.2
100
AcDbArc
 50
90.0
 51
180.0
  0
LINE
  5
67E
330
1F
100
AcDbEntity
  8
0
100
AcDbLine
 10
503.6949560459284
 20
281.3431263219293
 30
0.0
 11
503.6949560459284
 21
282.8431263219293
 31
0.0
  0
LINE
  5
67F
330
1F
100
AcDbEntity
  8
0
100
AcDbLine
 10
490.3601406056036
 20
276.8589377683677
 30
0.0
 11
490.3601406056036
 21
280.2334625143824
 31
0.0
  0
LINE
  5
681
330
1F
100
AcDbEntity
  8
0
100
AcDbLine
 10
494.5601406056034
 20
277.7156749622675
 30
0.0
 11
494.5601406056034
 21
280.4631694655957
 31
0.0
  0
LINE
  5
682
330
1F
100
AcDbEntity
  8
0
100
AcDbLine
 10
495.2601406056037
 20
277.996775835634
 30
0.0
 11
495.2601406056037
 21
279.8757997237715
 31
0.0
  0
ARC
  5
683
330
1F
100
AcDbEntity
  8
0
100
AcDbCircle
 10
495.8949560459268
 20
279.4168408362618
 30
0.0
 40
1.000000000001648
100
AcDbArc
 50
298.4846353952436
 51
359.999999999974
  0
LINE
  5
684
330
1F
100
AcDbEntity
  8
0
100
AcDbLine
 10
493.1601406056038
 20
277.2787429608109
 30
0.0
 11
493.1601406056038
 21
281.6379089492436
 31
0.0
  0
LINE
  5
685
330
1F
100
AcDbEntity
  8
0
100
AcDbLine
 10
492.4601406056035
 20
277.1189230900134
 30
0.0
 11
492.4601406056035
 21
281.9955717398546
 31
0.0
  0
LINE
  5
686
330
1F
100
AcDbEntity
  8
0
100
AcDbLine
 10
489.8949560459286
 20
279.8431263219293
 30
0.0
 11
489.8949560459286
 21
281.2790743401949
 31
0.0
  0
LINE
  5
687
330
1F
100
AcDbEntity
  8
0
100
AcDbLine
 10
491.7601406056037
 20
276.9962850671711
 30
0.0
 11
491.7601406056037
 21
281.4082019980304
 31
0.0
  0
LINE
  5
688
330
1F
100
AcDbEntity
  8
0
100
AcDbLine
 10
491.0601406056034
 20
276.9098470554388
 30
0.0
 11
491.0601406056034
 21
280.8208322562061
 31
0.0
  0
ARC
  5
689
330
1F
100
AcDbEntity
  8
0
100
AcDbCircle
 10
502.9237126012512
 20
275.8431263219293
 30
0.0
 40
5.0
100
AcDbArc
 50
90.0
 51
131.4096221092697
  0
LINE
  5
68A
330
1F
100
AcDbEntity
  8
0
100
AcDbLine
 10
493.8601406056036
 20
277.4770783800793
 30
0.0
 11
493.8601406056036
 21
281.0505392074199
 31
0.0
  0
ARC
  5
68B
330
1F
100
AcDbEntity
  8
0
100
AcDbCircle
 10
477.1949560459279
 20
299.1567800587816
 30
0.0
 40
18.01365373685211
100
AcDbArc
 50
258.9699844021239
 51
270.0
  0
ARC
  5
68C
330
1F
100
AcDbEntity
  8
0
100
AcDbCircle
 10
475.8406503581504
 20
292.2089158458368
 30
0.0
 40
10.93502667947244
100
AcDbArc
 50
244.798876354527
 51
258.9699844021176
  0
ARC
  5
68D
330
1F
100
AcDbEntity
  8
0
100
AcDbCircle
 10
473.7865967557122
 20
287.8440519406552
 30
0.0
 40
6.111006249121361
100
AcDbArc
 50
227.9674489460683
 51
244.7988763545211
  0
ARC
  5
68E
330
1F
100
AcDbEntity
  8
0
100
AcDbCircle
 10
477.1949560459288
 20
299.1567800587807
 30
0.0
 40
18.01365373685121
100
AcDbArc
 50
270.0
 51
281.0300155978761
  0
CIRCLE
  5
68F
330
1F
100
AcDbEntity
  8
0
100
AcDbCircle
 10
474.8895388944766
 20
282.3442212767761
 30
0.0
 40
0.35
  0
ARC
  5
690
330
1F
100
AcDbEntity
  8
0
100
AcDbCircle
 10
478.5492617337062
 20
292.2089158458377
 30
0.0
 40
10.93502667947331
100
AcDbArc
 50
281.0300155978824
 51
293.4163952040117
  0
ARC
  5
692
330
1F
100
AcDbEntity
  8
0
100
AcDbCircle
 10
483.8949560459286
 20
279.2086946641305
 30
0.0
 40
1.0
100
AcDbArc
 50
180.0
 51
243.5028148323175
  0
LINE
  5
694
330
1F
100
AcDbEntity
  8
0
100
AcDbLine
 10
469.4949560459285
 20
279.6336513026179
 30
0.0
 11
469.4949560459285
 21
277.7664294913063
 31
0.0
  0
ARC
  5
695
330
1F
100
AcDbEntity
  8
0
100
AcDbCircle
 10
469.1949560459284
 20
280.0336513026175
 30
0.0
 40
0.5
100
AcDbArc
 50
284.4775121859295
 51
0.0
  0
LINE
  5
696
330
1F
100
AcDbEntity
  8
0
100
AcDbLine
 10
468.9949560459285
 20
279.5185710015919
 30
0.0
 11
468.9949560459285
 21
277.5860527383659
 31
0.0
  0
LINE
  5
697
330
1F
100
AcDbEntity
  8
0
100
AcDbLine
 10
468.4949560459285
 20
279.420510032596
 30
0.0
 11
468.4949560459285
 21
277.4267184569301
 31
0.0
  0
ARC
  5
698
330
1F
100
AcDbEntity
  8
0
100
AcDbCircle
 10
470.4949560459286
 20
279.20869466413
 30
0.0
 40
1.0
100
AcDbArc
 50
296.4971851675136
 51
0.0
  0
ARC
  5
699
330
1F
100
AcDbEntity
  8
0
100
AcDbCircle
 10
471.6949560459283
 20
278.7187706689476
 30
0.0
 40
1.0
100
AcDbArc
 50
299.9999999999973
 51
0.0
  0
ARC
  5
69A
330
1F
100
AcDbEntity
  8
0
100
AcDbCircle
 10
482.6949560459284
 20
278.7187706689476
 30
0.0
 40
1.0
100
AcDbArc
 50
180.0
 51
240.0000000000027
  0
ARC
  5
69B
330
1F
100
AcDbEntity
  8
0
100
AcDbCircle
 10
486.6949560459284
 20
285.8431263219288
 30
0.0
 40
6.49999999999949
100
AcDbArc
 50
255.5224878140705
 51
284.4775121859295
  0
LINE
  5
69C
330
1F
100
AcDbEntity
  8
0
100
AcDbLine
 10
484.7601406056037
 20
277.7416914169305
 30
0.0
 11
484.7601406056037
 21
279.7868000663318
 31
0.0
  0
LINE
  5
69D
330
1F
100
AcDbEntity
  8
0
100
AcDbLine
 10
485.4601406056035
 20
277.4989763607525
 30
0.0
 11
485.4601406056035
 21
279.4614940206813
 31
0.0
  0
ARC
  5
69E
330
1F
100
AcDbEntity
  8
0
100
AcDbCircle
 10
485.1949560459283
 20
280.0336513026184
 30
0.0
 40
0.4999999999999716
100
AcDbArc
 50
180.0
 51
255.5224878140705
  0
LINE
  5
69F
330
1F
100
AcDbEntity
  8
0
100
AcDbLine
 10
486.1601406056037
 20
277.2967216401387
 30
0.0
 11
486.1601406056037
 21
279.3651658060887
 31
0.0
  0
LINE
  5
6A0
330
1F
100
AcDbEntity
  8
0
100
AcDbLine
 10
486.8601406056036
 20
277.1331364816963
 30
0.0
 11
486.8601406056036
 21
279.3452255792861
 31
0.0
  0
LINE
  5
6A1
330
1F
100
AcDbEntity
  8
0
100
AcDbLine
 10
487.5601406056034
 20
277.0068492563403
 30
0.0
 11
487.5601406056034
 21
279.4009639770564
 31
0.0
  0
LINE
  5
6A2
330
1F
100
AcDbEntity
  8
0
100
AcDbLine
 10
488.2601406056037
 20
276.9168452443334
 30
0.0
 11
488.2601406056037
 21
279.5343865671009
 31
0.0
  0
LINE
  5
6A3
330
1F
100
AcDbEntity
  8
0
100
AcDbLine
 10
469.6949560459284
 20
283.3050130909826
 30
0.0
 11
469.6949560459284
 21
280.0336513026175
 31
0.0
  0
LINE
  5
6A4
330
1F
100
AcDbEntity
  8
0
100
AcDbLine
 10
469.9949560459286
 20
283.0515726131346
 30
0.0
 11
469.9949560459286
 21
277.9687331323446
 31
0.0
  0
LINE
  5
6A5
330
1F
100
AcDbEntity
  8
0
100
AcDbLine
 10
470.4949560459286
 20
282.6953143464004
 30
0.0
 11
470.4949560459286
 21
278.1940156812545
 31
0.0
  0
LINE
  5
6A6
330
1F
100
AcDbEntity
  8
0
100
AcDbLine
 10
470.9949560459286
 20
282.4079559587692
 30
0.0
 11
470.9949560459286
 21
278.4445383234731
 31
0.0
  0
LINE
  5
6A7
330
1F
100
AcDbEntity
  8
0
100
AcDbLine
 10
471.4949560459285
 20
282.1744876396308
 30
0.0
 11
471.4949560459285
 21
279.20869466413
 31
0.0
  0
LINE
  5
6A8
330
1F
100
AcDbEntity
  8
0
100
AcDbLine
 10
472.6949560459283
 20
278.7187706689476
 30
0.0
 11
472.6949560459283
 21
281.7361217690475
 31
0.0
  0
LINE
  5
6A9
330
1F
100
AcDbEntity
  8
0
100
AcDbLine
 10
483.3601406056036
 20
278.3637257624594
 30
0.0
 11
483.3601406056036
 21
282.3997032866653
 31
0.0
  0
LINE
  5
6AA
330
1F
100
AcDbEntity
  8
0
100
AcDbLine
 10
481.6949560459284
 20
278.7187706689476
 30
0.0
 11
481.6949560459284
 21
281.7361217690479
 31
0.0
  0
LWPOLYLINE
  5
6AB
330
1F
100
AcDbEntity
  8
0
100
AcDbPolyline
 90
        2
 70
     0
 43
0.0
 10
482.8949560459286
 20
279.2086946641305
 10
482.8949560459286
 20
282.1744876396308
 42
-0.284399089359825
  0
LINE
  5
6AC
330
1F
100
AcDbEntity
  8
0
100
AcDbLine
 10
484.0601406056034
 20
278.027165376551
 30
0.0
 11
484.0601406056034
 21
282.8035875611401
 31
0.0
  0
LINE
  5
6AD
330
1F
100
AcDbEntity
  8
0
100
AcDbLine
 10
484.6949560459283
 20
283.247124841392
 30
0.0
 11
484.6949560459283
 21
280.0336513026184
 31
0.0
  0
ARC
  5
6AE
330
1F
100
AcDbEntity
  8
0
100
AcDbCircle
 10
489.6949560459283
 20
290.8431263219293
 30
0.0
 40
15.0
100
AcDbArc
 50
240.0000000000027
 51
311.4096221092698
  0
ARC
  5
6AF
330
1F
100
AcDbEntity
  8
0
100
AcDbCircle
 10
489.6949560459283
 20
290.8431263219266
 30
0.0
 40
13.99999999999711
100
AcDbArc
 50
243.5028148323117
 51
298.4846353951853
  0
ARC
  5
6B0
330
1F
100
AcDbEntity
  8
0
100
AcDbCircle
 10
488.1949560459283
 20
280.0336513026184
 30
0.0
 40
0.4999999999999812
100
AcDbArc
 50
284.4775121859295
 51
0.0
  0
ARC
  5
6BC
330
1F
100
AcDbEntity
  8
0
100
AcDbCircle
 10
467.6949560459283
 20
285.8431263219288
 30
0.0
 40
6.5
100
AcDbArc
 50
75.52248781407055
 51
104.4775121859294
  0
ARC
  5
6BD
330
1F
100
AcDbEntity
  8
0
100
AcDbCircle
 10
464.6949560459283
 20
280.8431263219288
 30
0.0
 40
14.0
100
AcDbArc
 50
63.50281483234078
 51
118.4846353951796
  0
ARC
  5
6BE
330
1F
100
AcDbEntity
  8
0
100
AcDbCircle
 10
464.6949560459283
 20
280.8431263219293
 30
0.0
 40
15.0
100
AcDbArc
 50
60.00000000000272
 51
131.4096221092697
  0
LINE
  5
856
330
1F
100
AcDbEntity
  8
0
100
AcDbLine
 10
460.6684422973044
 20
288.3540896377196
 30
0.0
 11
460.6684422973049
 21
287.4483302369501
 31
0.0
  0
ARC
  5
857
330
1F
100
AcDbEntity
  8
0
100
AcDbCircle
 10
460.6380808460335
 20
287.6420254138381
 30
0.0
 40
0.5550403530777647
100
AcDbArc
 50
329.8223364312227
 51
0.0000000000521102
  0
ARC
  5
858
330
1F
100
AcDbEntity
  8
0
100
AcDbCircle
 10
459.3121523652276
 20
287.6420254138386
 30
0.0
 40
0.555040353077021
100
AcDbArc
 50
179.999999999987
 51
210.1776635685236
  0
ARC
  5
859
330
1F
100
AcDbEntity
  8
0
100
AcDbCircle
 10
459.827655922943
 20
287.7964812308448
 30
0.0
 40
0.6048458272745721
100
AcDbArc
 50
210.2705950120729
 51
234.6375381128985
  0
TEXT
  5
85A
330
1F
100
AcDbEntity
  8
0
100
AcDbText
 10
455.9949560459285
 20
287.7681705924945
 30
0.0
 40
1.5
  1
ZC6
 50
270.0
  7
SIMPLEX
100
AcDbText
  0
ARC
  5
85B
330
1F
100
AcDbEntity
  8
0
100
AcDbCircle
 10
459.9751166056307
 20
288.1204689105773
 30
0.0
 40
0.9656453341307807
100
AcDbArc
 50
270.0000000000196
 51
315.8889498246915
  0
ARC
  5
85C
330
1F
100
AcDbEntity
  8
0
100
AcDbCircle
 10
459.9751166056316
 20
288.5814134528589
 30
0.0
 40
1.763883456145275
100
AcDbArc
 50
269.9999999999739
 51
286.439023322323
  0
ARC
  5
85D
330
1F
100
AcDbEntity
  8
0
100
AcDbCircle
 10
460.3196992654848
 20
287.8271617929383
 30
0.0
 40
0.9233368500733448
100
AcDbArc
 50
305.4633642415017
 51
329.8223364312193
  0
ARC
  5
85E
330
1F
100
AcDbEntity
  8
0
100
AcDbCircle
 10
460.1113707756407
 20
288.1196229421423
 30
0.0
 40
1.282411053371532
100
AcDbArc
 50
286.439023322323
 51
305.463364241507
  0
LINE
  5
85F
330
1F
100
AcDbEntity
  8
0
100
AcDbLine
 10
460.6684422973044
 20
286.0305116440029
 30
0.0
 11
460.6684422973044
 21
285.0186309048033
 31
0.0
  0
LINE
  5
860
330
1F
100
AcDbEntity
  8
0
100
AcDbLine
 10
461.1931211991118
 20
286.4052822881511
 30
0.0
 11
461.1931211991113
 21
285.0186309048033
 31
0.0
  0
LINE
  5
861
330
1F
100
AcDbEntity
  8
0
100
AcDbLine
 10
460.6684422973044
 20
286.4052822881506
 30
0.0
 11
461.1931211991118
 21
286.4052822881511
 31
0.0
  0
ARC
  5
862
330
1F
100
AcDbEntity
  8
0
100
AcDbCircle
 10
459.6305339457772
 20
287.8271617929375
 30
0.0
 40
0.9233368500721038
100
AcDbArc
 50
210.1776635685236
 51
234.5366357585218
  0
ARC
  5
863
330
1F
100
AcDbEntity
  8
0
100
AcDbCircle
 10
459.9168042969658
 20
287.9220993942411
 30
0.0
 40
0.7588826915834856
100
AcDbArc
 50
234.6375381129092
 51
253.6188782267296
  0
ARC
  5
864
330
1F
100
AcDbEntity
  8
0
100
AcDbCircle
 10
459.8388624356216
 20
288.1196229421428
 30
0.0
 40
1.282411053372409
100
AcDbArc
 50
234.5366357585218
 51
253.5609766775884
  0
LINE
  5
865
330
1F
100
AcDbEntity
  8
0
100
AcDbLine
 10
458.1949560459284
 20
286.4052822881506
 30
0.0
 11
458.1949560459284
 21
286.0305116440029
 31
0.0
  0
LINE
  5
866
330
1F
100
AcDbEntity
  8
0
100
AcDbLine
 10
458.1949560459284
 20
286.0305116440029
 30
0.0
 11
460.6684422973044
 21
286.0305116440029
 31
0.0
  0
LINE
  5
867
330
1F
100
AcDbEntity
  8
0
100
AcDbLine
 10
458.1949560459284
 20
286.4052822881506
 30
0.0
 11
460.6684422973044
 21
286.4052822881511
 31
0.0
  0
LINE
  5
868
330
1F
100
AcDbEntity
  8
0
100
AcDbLine
 10
458.1949560459284
 20
285.0186309048033
 30
0.0
 11
460.6684422973044
 21
285.0186309048033
 31
0.0
  0
ARC
  5
869
330
1F
100
AcDbEntity
  8
0
100
AcDbCircle
 10
459.9751166056312
 20
288.1204689105773
 30
0.0
 40
0.9656453341310376
100
AcDbArc
 50
253.6188782267045
 51
269.999999999987
  0
ARC
  5
86A
330
1F
100
AcDbEntity
  8
0
100
AcDbCircle
 10
459.9751166056312
 20
288.581413452858
 30
0.0
 40
1.76388345614468
100
AcDbArc
 50
253.5609766775946
 51
269.999999999987
  0
LINE
  5
86C
330
1F
100
AcDbEntity
  8
0
100
AcDbLine
 10
461.1931211991113
 20
284.1191813588482
 30
0.0
 11
461.1931211991113
 21
283.7444107147005
 31
0.0
  0
LWPOLYLINE
  5
86D
330
1F
100
AcDbEntity
  8
0
100
AcDbPolyline
 90
        5
 70
     0
 43
0.0
 10
458.794589076565
 20
284.1191813588482
 42
0.0706700048674347
 10
458.5391714716966
 20
284.0828994310871
 42
0.0823139390329339
 10
458.350550089709
 20
283.9926050942902
 42
0.1068415809705633
 10
458.2261253104402
 20
283.858290786982
 42
0.1343800092877643
 10
458.1949560459284
 20
283.7444107147005
 42
0.1343800092877643
  0
LINE
  5
86E
330
1F
100
AcDbEntity
  8
0
100
AcDbLine
 10
458.794589076565
 20
284.1191813588482
 30
0.0
 11
461.1931211991113
 21
284.1191813588482
 31
0.0
  0
LINE
  5
86F
330
1F
100
AcDbEntity
  8
0
100
AcDbLine
 10
458.1949560459284
 20
284.6438602606556
 30
0.0
 11
460.5934881684747
 21
284.6438602606556
 31
0.0
  0
LINE
  5
870
330
1F
100
AcDbEntity
  8
0
100
AcDbLine
 10
458.7196349477353
 20
283.7444107147005
 30
0.0
 11
461.1931211991113
 21
283.7444107147005
 31
0.0
  0
LWPOLYLINE
  5
871
330
1F
100
AcDbEntity
  8
0
100
AcDbPolyline
 90
        5
 70
     0
 43
0.0
 10
460.5934881684747
 20
284.6438602606556
 42
0.0706700048673327
 10
460.8489057733431
 20
284.6801421884168
 42
0.0823139390333952
 10
461.0375271553311
 20
284.7704365252137
 42
0.1068415809722693
 10
461.1619519346008
 20
284.9047508325245
 42
0.134380009285371
 10
461.1931211991113
 20
285.0186309048038
 42
0.134380009285371
  0
LINE
  5
872
330
1F
100
AcDbEntity
  8
0
100
AcDbLine
 10
458.1949560459284
 20
285.0186309048033
 30
0.0
 11
458.1949560459284
 21
284.6438602606556
 31
0.0
  0
LINE
  5
874
330
1F
100
AcDbEntity
  8
0
100
AcDbLine
 10
465.9949560459286
 20
294.7625372290038
 30
0.0
 11
465.9949560459286
 21
292.1676816422653
 31
0.0
  0
LINE
  5
875
330
1F
100
AcDbEntity
  8
0
100
AcDbLine
 10
466.4949560459286
 20
294.69953278248
 30
0.0
 11
466.4949560459286
 21
292.2657426112617
 31
0.0
  0
LINE
  5
876
330
1F
100
AcDbEntity
  8
0
100
AcDbLine
 10
466.9949560459285
 20
294.6181036358846
 30
0.0
 11
466.9949560459285
 21
292.3238670203366
 31
0.0
  0
LINE
  5
877
330
1F
100
AcDbEntity
  8
0
100
AcDbLine
 10
467.4949560459285
 20
294.5179206531063
 30
0.0
 11
467.4949560459285
 21
292.3431263219288
 31
0.0
  0
LINE
  5
878
330
1F
100
AcDbEntity
  8
0
100
AcDbLine
 10
467.9949560459285
 20
294.3985680336548
 30
0.0
 11
467.9949560459285
 21
292.3238670203366
 31
0.0
  0
ARC
  5
879
330
1F
100
AcDbEntity
  8
0
100
AcDbCircle
 10
466.1949560459284
 20
291.6526013412402
 30
0.0
 40
0.5
100
AcDbArc
 50
104.4775121859294
 51
180.0
  0
LINE
  5
87A
330
1F
100
AcDbEntity
  8
0
100
AcDbLine
 10
459.9949560459285
 20
294.0306203977568
 30
0.0
 11
459.9949560459285
 21
292.0356901040611
 31
0.0
  0
LINE
  5
87B
330
1F
100
AcDbEntity
  8
0
100
AcDbLine
 10
460.4949560459285
 20
294.1982751417661
 30
0.0
 11
460.4949560459285
 21
291.9326557060379
 31
0.0
  0
LINE
  5
87C
330
1F
100
AcDbEntity
  8
0
100
AcDbLine
 10
460.9949560459285
 20
294.3453483612823
 30
0.0
 11
460.9949560459285
 21
291.7110235671755
 31
0.0
  0
LINE
  5
87D
330
1F
100
AcDbEntity
  8
0
100
AcDbLine
 10
458.9949560459285
 20
293.6302291994378
 30
0.0
 11
458.9949560459285
 21
291.961625222317
 31
0.0
  0
LINE
  5
87E
330
1F
100
AcDbEntity
  8
0
100
AcDbLine
 10
458.4949560459286
 20
293.3954169495394
 30
0.0
 11
458.4949560459286
 21
291.768394792711
 31
0.0
  0
LINE
  5
87F
330
1F
100
AcDbEntity
  8
0
100
AcDbLine
 10
457.9949560459286
 20
293.1354372113822
 30
0.0
 11
457.9949560459286
 21
291.4036956813154
 31
0.0
  0
LINE
  5
880
330
1F
100
AcDbEntity
  8
0
100
AcDbLine
 10
457.4949560459286
 20
292.2694118075976
 30
0.0
 11
457.4949560459286
 21
288.2966566673615
 31
0.0
  0
ARC
  5
881
330
1F
100
AcDbEntity
  8
0
100
AcDbCircle
 10
458.4949560459286
 20
292.2694118075976
 30
0.0
 40
1.0
100
AcDbArc
 50
118.4846353951796
 51
180.0
  0
LINE
  5
882
330
1F
100
AcDbEntity
  8
0
100
AcDbLine
 10
459.4949560459285
 20
293.8415877693467
 30
0.0
 11
459.4949560459285
 21
292.0450168551554
 31
0.0
  0
LINE
  5
883
330
1F
100
AcDbEntity
  8
0
100
AcDbLine
 10
460.6684422973044
 20
288.7288602818678
 30
0.0
 11
461.1931211991118
 21
288.7288602818678
 31
0.0
  0
LINE
  5
884
330
1F
100
AcDbEntity
  8
0
100
AcDbLine
 10
461.1931211991118
 20
288.7288602818678
 30
0.0
 11
461.1931211991113
 21
287.6420254138386
 31
0.0
  0
ARC
  5
885
330
1F
100
AcDbEntity
  8
0
100
AcDbCircle
 10
459.6914446589362
 20
287.7169795426683
 30
0.0
 40
0.4471308093934255
100
AcDbArc
 50
179.9999999999739
 51
210.2705950120551
  0
LINE
  5
886
330
1F
100
AcDbEntity
  8
0
100
AcDbLine
 10
458.7571120121501
 20
288.3540896377196
 30
0.0
 11
458.7571120121501
 21
287.6420254138386
 31
0.0
  0
LINE
  5
887
330
1F
100
AcDbEntity
  8
0
100
AcDbLine
 10
458.1949560459284
 20
288.3540896377196
 30
0.0
 11
458.7571120121501
 21
288.3540896377196
 31
0.0
  0
LINE
  5
888
330
1F
100
AcDbEntity
  8
0
100
AcDbLine
 10
459.2443138495427
 20
288.3540896377196
 30
0.0
 11
459.2443138495423
 21
287.7169795426687
 31
0.0
  0
LINE
  5
889
330
1F
100
AcDbEntity
  8
0
100
AcDbLine
 10
458.1949560459284
 20
288.7288602818678
 30
0.0
 11
458.1949560459284
 21
288.3540896377196
 31
0.0
  0
LINE
  5
88A
330
1F
100
AcDbEntity
  8
0
100
AcDbLine
 10
459.2443138495427
 20
288.3540896377196
 30
0.0
 11
460.6684422973044
 21
288.3540896377196
 31
0.0
  0
LWPOLYLINE
  5
88B
330
1F
100
AcDbEntity
  8
0
100
AcDbPolyline
 90
       16
 70
     1
 43
0.0
 10
459.6940386225196
 20
291.0336997433772
 42
0.0754446162297015
 10
459.3244912006394
 20
290.9776198157463
 42
0.0857828071084749
 10
459.0210873674155
 20
290.8226012543789
 42
0.1060700219618438
 10
458.7968088459674
 20
290.5647860670731
 42
0.1268223572487845
 10
458.7196349477353
 20
290.2654199228743
 42
0.1268223572497303
 10
458.7968088459684
 20
289.9660537786729
 42
0.1060700219617812
 10
459.0210873674177
 20
289.708238591367
 42
0.0857828071078646
 10
459.3244912006394
 20
289.5532200300015
 42
0.0754446162295888
 10
459.6940386225201
 20
289.4971401023706
 42
0.0754446162292506
 10
460.0635860443985
 20
289.5532200300006
 42
0.0857828071080708
 10
460.3669898776216
 20
289.7082385913661
 42
0.1060700219655342
 10
460.5912683990759
 20
289.9660537786815
 42
0.1268223572458728
 10
460.6684422973049
 20
290.2654199228743
 42
0.1268223572467848
 10
460.5912683990745
 20
290.5647860670681
 42
0.1060700219632698
 10
460.3669898776252
 20
290.8226012543785
 42
0.0857828071094354
 10
460.0635860443981
 20
290.9776198157472
 42
0.0754446162292444
  0
LWPOLYLINE
  5
88C
330
1F
100
AcDbEntity
  8
0
100
AcDbPolyline
 90
       16
 70
     1
 43
0.0
 10
459.6940386225201
 20
291.3522547909026
 42
0.0754446162291282
 10
459.0883653779988
 20
291.2603420627677
 42
0.0857828071091157
 10
458.617970976099
 20
291.0200027675039
 42
0.1060700219624788
 10
458.2932546587025
 20
290.6467311869235
 42
0.1268223572482705
 10
458.1949560459284
 20
290.2654199228739
 42
0.1268223572472494
 10
458.2932546587012
 20
289.8841086588275
 42
0.1060700219643898
 10
458.6179709761036
 20
289.5108370782402
 42
0.0857828071075098
 10
459.0883653779947
 20
289.2704977829815
 42
0.0754446162296784
 10
459.6940386225201
 20
289.1785850548451
 42
0.0754446162294961
 10
460.2997118670437
 20
289.2704977829815
 42
0.0857828071084069
 10
460.7701062689398
 20
289.510837078243
 42
0.1060700219622037
 10
461.0948225863362
 20
289.8841086588225
 42
0.1268223572488178
 10
461.1931211991113
 20
290.2654199228743
 42
0.1268223572488321
 10
461.0948225863362
 20
290.6467311869258
 42
0.1060700219625793
 10
460.7701062689379
 20
291.0200027675062
 42
0.0857828071078009
 10
460.2997118670455
 20
291.2603420627663
 42
0.0754446162297125
  0
LINE
  5
88D
330
1F
100
AcDbEntity
  8
0
100
AcDbLine
 10
458.1949560459284
 20
288.7288602818678
 30
0.0
 11
460.6684422973044
 21
288.7288602818673
 31
0.0
  0
ARC
  5
88E
330
1F
100
AcDbEntity
  8
0
100
AcDbCircle
 10
451.1949560459283
 20
290.3431263219293
 30
0.0
 40
0.5
100
AcDbArc
 50
90.0
 51
180.0
  0
ARC
  5
88F
330
1F
100
AcDbEntity
  8
0
100
AcDbCircle
 10
450.4949560459281
 20
288.8431263219293
 30
0.0
 40
0.2
100
AcDbArc
 50
270.0
 51
0.0
  0
ARC
  5
890
330
1F
100
AcDbEntity
  8
0
100
AcDbCircle
 10
451.4661994906055
 20
295.8431263219292
 30
0.0
 40
5.0
100
AcDbArc
 50
270.0
 51
311.4096221092698
  0
LINE
  5
891
330
1F
100
AcDbEntity
  8
0
100
AcDbLine
 10
451.4661994906055
 20
290.8431263219293
 30
0.0
 11
451.1949560459283
 21
290.8431263219293
 31
0.0
  0
LINE
  5
892
330
1F
100
AcDbEntity
  8
0
100
AcDbLine
 10
450.6949560459283
 20
288.8431263219293
 30
0.0
 11
450.6949560459283
 21
290.3431263219293
 31
0.0
  0
ARC
  5
896
330
1F
100
AcDbEntity
  8
0
100
AcDbCircle
 10
428.6949560459284
 20
284.3616614523332
 30
0.0
 40
0.5
100
AcDbArc
 50
180.0
 51
180.0
  0
ARC
  5
897
330
1F
100
AcDbEntity
  8
0
100
AcDbCircle
 10
428.6949560459284
 20
287.3245911915258
 30
0.0
 40
0.5
100
AcDbArc
 50
180.0
 51
180.0
  0
LINE
  5
898
330
1F
100
AcDbEntity
  8
0
100
AcDbLine
 10
450.4949560459281
 20
288.6431263219295
 30
0.0
 11
430.5539136584889
 21
288.6431263219295
 31
0.0
  0
LINE
  5
954
330
1F
100
AcDbEntity
  8
0
100
AcDbLine
 10
503.8949560459286
 20
288.6431263219295
 30
0.0
 11
523.8359984333678
 21
288.6431263219295
 31
0.0
  0
LINE
  5
955
330
1F
100
AcDbEntity
  8
0
100
AcDbLine
 10
491.0949560459284
 20
288.3708045515803
 30
0.0
 11
494.720753524492
 21
285.328399224594
 31
0.0
  0
LINE
  5
956
330
1F
100
AcDbEntity
  8
0
100
AcDbLine
 10
489.8949560459286
 20
284.3777241089931
 30
0.0
 11
489.8949560459286
 21
291.858402355607
 31
0.0
  0
LINE
  5
957
330
1F
100
AcDbEntity
  8
0
100
AcDbLine
 10
491.7601406056037
 20
285.2929222826235
 30
0.0
 11
491.7601406056037
 21
287.812648432892
 31
0.0
  0
LINE
  5
958
330
1F
100
AcDbEntity
  8
0
100
AcDbLine
 10
491.0949560459284
 20
285.8510784013117
 30
0.0
 11
491.0949560459284
 21
288.3708045515803
 31
0.0
  0
LINE
  5
959
330
1F
100
AcDbEntity
  8
0
100
AcDbLine
 10
494.720753524492
 20
285.328399224594
 30
0.0
 11
493.2193071785241
 21
284.0685361494595
 31
0.0
  0
LINE
  5
95A
330
1F
100
AcDbEntity
  8
0
100
AcDbLine
 10
493.1601406056038
 20
284.1181827989751
 30
0.0
 11
493.1601406056038
 21
286.6379089492441
 31
0.0
  0
LINE
  5
95B
330
1F
100
AcDbEntity
  8
0
100
AcDbLine
 10
492.4601406056035
 20
284.7055525407993
 30
0.0
 11
492.4601406056035
 21
287.2252786910678
 31
0.0
  0
LINE
  5
95C
330
1F
100
AcDbEntity
  8
0
100
AcDbLine
 10
493.2193071785241
 20
284.0685361494595
 30
0.0
 11
491.0949560459284
 21
285.8510784013117
 31
0.0
  0
LINE
  5
95D
330
1F
100
AcDbEntity
  8
0
100
AcDbLine
 10
493.8601406056036
 20
284.6062592417681
 30
0.0
 11
493.8601406056036
 21
286.0505392074199
 31
0.0
  0
LINE
  5
95E
330
1F
100
AcDbEntity
  8
0
100
AcDbLine
 10
494.5601406056034
 20
285.1936289835924
 30
0.0
 11
494.5601406056034
 21
285.4631694655957
 31
0.0
  0
LINE
  5
960
330
1F
100
AcDbEntity
  8
0
100
AcDbLine
 10
489.8949560459286
 20
291.858402355607
 30
0.0
 11
494.7949560459282
 21
287.8797138814618
 31
0.0
  0
LINE
  5
961
330
1F
100
AcDbEntity
  8
0
100
AcDbLine
 10
493.1601406056038
 20
289.2071468099873
 30
0.0
 11
493.1601406056038
 21
294.4075096830482
 31
0.0
  0
LINE
  5
962
330
1F
100
AcDbEntity
  8
0
100
AcDbLine
 10
492.4601406056035
 20
289.7755308777225
 30
0.0
 11
492.4601406056035
 21
294.5673295538457
 31
0.0
  0
LINE
  5
963
330
1F
100
AcDbEntity
  8
0
100
AcDbLine
 10
491.7601406056037
 20
290.3439149454573
 30
0.0
 11
491.7601406056037
 21
294.6899675766879
 31
0.0
  0
LINE
  5
964
330
1F
100
AcDbEntity
  8
0
100
AcDbLine
 10
491.0601406056034
 20
290.9122990131925
 30
0.0
 11
491.0601406056034
 21
294.7764055884202
 31
0.0
  0
LINE
  5
965
330
1F
100
AcDbEntity
  8
0
100
AcDbLine
 10
490.3601406056036
 20
291.4806830809273
 30
0.0
 11
490.3601406056036
 21
294.8273148754913
 31
0.0
  0
ARC
  5
967
330
1F
100
AcDbEntity
  8
0
100
AcDbCircle
 10
503.1949560459284
 20
290.3431263219293
 30
0.0
 40
0.5
100
AcDbArc
 50
0.0
 51
90.0
  0
LINE
  5
968
330
1F
100
AcDbEntity
  8
0
100
AcDbLine
 10
494.5601406056034
 20
288.0703786745173
 30
0.0
 11
494.5601406056034
 21
293.9705776815915
 31
0.0
  0
LINE
  5
969
330
1F
100
AcDbEntity
  8
0
100
AcDbLine
 10
493.8601406056036
 20
288.6387627422525
 30
0.0
 11
493.8601406056036
 21
294.2091742637801
 31
0.0
  0
LINE
  5
96A
330
1F
100
AcDbEntity
  8
0
100
AcDbLine
 10
494.7949560459282
 20
287.8797138814618
 30
0.0
 11
494.7949560459282
 21
292.3431263219293
 31
0.0
  0
ARC
  5
96B
330
1F
100
AcDbEntity
  8
0
100
AcDbCircle
 10
502.9237126012512
 20
295.8431263219292
 30
0.0
 40
5.0
100
AcDbArc
 50
228.5903778907302
 51
270.0
  0
LINE
  5
96C
330
1F
100
AcDbEntity
  8
0
100
AcDbLine
 10
502.9237126012512
 20
290.8431263219293
 30
0.0
 11
503.1949560459284
 21
290.8431263219293
 31
0.0
  0
ARC
  5
96D
330
1F
100
AcDbEntity
  8
0
100
AcDbCircle
 10
495.8949560459282
 20
292.2694118075976
 30
0.0
 40
1.000000000000059
100
AcDbArc
 50
0.0
 51
61.51536460482039
  0
LINE
  5
96E
330
1F
100
AcDbEntity
  8
0
100
AcDbLine
 10
495.2601406056037
 20
292.3431263219293
 30
0.0
 11
495.2601406056037
 21
293.6894768082254
 31
0.0
  0
ARC
  5
96F
330
1F
100
AcDbEntity
  8
0
100
AcDbCircle
 10
503.8949560459286
 20
288.8431263219293
 30
0.0
 40
0.2
100
AcDbArc
 50
180.0
 51
270.0
  0
LINE
  5
970
330
1F
100
AcDbEntity
  8
0
100
AcDbLine
 10
503.6949560459284
 20
288.8431263219293
 30
0.0
 11
503.6949560459284
 21
290.3431263219293
 31
0.0
  0
LINE
  5
972
330
1F
100
AcDbEntity
  8
0
100
AcDbLine
 10
469.6949560459284
 20
291.6526013412402
 30
0.0
 11
469.6949560459284
 21
284.7050130909827
 31
0.0
  0
LINE
  5
973
330
1F
100
AcDbEntity
  8
0
100
AcDbLine
 10
469.9949560459286
 20
293.7175195115126
 30
0.0
 11
469.9949560459286
 21
284.4515726131346
 31
0.0
  0
LINE
  5
974
330
1F
100
AcDbEntity
  8
0
100
AcDbLine
 10
470.4949560459286
 20
293.4922369626026
 30
0.0
 11
470.4949560459286
 21
284.0953143464001
 31
0.0
  0
LINE
  5
975
330
1F
100
AcDbEntity
  8
0
100
AcDbLine
 10
470.9949560459286
 20
293.2427230895662
 30
0.0
 11
470.9949560459286
 21
283.8079559587693
 31
0.0
  0
LINE
  5
976
330
1F
100
AcDbEntity
  8
0
100
AcDbLine
 10
471.4949560459285
 20
292.4775579797281
 30
0.0
 11
471.4949560459285
 21
283.5744876396311
 31
0.0
  0
ARC
  5
977
330
1F
100
AcDbEntity
  8
0
100
AcDbCircle
 10
471.063928695275
 20
286.1931263219296
 30
0.0
 40
2.581070635628329
100
AcDbArc
 50
122.0317725513922
 51
237.9682274486078
  0
ARC
  5
978
330
1F
100
AcDbEntity
  8
0
100
AcDbCircle
 10
470.9919055017121
 20
286.1931263219301
 30
0.0
 40
1.973970333864925
100
AcDbArc
 50
131.0734366083223
 51
228.9265633916777
  0
LINE
  5
979
330
1F
100
AcDbEntity
  8
0
100
AcDbLine
 10
484.0601406056034
 20
283.5047309116642
 30
0.0
 11
484.0601406056034
 21
293.6590872673085
 31
0.0
  0
ARC
  5
97A
330
1F
100
AcDbEntity
  8
0
100
AcDbCircle
 10
479.9990227964676
 20
282.3522312111042
 30
0.0
 40
7.723040432382684
100
AcDbArc
 50
40.25829666233164
 51
52.55193613303442
  0
LWPOLYLINE
  5
97B
330
1F
100
AcDbEntity
  8
0
100
AcDbPolyline
 90
        2
 70
     0
 43
0.0
 10
485.0414029110729
 20
287.3431263219297
 42
0.0198119158173504
 10
484.6949560459283
 20
287.6812395528757
 42
0.0619120471428751
  0
ARC
  5
97C
330
1F
100
AcDbEntity
  8
0
100
AcDbCircle
 10
470.7970097722245
 20
285.1431263219299
 30
0.0
 40
2.143171170351632
100
AcDbArc
 50
120.9450912751973
 51
145.8232751902683
  0
ARC
  5
97D
330
1F
100
AcDbEntity
  8
0
100
AcDbCircle
 10
483.2722579234873
 20
285.8431263219293
 30
0.0
 40
3.019455536779795
100
AcDbArc
 50
330.2129177867017
 51
29.78708221332735
  0
ARC
  5
97E
330
1F
100
AcDbEntity
  8
0
100
AcDbCircle
 10
483.2722579234873
 20
285.8431263219293
 30
0.0
 40
2.319455536779795
100
AcDbArc
 50
319.7064819183487
 51
40.2935180816838
  0
ARC
  5
981
330
1F
100
AcDbEntity
  8
0
100
AcDbCircle
 10
483.8949560459282
 20
292.4775579797286
 30
0.0
 40
0.9999999999998578
100
AcDbArc
 50
116.4971851676767
 51
180.0
  0
LWPOLYLINE
  5
982
330
1F
100
AcDbEntity
  8
0
100
AcDbPolyline
 90
        5
 70
     0
 43
0.0
 10
481.6949560459284
 20
289.2501308748112
 42
0.0248262161446173
 10
480.6413861962568
 20
289.5103617078028
 42
0.0481647152345745
 10
477.1949560459283
 20
289.8431263219297
 42
0.0481647152345737
 10
473.7485258955998
 20
289.5103617078028
 42
0.0248262161446186
 10
472.6949560459283
 20
289.2501308748112
 42
0.07357327841803
  0
LWPOLYLINE
  5
983
330
1F
100
AcDbEntity
  8
0
100
AcDbPolyline
 90
        5
 70
     0
 43
0.0
 10
481.6949560459284
 20
289.9501308748115
 42
0.0248262161446186
 10
480.6413861962568
 20
290.210361707803
 42
0.0481647152345725
 10
477.1949560459283
 20
290.5431263219295
 42
0.0481647152345724
 10
473.7485258956003
 20
290.210361707803
 42
0.0248262161446206
 10
472.6949560459283
 20
289.950130874811
 42
0.0735732784180258
  0
LWPOLYLINE
  5
984
330
1F
100
AcDbEntity
  8
0
100
AcDbPolyline
 90
        3
 70
     0
 43
0.0
 10
474.8895388944766
 20
288.9949916849803
 42
0.0160454922619853
 10
473.7485258955998
 20
288.810361707803
 42
0.0248262161446195
 10
472.6949560459283
 20
288.550130874811
 42
0.0735732784180344
  0
LWPOLYLINE
  5
985
330
1F
100
AcDbEntity
  8
0
100
AcDbPolyline
 90
        3
 70
     0
 43
0.0
 10
474.8895388944766
 20
288.9949916849803
 42
0.0160454922619853
 10
473.7485258955998
 20
288.810361707803
 42
0.0248262161446195
 10
472.6949560459283
 20
288.550130874811
 42
0.0735732784180331
  0
LINE
  5
986
330
1F
100
AcDbEntity
  8
0
100
AcDbLine
 10
468.4949560459285
 20
294.2595341869271
 30
0.0
 11
468.4949560459285
 21
292.2657426112617
 31
0.0
  0
LINE
  5
987
330
1F
100
AcDbEntity
  8
0
100
AcDbLine
 10
468.9949560459285
 20
294.1001999054918
 30
0.0
 11
468.9949560459285
 21
292.1676816422653
 31
0.0
  0
LINE
  5
988
330
1F
100
AcDbEntity
  8
0
100
AcDbLine
 10
469.4949560459285
 20
293.9198231525509
 30
0.0
 11
469.4949560459285
 21
292.0526013412402
 31
0.0
  0
ARC
  5
989
330
1F
100
AcDbEntity
  8
0
100
AcDbCircle
 10
469.1949560459284
 20
291.6526013412402
 30
0.0
 40
0.5
100
AcDbArc
 50
0.0
 51
75.52248781407055
  0
ARC
  5
98A
330
1F
100
AcDbEntity
  8
0
100
AcDbCircle
 10
470.4949560459286
 20
292.4775579797281
 30
0.0
 40
1.0
100
AcDbArc
 50
0.0
 51
63.50281483249226
  0
ARC
  5
98B
330
1F
100
AcDbEntity
  8
0
100
AcDbCircle
 10
471.6949560459283
 20
292.9674819749114
 30
0.0
 40
1.0
100
AcDbArc
 50
0.0
 51
60.00000000000272
  0
ARC
  5
98D
330
1F
100
AcDbEntity
  8
0
100
AcDbCircle
 10
474.8895388944766
 20
289.3420313670829
 30
0.0
 40
0.35
100
AcDbArc
 50
270.0
 51
90.0
  0
ARC
  5
98E
330
1F
100
AcDbEntity
  8
0
100
AcDbCircle
 10
482.6949560459284
 20
292.9674819749114
 30
0.0
 40
1.0
100
AcDbArc
 50
119.9999999999973
 51
180.0
  0
LINE
  5
98F
330
1F
100
AcDbEntity
  8
0
100
AcDbLine
 10
485.4601406056035
 20
292.2247586231781
 30
0.0
 11
485.4601406056035
 21
294.1872762831069
 31
0.0
  0
LINE
  5
990
330
1F
100
AcDbEntity
  8
0
100
AcDbLine
 10
484.7601406056037
 20
291.8994525775281
 30
0.0
 11
484.7601406056037
 21
293.9445612269285
 31
0.0
  0
LINE
  5
991
330
1F
100
AcDbEntity
  8
0
100
AcDbLine
 10
486.1601406056037
 20
292.3210868377703
 30
0.0
 11
486.1601406056037
 21
294.3895310037203
 31
0.0
  0
LINE
  5
992
330
1F
100
AcDbEntity
  8
0
100
AcDbLine
 10
486.8601406056036
 20
292.3410270645729
 30
0.0
 11
486.8601406056036
 21
294.5531161621627
 31
0.0
  0
LINE
  5
993
330
1F
100
AcDbEntity
  8
0
100
AcDbLine
 10
487.5601406056034
 20
292.2852886668027
 30
0.0
 11
487.5601406056034
 21
294.6794033875187
 31
0.0
  0
LINE
  5
994
330
1F
100
AcDbEntity
  8
0
100
AcDbLine
 10
488.2601406056037
 20
292.1518660767585
 30
0.0
 11
488.2601406056037
 21
294.7694073995256
 31
0.0
  0
ARC
  5
995
330
1F
100
AcDbEntity
  8
0
100
AcDbCircle
 10
489.6949560459283
 20
280.8431263219293
 30
0.0
 40
15.0
100
AcDbArc
 50
48.59037789073025
 51
119.9999999999973
  0
ARC
  5
996
330
1F
100
AcDbEntity
  8
0
100
AcDbCircle
 10
489.6949560459283
 20
280.8431263219297
 30
0.0
 40
13.99999999999965
100
AcDbArc
 50
61.51536460482039
 51
116.4971851676825
  0
ARC
  5
998
330
1F
100
AcDbEntity
  8
0
100
AcDbCircle
 10
525.6949560459283
 20
284.3616614523332
 30
0.0
 40
0.5
100
AcDbArc
 50
0.0
 51
0.0
  0
ARC
  5
999
330
1F
100
AcDbEntity
  8
0
100
AcDbCircle
 10
525.6949560459283
 20
287.3245911915258
 30
0.0
 40
0.5
100
AcDbArc
 50
0.0
 51
0.0
  0
LINE
  5
9F3
330
1F
100
AcDbEntity
  8
7
 62
     7
100
AcDbLine
 10
563.5999999999998
 20
397.2999999999999
 30
0.0
 11
592.6834244816267
 21
397.2999999999999
 31
0.0
  0
LINE
  5
9F4
330
1F
100
AcDbEntity
  8
7
 62
     7
100
AcDbLine
 10
563.5999999999998
 20
422.2710494150645
 30
0.0
 11
563.5999999999998
 21
397.2999999999999
 31
0.0
  0
ARC
  5
3032
330
1F
100
AcDbEntity
  8
0
100
AcDbCircle
 10
125.3784641041141
 20
314.7282174208792
 30
0.0
 40
1.0
100
AcDbArc
 50
270.0
 51
0.0
  0
ARC
  5
3033
330
1F
100
AcDbEntity
  8
0
100
AcDbCircle
 10
139.5779827470071
 20
336.6801777808073
 30
0.0
 40
1.0
100
AcDbArc
 50
311.3578350816003
 51
0.0
  0
LINE
  5
3034
330
1F
100
AcDbEntity
  8
0
100
AcDbLine
 10
126.3784641041141
 20
314.7282174208792
 30
0.0
 11
126.3784641041141
 21
323.7282174208796
 31
0.0
  0
LINE
  5
3035
330
1F
100
AcDbEntity
  8
0
100
AcDbLine
 10
126.3784641041141
 20
323.7282174208796
 30
0.0
 11
140.2387424140768
 21
335.929580243925
 31
0.0
  0
LINE
  5
3036
330
1F
100
AcDbEntity
  8
0
100
AcDbLine
 10
140.5779827470071
 20
344.3287084378684
 30
0.0
 11
140.5779827470071
 21
336.6801777808073
 31
0.0
  0
ARC
  5
3037
330
1F
100
AcDbEntity
  8
0
100
AcDbCircle
 10
115.5779827470071
 20
344.3287084378684
 30
0.0
 40
25.0
100
AcDbArc
 50
0.0
 51
90.0
  0
LINE
  5
3038
330
1F
100
AcDbEntity
  8
0
100
AcDbLine
 10
104.0473999710127
 20
347.7999640175265
 30
0.0
 11
104.0473999710127
 21
349.3624640175265
 31
0.0
  0
LINE
  5
3039
330
1F
100
AcDbEntity
  8
0
100
AcDbLine
 10
105.7661499710132
 20
347.7999640175265
 30
0.0
 11
105.7661499710127
 21
349.8312140175265
 31
0.0
  0
LINE
  5
303A
330
1F
100
AcDbEntity
  8
0
100
AcDbLine
 10
105.7661499710127
 20
344.2062140175269
 30
0.0
 11
105.7661499710127
 21
347.331214017526
 31
0.0
  0
LINE
  5
303B
330
1F
100
AcDbEntity
  8
0
100
AcDbLine
 10
104.0473999710127
 20
344.5187140175269
 30
0.0
 11
104.0473999710132
 21
347.3312140175269
 31
0.0
  0
LWPOLYLINE
  5
303C
330
1F
100
AcDbEntity
  8
0
100
AcDbPolyline
 90
        5
 70
     0
 43
0.0
 10
104.2036499710132
 20
343.1124640175265
 42
0.0706700048675007
 10
104.8231205409231
 20
343.2004594651364
 42
0.082313939032987
 10
105.3085043166168
 20
343.4328159756039
 42
0.1068415809705338
 10
105.6576166261081
 20
343.8096764233212
 42
0.1343800092875062
 10
105.7661499710127
 20
344.2062140175269
 42
0.1343800092872593
  0
LINE
  5
303D
330
1F
100
AcDbEntity
  8
0
100
AcDbLine
 10
105.7661499710123
 20
341.2374640175265
 30
0.0
 11
105.7661499710127
 21
342.6437140175269
 31
0.0
  0
LINE
  5
303E
330
1F
100
AcDbEntity
  8
0
100
AcDbLine
 10
103.4223999710127
 20
345.9249640175269
 30
0.0
 11
103.4223999710132
 21
347.3312140175269
 31
0.0
  0
LINE
  5
303F
330
1F
100
AcDbEntity
  8
0
100
AcDbLine
 10
105.7661499710127
 20
347.3312140175269
 30
0.0
 11
104.0473999710132
 21
347.331214017526
 31
0.0
  0
LINE
  5
3040
330
1F
100
AcDbEntity
  8
0
100
AcDbLine
 10
105.7661499710132
 20
347.7999640175265
 30
0.0
 11
104.0473999710127
 21
347.7999640175265
 31
0.0
  0
ARC
  5
3041
330
1F
100
AcDbEntity
  8
0
100
AcDbCircle
 10
105.7661499710123
 20
351.6280890175269
 30
0.0
 40
0.78125
100
AcDbArc
 50
0.0
 51
90.0
  0
LWPOLYLINE
  5
3042
330
1F
100
AcDbEntity
  8
0
100
AcDbPolyline
 90
        4
 70
     0
 43
0.0
 10
103.5786499710132
 20
351.6280890175269
 42
0.1268223572478286
 10
103.0841688647358
 20
351.500616237746
 42
0.1060700219635992
 10
102.625713097929
 20
351.1017965149711
 42
0.0057743164530331
 10
102.6004285554379
 20
351.0672599623233
 42
0.0754446162296929
  0
LINE
  5
3043
330
1F
100
AcDbEntity
  8
0
100
AcDbLine
 10
103.2589169339592
 20
349.8194357367208
 30
0.0
 11
102.0376515335131
 21
348.4233108925262
 31
0.0
  0
LWPOLYLINE
  5
3044
330
1F
100
AcDbEntity
  8
0
100
AcDbPolyline
 90
        7
 70
     0
 43
0.0
 10
104.0473999710123
 20
349.3624640175265
 42
0.0754446162298549
 10
104.010005217028
 20
349.6088825760155
 42
0.0857828071075482
 10
103.9101062746943
 20
349.8044057557679
 42
0.1060700219639336
 10
103.7506433992823
 20
349.9431256593418
 42
0.1268223572479166
 10
103.5786499710127
 20
349.987464017526
 42
0.1268223572479166
 10
103.4066565427426
 20
349.9431256593418
 42
0.0965127511279588
 10
103.2589169339514
 20
349.8194357367113
 42
0.0857828071079652
  0
LWPOLYLINE
  5
3045
330
1F
100
AcDbEntity
  8
0
100
AcDbPolyline
 90
        5
 70
     0
 43
0.0
 10
105.7661499710123
 20
349.8312140175265
 42
0.1172959829388765
 10
105.6070035835043
 20
350.5002769822347
 42
0.1043956093338737
 10
105.1254460548578
 20
351.1017965149711
 42
0.0901710756155552
 10
104.4340620908817
 20
351.4865477045912
 42
0.0821741584480373
 10
103.5786499710132
 20
351.6280890175269
 42
0.0821741584480756
  0
ARC
  5
3046
330
1F
100
AcDbEntity
  8
0
100
AcDbCircle
 10
105.7661499710127
 20
328.0343390175265
 30
0.0
 40
0.78125
100
AcDbArc
 50
270.0
 51
0.0
  0
LINE
  5
3047
330
1F
100
AcDbEntity
  8
0
100
AcDbLine
 10
105.7661499710123
 20
334.9093390175265
 30
0.0
 11
104.5942749710123
 21
334.9093390175269
 31
0.0
  0
LINE
  5
3048
330
1F
100
AcDbEntity
  8
0
100
AcDbLine
 10
104.5942749710123
 20
334.9093390175269
 30
0.0
 11
104.5942749710123
 21
336.0812140175265
 31
0.0
  0
LINE
  5
3049
330
1F
100
AcDbEntity
  8
0
100
AcDbLine
 10
102.9536499710123
 20
334.9093390175265
 30
0.0
 11
102.9536499710127
 21
335.924964017526
 31
0.0
  0
LINE
  5
304A
330
1F
100
AcDbEntity
  8
0
100
AcDbLine
 10
105.7661499710127
 20
333.5030890175265
 30
0.0
 11
105.7661499710123
 21
334.9093390175265
 31
0.0
  0
LINE
  5
304B
330
1F
100
AcDbEntity
  8
0
100
AcDbLine
 10
106.5473999710123
 20
351.6280890175269
 30
0.0
 11
106.5473999710127
 21
328.0343390175265
 31
0.0
  0
LINE
  5
304C
330
1F
100
AcDbEntity
  8
0
100
AcDbLine
 10
105.7661499710127
 20
338.3468390175269
 30
0.0
 11
105.7661499710123
 21
339.7530890175269
 31
0.0
  0
LINE
  5
304D
330
1F
100
AcDbEntity
  8
0
100
AcDbLine
 10
125.5786007819308
 20
289.3282174208792
 30
0.0
 11
125.5786007819308
 21
298.3641158057394
 31
0.0
  0
LINE
  5
304E
330
1F
100
AcDbEntity
  8
0
100
AcDbLine
 10
127.5786007819308
 20
305.8282174208773
 30
0.0
 11
125.5786007819308
 21
298.3641158057394
 31
0.0
  0
ARC
  5
304F
330
1F
100
AcDbEntity
  8
0
100
AcDbCircle
 10
115.5786007819308
 20
289.3282174208792
 30
0.0
 40
10.0
100
AcDbArc
 50
270.0
 51
0.0
  0
LINE
  5
3050
330
1F
100
AcDbEntity
  8
0
100
AcDbLine
 10
127.5786007819308
 20
305.8282174208773
 30
0.0
 11
127.5786007819308
 21
324.7847115774766
 31
0.0
  0
ARC
  5
3051
330
1F
100
AcDbEntity
  8
0
100
AcDbCircle
 10
49.07798274700713
 20
359.3287084378697
 30
0.0
 40
10.0
100
AcDbArc
 50
90.0
 51
180.0
  0
LINE
  5
3052
330
1F
100
AcDbEntity
  8
0
100
AcDbLine
 10
49.07798274700758
 20
369.3287084378696
 30
0.0
 11
115.5779827470076
 21
369.3287084378683
 31
0.0
  0
LINE
  5
3053
330
1F
100
AcDbEntity
  8
0
100
AcDbLine
 10
100.6098999710127
 20
350.4562140175269
 30
0.0
 11
98.89114997101229
 21
350.4562140175269
 31
0.0
  0
LWPOLYLINE
  5
3054
330
1F
100
AcDbEntity
  8
0
100
AcDbPolyline
 90
        5
 70
     0
 43
0.0
 10
100.4536499710132
 20
342.6437140175269
 42
0.0706700048675362
 10
99.83417940110189
 20
342.555718569917
 42
0.0823139390330781
 10
99.34879562540913
 20
342.3233620594495
 42
0.1068415809708999
 10
98.99968331591777
 20
341.9465016117317
 42
0.1343800092875898
 10
98.89114997101273
 20
341.5499640175265
 42
0.1343800092873367
  0
LWPOLYLINE
  5
3055
330
1F
100
AcDbEntity
  8
0
100
AcDbPolyline
 90
        5
 70
     0
 43
0.0
 10
98.89114997101319
 20
349.206214017526
 42
0.1177000051909316
 10
99.01606379686723
 20
348.6829202502611
 42
0.1044834732993702
 10
99.39456019084833
 20
348.2118451064832
 42
0.0899855981122599
 10
99.93753510832426
 20
347.9108008709971
 42
0.0818706787250684
 10
100.6098999710123
 20
347.7999640175265
 42
0.0818706787250626
  0
LINE
  5
3056
330
1F
100
AcDbEntity
  8
0
100
AcDbLine
 10
98.89114997101319
 20
343.1124640175265
 30
0.0
 11
98.89114997101319
 21
344.518714017526
 31
0.0
  0
LINE
  5
3057
330
1F
100
AcDbEntity
  8
0
100
AcDbLine
 10
98.89114997101319
 20
345.9249640175265
 30
0.0
 11
98.89114997101319
 21
347.331214017526
 31
0.0
  0
ARC
  5
3058
330
1F
100
AcDbEntity
  8
0
100
AcDbCircle
 10
98.89114997101319
 20
351.6280890175269
 30
0.0
 40
0.78125
100
AcDbArc
 50
90.0
 51
180.0
  0
LINE
  5
3059
330
1F
100
AcDbEntity
  8
0
100
AcDbLine
 10
98.89114997101319
 20
349.2062140175269
 30
0.0
 11
98.89114997101229
 21
350.4562140175269
 31
0.0
  0
LINE
  5
305A
330
1F
100
AcDbEntity
  8
0
100
AcDbLine
 10
101.2348999710127
 20
347.8953741955668
 30
0.0
 11
101.2348999710127
 21
349.8033265248366
 31
0.0
  0
LINE
  5
305B
330
1F
100
AcDbEntity
  8
0
100
AcDbLine
 10
100.6098999710127
 20
347.7999640175265
 30
0.0
 11
100.6098999710127
 21
350.4562140175269
 31
0.0
  0
LWPOLYLINE
  5
305C
330
1F
100
AcDbEntity
  8
0
100
AcDbPolyline
 90
        3
 70
     0
 43
0.0
 10
101.2348999710127
 20
349.8033265248366
 42
0.0792288271524657
 10
101.7080522511767
 20
350.0790326064828
 42
0.0516736063679847
 10
101.9203515335127
 20
350.2928602946715
 42
0.1177000051911746
  0
LINE
  5
305D
330
1F
100
AcDbEntity
  8
0
100
AcDbLine
 10
100.6098999710127
 20
338.346839017526
 30
0.0
 11
98.89114997101319
 21
338.346839017526
 31
0.0
  0
LWPOLYLINE
  5
305E
330
1F
100
AcDbEntity
  8
0
100
AcDbPolyline
 90
        4
 70
     0
 43
0.0
 10
100.6098999710123
 20
337.9482539164249
 42
0.0828661734288564
 10
99.72635329028548
 20
337.5175246668121
 42
0.1066881118558668
 10
99.09031573405787
 20
336.8199276293315
 42
0.1324412179211201
 10
98.89114997101319
 20
336.081214017526
 42
0.1324412179211822
  0
LINE
  5
305F
330
1F
100
AcDbEntity
  8
0
100
AcDbLine
 10
100.6098999710127
 20
333.5030890175265
 30
0.0
 11
98.89114997101319
 21
333.5030890175265
 31
0.0
  0
ARC
  5
3060
330
1F
100
AcDbEntity
  8
0
100
AcDbCircle
 10
98.89114997101273
 20
328.0343390175265
 30
0.0
 40
0.78125
100
AcDbArc
 50
180.0
 51
270.0
  0
LINE
  5
3061
330
1F
100
AcDbEntity
  8
0
100
AcDbLine
 10
98.89114997101229
 20
333.5030890175269
 30
0.0
 11
98.89114997101319
 21
336.0812140175265
 31
0.0
  0
LINE
  5
3062
330
1F
100
AcDbEntity
  8
0
100
AcDbLine
 10
101.0005249710127
 20
336.6047905942785
 30
0.0
 11
101.0005249710127
 21
338.0428197312369
 31
0.0
  0
LINE
  5
3063
330
1F
100
AcDbEntity
  8
0
100
AcDbLine
 10
100.6098999710127
 20
333.5030890175265
 30
0.0
 11
100.6098999710123
 21
337.9482539164117
 31
0.0
  0
LINE
  5
3064
330
1F
100
AcDbEntity
  8
0
100
AcDbLine
 10
101.0005249710127
 20
333.5030890175269
 30
0.0
 11
101.0005249710127
 21
334.9093390175265
 31
0.0
  0
LINE
  5
3065
330
1F
100
AcDbEntity
  8
0
100
AcDbLine
 10
98.10989997101273
 20
328.0343390175265
 30
0.0
 11
98.10989997101319
 21
351.6280890175269
 31
0.0
  0
LINE
  5
3066
330
1F
100
AcDbEntity
  8
0
100
AcDbLine
 10
98.89114997101229
 20
338.3468390175269
 30
0.0
 11
98.89114997101319
 21
341.5499640175265
 31
0.0
  0
LINE
  5
3067
330
1F
100
AcDbEntity
  8
0
100
AcDbLine
 10
100.6098999710127
 20
338.346839017526
 30
0.0
 11
100.6098999710127
 21
341.2374640175265
 31
0.0
  0
LINE
  5
3068
330
1F
100
AcDbEntity
  8
0
100
AcDbLine
 10
101.0005249710127
 20
338.346839017526
 30
0.0
 11
101.0005249710127
 21
339.7530890175265
 31
0.0
  0
LINE
  5
3069
330
1F
100
AcDbEntity
  8
0
100
AcDbLine
 10
37.07798274700667
 20
348.7279806879544
 30
0.0
 11
39.07798274700713
 21
348.7279806879544
 31
0.0
  0
LINE
  5
306A
330
1F
100
AcDbEntity
  8
0
100
AcDbLine
 10
39.07798274700713
 20
353.3282174208796
 30
0.0
 11
50.15011870949297
 21
353.3282174208796
 31
0.0
  0
LINE
  5
306B
330
1F
100
AcDbEntity
  8
0
100
AcDbLine
 10
37.07798274700667
 20
335.7279806879544
 30
0.0
 11
39.07798274700667
 21
335.7279806879544
 31
0.0
  0
LINE
  5
306C
330
1F
100
AcDbEntity
  8
0
100
AcDbLine
 10
37.07798274700667
 20
348.7279806879544
 30
0.0
 11
37.07798274700667
 21
335.7279806879544
 31
0.0
  0
LINE
  5
306D
330
1F
100
AcDbEntity
  8
0
100
AcDbLine
 10
39.07798274700713
 20
356.3282174208796
 30
0.0
 11
39.07798274700622
 21
329.3282174208796
 31
0.0
  0
LINE
  5
306E
330
1F
100
AcDbEntity
  8
0
100
AcDbLine
 10
39.07798274700713
 20
353.3282174208796
 30
0.0
 11
39.07798274700713
 21
359.3287084378697
 31
0.0
  0
LINE
  5
3070
330
1F
100
AcDbEntity
  8
0
100
AcDbLine
 10
20.57589804514714
 20
347.7279806879612
 30
0.0
 11
27.73026213373873
 21
347.7279806879612
 31
0.0
  0
LINE
  5
3071
330
1F
100
AcDbEntity
  8
0
100
AcDbLine
 10
20.57589804514714
 20
347.7279806879612
 30
0.0
 11
19.57589804514714
 21
346.7279806879612
 31
0.0
  0
LINE
  5
3072
330
1F
100
AcDbEntity
  8
0
100
AcDbLine
 10
20.57589804514714
 20
336.7279806879603
 30
0.0
 11
26.98543658978997
 21
336.7279806879603
 31
0.0
  0
LINE
  5
3073
330
1F
100
AcDbEntity
  8
0
100
AcDbLine
 10
20.57589804514714
 20
336.7279806879603
 30
0.0
 11
19.57589804514714
 21
337.7279806879603
 31
0.0
  0
LINE
  5
3074
330
1F
100
AcDbEntity
  8
0
100
AcDbLine
 10
20.57589804514714
 20
336.7279806879603
 30
0.0
 11
20.57589804514714
 21
347.7279806879612
 31
0.0
  0
LINE
  5
3075
330
1F
100
AcDbEntity
  8
0
100
AcDbLine
 10
19.57589804514714
 20
346.7279806879612
 30
0.0
 11
19.57589804514714
 21
337.7279806879603
 31
0.0
  0
LWPOLYLINE
  5
3076
330
1F
100
AcDbEntity
  8
0
100
AcDbPolyline
 90
        3
 70
     0
 43
0.0
 10
27.73026213373873
 20
347.7279806879612
 42
-0.1524670157193713
 10
27.54927337881202
 20
340.9761104031012
 42
0.0990461184086264
 10
26.98543658978997
 20
336.7279806879603
 42
-1.398677039068321
  0
LWPOLYLINE
  5
3077
330
1F
100
AcDbEntity
  8
0
100
AcDbPolyline
 90
        3
 70
     0
 43
0.0
 10
28.76618638422645
 20
347.7279806879612
 42
-0.1466198768284205
 10
28.49550903890668
 20
340.6526323117792
 42
0.1007154281298933
 10
27.98780245777925
 20
336.7279806879603
 42
0.166207051876882
  0
LINE
  5
3079
330
1F
100
AcDbEntity
  8
0
100
AcDbLine
 10
27.98780245777925
 20
336.7279806879603
 30
0.0
 11
37.07798274700667
 21
336.7279806879603
 31
0.0
  0
LINE
  5
307A
330
1F
100
AcDbEntity
  8
0
100
AcDbLine
 10
28.76618638422645
 20
347.7279806879612
 30
0.0
 11
37.07798274700667
 21
347.7279806879612
 31
0.0
  0
LINE
  5
307E
330
1F
100
AcDbEntity
  8
0
100
AcDbLine
 10
80.57846410411389
 20
313.2282174208797
 30
0.0
 11
46.93056889390504
 21
353.3282174208796
 31
0.0
  0
LINE
  5
307F
330
1F
100
AcDbEntity
  8
0
100
AcDbLine
 10
79.17954112964889
 20
310.2282174208797
 30
0.0
 11
43.01434702590813
 21
353.3282174208796
 31
0.0
  0
ARC
  5
3080
330
1F
100
AcDbEntity
  8
0
100
AcDbCircle
 10
89.07798274700667
 20
329.3282174208796
 30
0.0
 40
50.0
100
AcDbArc
 50
180.0
 51
270.0
  0
LINE
  5
3082
330
1F
100
AcDbEntity
  8
0
100
AcDbLine
 10
83.37846410411406
 20
313.7282174208792
 30
0.0
 11
50.15011870949297
 21
353.3282174208796
 31
0.0
  0
LINE
  5
3083
330
1F
100
AcDbEntity
  8
0
100
AcDbLine
 10
98.89114997101319
 20
352.4093390175269
 30
0.0
 11
105.7661499710123
 21
352.4093390175269
 31
0.0
  0
LINE
  5
3084
330
1F
100
AcDbEntity
  8
0
100
AcDbLine
 10
104.0473999710127
 20
344.5187140175269
 30
0.0
 11
98.89114997101319
 21
344.5187140175269
 31
0.0
  0
LINE
  5
3085
330
1F
100
AcDbEntity
  8
0
100
AcDbLine
 10
104.2036499710127
 20
343.1124640175265
 30
0.0
 11
98.89114997101319
 21
343.1124640175265
 31
0.0
  0
LINE
  5
3086
330
1F
100
AcDbEntity
  8
0
100
AcDbLine
 10
103.4223999710127
 20
345.9249640175269
 30
0.0
 11
98.89114997101319
 21
345.9249640175265
 31
0.0
  0
LINE
  5
3087
330
1F
100
AcDbEntity
  8
0
100
AcDbLine
 10
103.4223999710132
 20
347.3312140175269
 30
0.0
 11
98.89114997101319
 21
347.3312140175269
 31
0.0
  0
LINE
  5
3088
330
1F
100
AcDbEntity
  8
0
100
AcDbLine
 10
105.7661499710127
 20
327.2530890175265
 30
0.0
 11
98.89114997101273
 21
327.2530890175265
 31
0.0
  0
LWPOLYLINE
  5
3089
330
1F
100
AcDbEntity
  8
0
100
AcDbPolyline
 90
       16
 70
     1
 43
0.0
 10
102.3286499710127
 20
328.0343390175269
 42
0.0754446162298111
 10
103.6839520426986
 20
328.2400101644423
 42
0.0857828071075875
 10
104.7593295313411
 20
328.7894543472801
 42
0.1060700219635767
 10
105.5222890009979
 20
329.6665001620406
 42
0.1268223572479102
 10
105.7661499710127
 20
330.6124640175265
 42
0.1268223572479303
 10
105.5222890009979
 20
331.5584278730118
 42
0.1060700219636211
 10
104.7593295313411
 20
332.4354736877733
 42
0.0857828071075752
 10
103.6839520426981
 20
332.9849178706106
 42
0.0754446162297991
 10
102.3286499710127
 20
333.1905890175269
 42
0.0754446162298111
 10
100.9733478993273
 20
332.9849178706106
 42
0.0857828071075875
 10
99.89797041068392
 20
332.4354736877729
 42
0.1060700219634277
 10
99.13501094102754
 20
331.5584278730132
 42
0.1268223572478424
 10
98.89114997101319
 20
330.6124640175265
 42
0.1268223572476431
 10
99.13501094102663
 20
329.6665001620415
 42
0.1060700219635432
 10
99.89797041068392
 20
328.7894543472801
 42
0.0857828071075834
 10
100.9733478993273
 20
328.2400101644432
 42
0.0754446162298071
  0
LINE
  5
308A
330
1F
100
AcDbEntity
  8
0
100
AcDbLine
 10
115.5786007819308
 20
279.3282174208791
 30
0.0
 11
89.07798274700667
 21
279.3282174208791
 31
0.0
  0
LINE
  5
308B
330
1F
100
AcDbEntity
  8
0
100
AcDbLine
 10
83.37846410411406
 20
313.7282174208792
 30
0.0
 11
125.3784641041141
 21
313.7282174208792
 31
0.0
  0
LINE
  5
308C
330
1F
100
AcDbEntity
  8
0
100
AcDbLine
 10
127.5786007819308
 20
310.2282174208795
 30
0.0
 11
79.17954112964889
 21
310.2282174208797
 31
0.0
  0
LINE
  5
308D
330
1F
100
AcDbEntity
  8
0
100
AcDbLine
 10
127.5786007819308
 20
313.2282174208794
 30
0.0
 11
80.57846410411389
 21
313.2282174208797
 31
0.0
  0
LWPOLYLINE
  5
308E
330
1F
100
AcDbEntity
  8
0
100
AcDbPolyline
 90
        4
 70
     0
 43
0.0
 10
101.2348999710132
 20
347.8953741955668
 42
0.0059451780358123
 10
101.2822648337003
 20
347.9108008709971
 42
0.0899855981123524
 10
101.8252397511767
 20
348.2118451064832
 42
0.051704345889002
 10
102.0376515335131
 20
348.4258123425677
 42
0.1177000051911746
  0
LWPOLYLINE
  5
308F
330
1F
100
AcDbEntity
  8
0
100
AcDbPolyline
 90
       16
 70
     1
 43
0.0
 10
102.3286499710132
 20
329.3234015175265
 42
0.0754446162298031
 10
103.0063010068554
 20
329.4262370909848
 42
0.0857828071075565
 10
103.5439897511771
 20
329.7009591824037
 42
0.106070021963608
 10
103.9254694860058
 20
330.1394820897838
 42
0.1268223572477123
 10
104.0473999710127
 20
330.6124640175265
 42
0.126822357247646
 10
103.9254694860062
 20
331.0854459452692
 42
0.1060700219634622
 10
103.5439897511771
 20
331.5239688526497
 42
0.0857828071074464
 10
103.0063010068554
 20
331.7986909440685
 42
0.0754446162297881
 10
102.3286499710127
 20
331.9015265175269
 42
0.0754446162298112
 10
101.6509989351696
 20
331.7986909440685
 42
0.0857828071075643
 10
101.1133101908483
 20
331.5239688526497
 42
0.1060700219637402
 10
100.7318304560201
 20
331.0854459452692
 42
0.126822357248024
 10
100.6098999710123
 20
330.6124640175265
 42
0.1268223572482204
 10
100.7318304560206
 20
330.1394820897833
 42
0.1060700219636179
 10
101.1133101908487
 20
329.7009591824037
 42
0.0857828071076583
 10
101.6509989351705
 20
329.4262370909844
 42
0.07544461622981
  0
LINE
  5
3090
330
1F
100
AcDbEntity
  8
0
100
AcDbLine
 10
102.9536499710123
 20
334.9093390175265
 30
0.0
 11
101.0005249710127
 21
334.9093390175265
 31
0.0
  0
LWPOLYLINE
  5
3091
330
1F
100
AcDbEntity
  8
0
100
AcDbPolyline
 90
        7
 70
     0
 43
0.0
 10
102.9536499710123
 20
335.924964017526
 42
0.1328538425877623
 10
102.8691712257807
 20
336.2372910140209
 42
0.1067232875209038
 10
102.5989745888553
 20
336.5326339076085
 42
0.0830116115266005
 10
102.2222944210728
 20
336.7153108495847
 42
0.0715980967399362
 10
101.7427124710122
 20
336.7843390175269
 42
0.0715980967398975
 10
101.2631305209522
 20
336.7153108495847
 42
0.0562866148919174
 10
101.0005249710123
 20
336.6047905942789
 42
0.1067232875208468
  0
LWPOLYLINE
  5
3092
330
1F
100
AcDbEntity
  8
0
100
AcDbPolyline
 90
        6
 70
     0
 43
0.0
 10
104.5942749710123
 20
336.081214017526
 42
0.1324412179213031
 10
104.3951092079662
 20
336.8199276293315
 42
0.1066881118558797
 10
103.75907165174
 20
337.5175246668111
 42
0.0832005337998968
 10
102.8717218208028
 20
337.9493788058751
 42
0.0718520396288232
 10
101.7427124710132
 20
338.1124640175265
 42
0.0468154260104154
 10
101.0005249710123
 20
338.0428197312665
 42
0.0832005337999331
  0
LINE
  5
3093
330
1F
100
AcDbEntity
  8
0
100
AcDbLine
 10
105.7661499710127
 20
338.3468390175269
 30
0.0
 11
101.0005249710127
 21
338.346839017526
 31
0.0
  0
LINE
  5
3094
330
1F
100
AcDbEntity
  8
0
100
AcDbLine
 10
105.7661499710127
 20
341.2374640175265
 30
0.0
 11
100.6098999710127
 21
341.2374640175265
 31
0.0
  0
LINE
  5
3095
330
1F
100
AcDbEntity
  8
0
100
AcDbLine
 10
105.7661499710127
 20
339.7530890175265
 30
0.0
 11
101.0005249710127
 21
339.7530890175265
 31
0.0
  0
LINE
  5
3096
330
1F
100
AcDbEntity
  8
0
100
AcDbLine
 10
105.7661499710127
 20
342.6437140175269
 30
0.0
 11
100.4536499710132
 21
342.6437140175269
 31
0.0
  0
LINE
  5
3097
330
1F
100
AcDbEntity
  8
0
100
AcDbLine
 10
105.7661499710127
 20
333.5030890175265
 30
0.0
 11
101.0005249710127
 21
333.5030890175269
 31
0.0
  0
LINE
  5
3098
330
1F
100
AcDbEntity
  8
0
100
AcDbLine
 10
102.6007874710124
 20
351.0676702675262
 30
0.0
 11
101.9203515335127
 21
350.2898093300262
 31
0.0
  0
LINE
  5
309C
330
1F
100
AcDbEntity
  8
0
100
AcDbLine
 10
219.4507384045983
 20
295.3282404993958
 30
0.0
 11
219.4507384045983
 21
279.827846476001
 31
0.0
  0
LINE
  5
312A
330
1F
100
AcDbEntity
  8
0
100
AcDbLine
 10
181.4507384045976
 20
323.7287315163852
 30
0.0
 11
178.4507384045976
 21
323.7287315163852
 31
0.0
  0
LINE
  5
312B
330
1F
100
AcDbEntity
  8
0
100
AcDbLine
 10
209.4507384045978
 20
336.2287315163852
 30
0.0
 11
178.6476341398486
 21
336.2287315163852
 31
0.0
  0
LINE
  5
312C
330
1F
100
AcDbEntity
  8
0
100
AcDbLine
 10
209.4507384045974
 20
335.2287315163849
 30
0.0
 11
209.4507384045987
 21
353.3287315163855
 31
0.0
  0
ARC
  5
312D
330
1F
100
AcDbEntity
  8
0
100
AcDbCircle
 10
204.4507384045973
 20
335.2287315163852
 30
0.0
 40
5.0
100
AcDbArc
 50
270.0
 51
359.9999999999968
  0
LINE
  5
312E
330
1F
100
AcDbEntity
  8
0
100
AcDbLine
 10
204.4507384045973
 20
330.2287315163852
 30
0.0
 11
183.4507384045978
 21
330.2287315163852
 31
0.0
  0
ARC
  5
312F
330
1F
100
AcDbEntity
  8
0
100
AcDbCircle
 10
183.4507384045978
 20
328.2287315163852
 30
0.0
 40
2.0
100
AcDbArc
 50
90.0
 51
179.9999999999935
  0
LINE
  5
3130
330
1F
100
AcDbEntity
  8
0
100
AcDbLine
 10
181.4507384045971
 20
319.3282404993977
 30
0.0
 11
181.450738404598
 21
328.2287315163854
 31
0.0
  0
ARC
  5
3131
330
1F
100
AcDbEntity
  8
0
100
AcDbCircle
 10
299.4507384045969
 20
319.3282404993911
 30
0.0
 40
118.0
100
AcDbArc
 50
179.9999999999967
 51
182.2246989290492
  0
LINE
  5
3134
330
1F
100
AcDbEntity
  8
0
100
AcDbLine
 10
219.4507384046001
 20
369.328731516385
 30
0.0
 11
201.4711486932715
 21
369.3287315163866
 31
0.0
  0
LINE
  5
3136
330
1F
100
AcDbEntity
  8
0
100
AcDbLine
 10
219.4507384045992
 20
353.328731516385
 30
0.0
 11
209.4507384045987
 21
353.3287315163855
 31
0.0
  0
LINE
  5
3138
330
1F
100
AcDbEntity
  8
0
100
AcDbLine
 10
219.4507384045992
 20
353.328731516385
 30
0.0
 11
219.4507384046001
 21
369.328731516385
 31
0.0
  0
ARC
  5
313D
330
1F
100
AcDbEntity
  8
0
100
AcDbCircle
 10
181.302526399508
 20
350.3287315163889
 30
0.0
 40
3.0
100
AcDbArc
 50
98.71871071661544
 51
169.9213418922111
  0
ARC
  5
313E
330
1F
100
AcDbEntity
  8
0
100
AcDbCircle
 10
299.4507384045992
 20
329.3287315163891
 30
0.0
 40
123.0
100
AcDbArc
 50
169.9213418922111
 51
180.0
  0
ARC
  5
313F
330
1F
100
AcDbEntity
  8
0
100
AcDbCircle
 10
299.4507384045983
 20
329.3287315163811
 30
0.0
 40
121.0
100
AcDbArc
 50
168.4630409671818
 51
179.9999999999967
  0
ARC
  5
3140
330
1F
100
AcDbEntity
  8
0
100
AcDbCircle
 10
299.4507384046001
 20
329.3287315163823
 30
0.0
 40
117.0
100
AcDbArc
 50
179.6899948095295
 51
179.9999999999967
  0
ARC
  5
3142
330
1F
100
AcDbEntity
  8
0
100
AcDbCircle
 10
200.454992954782
 20
349.3545625095133
 30
0.0
 40
20.0
100
AcDbArc
 50
87.08767433043313
 51
167.9533251261584
  0
LINE
  5
3143
330
1F
100
AcDbEntity
  8
0
100
AcDbLine
 10
210.4507384045992
 20
305.8282404993986
 30
0.0
 11
209.5507384045991
 21
305.8282404993986
 31
0.0
  0
LINE
  5
3144
330
1F
100
AcDbEntity
  8
0
100
AcDbLine
 10
198.8952820528466
 20
304.7322249885567
 30
0.0
 11
199.3549014606178
 21
305.191844396328
 31
0.0
  0
LINE
  5
3145
330
1F
100
AcDbEntity
  8
0
100
AcDbLine
 10
195.3597481469132
 20
309.32841906627
 30
0.0
 11
193.4505598377095
 21
307.4192307570663
 31
0.0
  0
LINE
  5
3146
330
1F
100
AcDbEntity
  8
0
100
AcDbLine
 10
196.8093170483457
 20
307.7374288086005
 30
0.0
 11
198.6831500184907
 21
305.8635958384555
 31
0.0
  0
LINE
  5
3147
330
1F
100
AcDbEntity
  8
0
100
AcDbLine
 10
198.2235306107195
 20
305.4039764306842
 30
0.0
 11
198.6831500184907
 21
305.8635958384555
 31
0.0
  0
LINE
  5
3148
330
1F
100
AcDbEntity
  8
0
100
AcDbLine
 10
198.2235306107195
 20
305.4039764306842
 30
0.0
 11
198.8952820528466
 21
304.7322249885567
 31
0.0
  0
LINE
  5
3149
330
1F
100
AcDbEntity
  8
0
100
AcDbLine
 10
194.9708394172608
 20
305.8989511775151
 30
0.0
 11
196.8800277264645
 21
307.8081394867188
 31
0.0
  0
LINE
  5
314A
330
1F
100
AcDbEntity
  8
0
100
AcDbLine
 10
219.4507384045987
 20
295.3282404993958
 30
0.0
 11
210.4507384045987
 21
295.3282404993958
 31
0.0
  0
LINE
  5
314B
330
1F
100
AcDbEntity
  8
0
100
AcDbLine
 10
200.8751810401686
 20
299.9946095546077
 30
0.0
 11
202.7843693493724
 21
301.903797863811
 31
0.0
  0
LINE
  5
314C
330
1F
100
AcDbEntity
  8
0
100
AcDbLine
 10
207.1019544440146
 20
298.3641388842583
 30
0.0
 11
210.4507384045987
 21
298.3641388842582
 31
0.0
  0
LINE
  5
314D
330
1F
100
AcDbEntity
  8
0
100
AcDbLine
 10
196.9507384045991
 20
320.9482404993967
 30
0.0
 11
196.9507384045991
 21
290.7082404993967
 31
0.0
  0
LINE
  5
314E
330
1F
100
AcDbEntity
  8
0
100
AcDbLine
 10
196.9507384045991
 20
320.9482404993967
 30
0.0
 11
196.9507384045991
 21
290.7082404993969
 31
0.0
  0
LINE
  5
314F
330
1F
100
AcDbEntity
  8
0
100
AcDbLine
 10
196.9507384045991
 20
319.1482404993967
 30
0.0
 11
196.9507384045991
 21
292.5082404993968
 31
0.0
  0
LINE
  5
3150
330
1F
100
AcDbEntity
  8
0
100
AcDbLine
 10
193.4505598377095
 20
307.4192307570663
 30
0.0
 11
200.8751810401686
 21
299.9946095546077
 31
0.0
  0
LINE
  5
3151
330
1F
100
AcDbEntity
  8
0
100
AcDbLine
 10
202.7843693493724
 20
301.903797863811
 30
0.0
 11
195.3597481469132
 21
309.32841906627
 31
0.0
  0
LINE
  5
3152
330
1F
100
AcDbEntity
  8
0
100
AcDbLine
 10
195.0415500953795
 20
305.9696618556338
 30
0.0
 11
199.2841907824986
 21
301.7270211685147
 31
0.0
  0
LINE
  5
3153
330
1F
100
AcDbEntity
  8
0
100
AcDbLine
 10
199.2134801043803
 20
301.656310490396
 30
0.0
 11
201.1226684135836
 21
303.5654987995997
 31
0.0
  0
LINE
  5
3154
330
1F
100
AcDbEntity
  8
0
100
AcDbLine
 10
199.3549014606178
 20
305.191844396328
 30
0.0
 11
201.0519577354653
 21
303.4947881214809
 31
0.0
  0
LINE
  5
3155
330
1F
100
AcDbEntity
  8
0
100
AcDbLine
 10
196.9507384045991
 20
315.608240499397
 30
0.0
 11
196.9507384045991
 21
296.0482404993966
 31
0.0
  0
LINE
  5
3156
330
1F
100
AcDbEntity
  8
0
100
AcDbLine
 10
219.4507384045978
 20
279.3282404993959
 30
0.0
 11
201.4711486932701
 21
279.3282404993968
 31
0.0
  0
LINE
  5
3157
330
1F
100
AcDbEntity
  8
0
100
AcDbLine
 10
219.4507384045978
 20
279.3282404993959
 30
0.0
 11
219.4507384045987
 21
295.3282404993958
 31
0.0
  0
ARC
  5
3158
330
1F
100
AcDbEntity
  8
0
100
AcDbCircle
 10
182.0842610782335
 20
313.7282404993992
 30
0.0
 40
0.5
100
AcDbArc
 50
270.0
 51
2.731727293589038
  0
ARC
  5
3159
330
1F
100
AcDbEntity
  8
0
100
AcDbCircle
 10
299.4507384045992
 20
319.3282404993922
 30
0.0
 40
123.0
100
AcDbArc
 50
180.0
 51
183.5862747903889
  0
LINE
  5
315A
330
1F
100
AcDbEntity
  8
0
100
AcDbLine
 10
176.6020916884056
 20
313.2282404993991
 30
0.0
 11
182.0842610782335
 21
313.2282404993991
 31
0.0
  0
ARC
  5
315B
330
1F
100
AcDbEntity
  8
0
100
AcDbCircle
 10
178.188666840568
 20
311.7282404993992
 30
0.0
 40
1.5
100
AcDbArc
 50
183.5862747903857
 51
270.0
  0
LINE
  5
315C
330
1F
100
AcDbEntity
  8
0
100
AcDbLine
 10
184.3507384045993
 20
305.8282404993986
 30
0.0
 11
180.212531440555
 21
305.8282404993986
 31
0.0
  0
LINE
  5
315D
330
1F
100
AcDbEntity
  8
0
100
AcDbLine
 10
178.188666840568
 20
310.2282404993991
 30
0.0
 11
179.7962775600483
 21
310.2282404993991
 31
0.0
  0
LINE
  5
315E
330
1F
100
AcDbEntity
  8
0
100
AcDbLine
 10
181.0400547649862
 20
314.2282404993982
 30
0.0
 11
178.5582655206342
 21
314.2282404993985
 31
0.0
  0
ARC
  5
315F
330
1F
100
AcDbEntity
  8
0
100
AcDbCircle
 10
181.0400547649862
 20
314.7282404993982
 30
0.0
 40
0.5
100
AcDbArc
 50
270.0
 51
2.224698929059021
  0
ARC
  5
3160
330
1F
100
AcDbEntity
  8
0
100
AcDbCircle
 10
299.4507384045974
 20
319.3282404993911
 30
0.0
 40
118.0
100
AcDbArc
 50
179.9999999999967
 51
182.2246989290492
  0
ARC
  5
3161
330
1F
100
AcDbEntity
  8
0
100
AcDbCircle
 10
299.4507384045974
 20
319.3282404993911
 30
0.0
 40
121.0
100
AcDbArc
 50
179.9999999999967
 51
182.4156616834016
  0
ARC
  5
3162
330
1F
100
AcDbEntity
  8
0
100
AcDbCircle
 10
299.4507384045992
 20
319.3282404993922
 30
0.0
 40
117.0
100
AcDbArc
 50
179.9999999999967
 51
182.731727293589
  0
LINE
  5
3167
330
1F
100
AcDbEntity
  8
0
100
AcDbLine
 10
181.2961513439588
 20
298.3641388842593
 30
0.0
 11
186.7995223651828
 21
298.3641388842591
 31
0.0
  0
ARC
  5
3168
330
1F
100
AcDbEntity
  8
0
100
AcDbCircle
 10
299.4507384045992
 20
319.3282404993922
 30
0.0
 40
120.0
100
AcDbArc
 50
184.3491051541939
 51
191.5369590328119
  0
CIRCLE
  5
316B
330
1F
100
AcDbEntity
  8
0
100
AcDbCircle
 10
196.9507384045991
 20
305.8282404993968
 30
0.0
 40
12.6
  0
ARC
  5
316C
330
1F
100
AcDbEntity
  8
0
100
AcDbCircle
 10
201.4711486932711
 20
299.3282404993968
 30
0.0
 40
20.0
100
AcDbArc
 50
191.5369590328119
 51
270.0
  0
LINE
  5
316D
330
1F
100
AcDbEntity
  8
0
100
AcDbLine
 10
212.0707384045991
 20
305.8282404993968
 30
0.0
 11
181.830738404599
 21
305.8282404993968
 31
0.0
  0
CIRCLE
  5
316E
330
1F
100
AcDbEntity
  8
0
100
AcDbCircle
 10
196.9507384046046
 20
305.8282404993968
 30
0.0
 40
9.599999999999999
  0
CIRCLE
  5
316F
330
1F
100
AcDbEntity
  8
0
100
AcDbCircle
 10
196.9507384046046
 20
305.8282404993968
 30
0.0
 40
11.0
  0
LINE
  5
3170
330
1F
100
AcDbEntity
  8
T
100
AcDbLine
 10
184.1230973613915
 20
305.8282404993968
 30
0.0
 11
209.1840775693386
 21
305.8282404993968
 31
0.0
  0
LINE
  5
3171
330
1F
100
AcDbEntity
  8
0
100
AcDbLine
 10
210.4507384045987
 20
295.3282404993958
 30
0.0
 11
210.4507384046006
 21
353.3287315163859
 31
0.0
  0
LINE
  5
3172
330
1F
100
AcDbEntity
  8
T
100
AcDbLine
 10
196.9507384045937
 20
322.1282404993983
 30
0.0
 11
196.9507384045937
 21
289.5282404993988
 31
0.0
  0
LINE
  5
3174
330
1F
100
AcDbEntity
  8
0
100
AcDbLine
 10
176.4507384045994
 20
319.3282404993965
 30
0.0
 11
176.4507384045998
 21
329.3287315163934
 31
0.0
  0
LINE
  5
3175
330
1F
100
AcDbEntity
  8
0
100
AcDbLine
 10
178.4507384045971
 20
319.3282404993979
 30
0.0
 11
178.450738404598
 21
329.328731516388
 31
0.0
  0
LINE
  5
3176
330
1F
100
AcDbEntity
  8
0
100
AcDbLine
 10
181.4507384045971
 20
319.3282404993977
 30
0.0
 11
181.450738404598
 21
328.2287315163853
 31
0.0
  0
LINE
  5
3177
330
1F
100
AcDbEntity
  8
0
100
AcDbLine
 10
182.4507384045991
 20
319.3282404993972
 30
0.0
 11
182.4507384046001
 21
329.3287315163873
 31
0.0
  0
TEXT
  5
44F0
330
1F
100
AcDbEntity
  8
W
 62
     6
100
AcDbText
 10
1227.670213039411
 20
746.3510351637471
 30
0.0
 40
3.0
  1

 41
0.7
  7
SIMPLEX
100
AcDbText
  0
TEXT
  5
4677
330
1F
100
AcDbEntity
  8
0
100
AcDbText
 10
97.1798221419354
 20
218.1225311694003
 30
0.0
 40
3.0
  1
L=40,45,50,70
  7
SIMPLEX
 72
     1
 11
113.3941078562211
 21
218.1225311694003
 31
0.0
100
AcDbText
  0
INSERT
  5
4678
330
1F
100
AcDbEntity
  8
0
100
AcDbBlockReference
  2
SUG-AR01
 10
136.1974750720292
 20
217.2225311694003
 30
0.0
 41
0.5
 42
0.5
 43
0.5
 50
180.0
  0
LINE
  5
4679
330
1F
100
AcDbEntity
  8
0
100
AcDbLine
 10
134.9474750720283
 20
234.1443136844322
 30
0.0
 11
134.9474750720292
 21
226.1443136844322
 31
0.0
  0
LINE
  5
467A
330
1F
100
AcDbEntity
  8
0
100
AcDbLine
 10
136.1974750720292
 20
232.894313684432
 30
0.0
 11
136.1974750720292
 21
227.394313684432
 31
0.0
  0
LINE
  5
467B
330
1F
100
AcDbEntity
  8
0
100
AcDbLine
 10
136.1974750720292
 20
227.394313684432
 30
0.0
 11
134.9474750720292
 21
226.1443136844322
 31
0.0
  0
LINE
  5
467C
330
1F
100
AcDbEntity
  8
0
100
AcDbLine
 10
136.1974750720292
 20
232.894313684432
 30
0.0
 11
134.9474750720283
 21
234.1443136844322
 31
0.0
  0
LINE
  5
467D
330
1F
100
AcDbEntity
  8
0
100
AcDbLine
 10
136.1974750720292
 20
225.894313684432
 30
0.0
 11
136.1974750720292
 21
216.2225311694003
 31
0.0
  0
LINE
  5
467E
330
1F
100
AcDbEntity
  8
0
100
AcDbLine
 10
125.4689018031551
 20
197.1944162129764
 30
0.0
 11
127.4689018031551
 21
197.1944162129764
 31
0.0
  0
ARC
  5
467F
330
1F
100
AcDbEntity
  8
0
100
AcDbCircle
 10
107.942694942538
 20
187.1944162129764
 30
0.0
 40
10.0
100
AcDbArc
 50
0.0
 51
90.0
  0
LINE
  5
4680
330
1F
100
AcDbEntity
  8
0
100
AcDbLine
 10
54.5178170231486
 20
149.4444162129764
 30
0.0
 11
66.75589798745955
 21
149.4444162129764
 31
0.0
  0
CIRCLE
  5
4681
330
1F
100
AcDbEntity
  8
T
100
AcDbCircle
 10
60.94269494253808
 20
149.4444162129764
 30
0.0
 40
4.5
  0
LINE
  5
4682
330
1F
100
AcDbEntity
  8
T
100
AcDbLine
 10
60.94269494253808
 20
156.8667918076464
 30
0.0
 11
60.94269494253808
 21
142.9654653224941
 31
0.0
  0
LINE
  5
4683
330
1F
100
AcDbEntity
  8
0
100
AcDbLine
 10
54.41583301511241
 20
184.9444162129764
 30
0.0
 11
66.85788199549484
 21
184.9444162129764
 31
0.0
  0
LINE
  5
4684
330
1F
100
AcDbEntity
  8
0
100
AcDbLine
 10
117.9426949425381
 20
187.1944162129764
 30
0.0
 11
117.9426949425381
 21
147.1944162129764
 31
0.0
  0
LINE
  5
4685
330
1F
100
AcDbEntity
  8
T
100
AcDbLine
 10
60.94269494253808
 20
191.492690574021
 30
0.0
 11
60.94269494253808
 21
177.0054032750156
 31
0.0
  0
CIRCLE
  5
4686
330
1F
100
AcDbEntity
  8
T
100
AcDbCircle
 10
60.94269494253808
 20
184.9444162129764
 30
0.0
 40
4.5
  0
INSERT
  5
468F
330
1F
100
AcDbEntity
  8
0
100
AcDbBlockReference
  2
SUG-AR01
 10
91.19747507202919
 20
217.2225311694003
 30
0.0
 41
0.5
 42
0.5
 43
0.5
  0
LINE
  5
4690
330
1F
100
AcDbEntity
  8
0
100
AcDbLine
 10
91.58805252913589
 20
234.1443136844322
 30
0.0
 11
91.58805252913589
 21
226.1443136844322
 31
0.0
  0
LINE
  5
4691
330
1F
100
AcDbEntity
  8
0
100
AcDbLine
 10
91.19747507202919
 20
233.4678136844322
 30
0.0
 11
91.19747507202919
 21
226.8208136844322
 31
0.0
  0
LINE
  5
4692
330
1F
100
AcDbEntity
  8
0
100
AcDbLine
 10
91.19747507202919
 20
226.8208136844322
 30
0.0
 11
91.58805252913589
 21
226.1443136844322
 31
0.0
  0
LINE
  5
4693
330
1F
100
AcDbEntity
  8
0
100
AcDbLine
 10
91.19747507202919
 20
233.4678136844322
 30
0.0
 11
91.58805252913589
 21
234.1443136844322
 31
0.0
  0
CIRCLE
  5
4694
330
1F
100
AcDbEntity
  8
0
100
AcDbCircle
 10
80.23921599319875
 20
230.1443136844322
 30
0.0
 40
4.0
  0
CIRCLE
  5
4695
330
1F
100
AcDbEntity
  8
0
100
AcDbCircle
 10
80.23921599319875
 20
230.1443136844322
 30
0.0
 40
3.323499999999967
  0
LINE
  5
4696
330
1F
100
AcDbEntity
  8
0
100
AcDbLine
 10
80.21502724588026
 20
232.4943136844321
 30
0.0
 11
78.23921599319874
 21
231.3535785258281
 31
0.0
  0
LINE
  5
4697
330
1F
100
AcDbEntity
  8
0
100
AcDbLine
 10
80.23921599319875
 20
232.4943136844321
 30
0.0
 11
82.23921599319874
 21
231.3396131460531
 31
0.0
  0
LINE
  5
4698
330
1F
100
AcDbEntity
  8
0
100
AcDbLine
 10
82.23921599319874
 20
231.3396131460531
 30
0.0
 11
82.23921599319874
 21
228.9490142228114
 31
0.0
  0
LINE
  5
4699
330
1F
100
AcDbEntity
  8
0
100
AcDbLine
 10
78.23921599319874
 20
231.3535785258277
 30
0.0
 11
78.23921599319874
 21
228.9490142228118
 31
0.0
  0
LINE
  5
469A
330
1F
100
AcDbEntity
  8
0
100
AcDbLine
 10
80.23921599319875
 20
227.7943136844323
 30
0.0
 11
78.23921599319874
 21
228.9490142228118
 31
0.0
  0
LINE
  5
469B
330
1F
100
AcDbEntity
  8
0
100
AcDbLine
 10
80.23921599319875
 20
227.7943136844323
 30
0.0
 11
82.23921599319874
 21
228.9490142228114
 31
0.0
  0
LINE
  5
469C
330
1F
100
AcDbEntity
  8
T
100
AcDbLine
 10
84.99878747080492
 20
230.1443136844322
 30
0.0
 11
75.2055265231902
 21
230.1443136844322
 31
0.0
  0
LINE
  5
469D
330
1F
100
AcDbEntity
  8
0
100
AcDbLine
 10
80.23921599319782
 20
232.4943136844326
 30
0.0
 11
80.21502724588117
 21
232.4943136844326
 31
0.0
  0
LINE
  5
469E
330
1F
100
AcDbEntity
  8
0
100
AcDbLine
 10
91.19747507202919
 20
225.3208136844323
 30
0.0
 11
91.19747507202919
 21
216.2225311694003
 31
0.0
  0
LINE
  5
469F
330
1F
100
AcDbEntity
  8
T
100
AcDbLine
 10
80.23921599319875
 20
234.8995751488582
 30
0.0
 11
80.23921599319875
 21
225.2912480212194
 31
0.0
  0
LINE
  5
46A0
330
1F
100
AcDbEntity
  8
0
100
AcDbLine
 10
125.4689018031551
 20
137.1944162129764
 30
0.0
 11
127.4689018031551
 21
137.1944162129764
 31
0.0
  0
LINE
  5
46A9
330
1F
100
AcDbEntity
  8
0
100
AcDbLine
 10
127.4689018031551
 20
197.1944162129764
 30
0.0
 11
127.4689018031551
 21
137.1944162129764
 31
0.0
  0
LINE
  5
46AA
330
1F
100
AcDbEntity
  8
0
100
AcDbLine
 10
125.4689018031551
 20
197.1944162129764
 30
0.0
 11
125.4689018031551
 21
137.1944162129764
 31
0.0
  0
ARC
  5
46AB
330
1F
100
AcDbEntity
  8
0
100
AcDbCircle
 10
107.942694942538
 20
147.1944162129764
 30
0.0
 40
10.0
100
AcDbArc
 50
270.0
 51
0.0
  0
LINE
  5
46AD
330
1F
100
AcDbEntity
  8
0
100
AcDbLine
 10
91.19747507202919
 20
217.2225311694003
 30
0.0
 11
136.1974750720283
 21
217.2225311694004
 31
0.0
  0
LINE
  5
46AE
330
1F
100
AcDbEntity
  8
0
100
AcDbLine
 10
91.58805252913589
 20
234.1443136844322
 30
0.0
 11
134.9474750720283
 21
234.1443136844321
 31
0.0
  0
LINE
  5
46AF
330
1F
100
AcDbEntity
  8
0
100
AcDbLine
 10
91.19747507202919
 20
233.4678136844322
 30
0.0
 11
135.6239750720287
 21
233.4678136844324
 31
0.0
  0
LINE
  5
46B0
330
1F
100
AcDbEntity
  8
0
100
AcDbLine
 10
91.58805252913589
 20
226.1443136844322
 30
0.0
 11
134.9474750720292
 21
226.1443136844324
 31
0.0
  0
LINE
  5
46B1
330
1F
100
AcDbEntity
  8
0
100
AcDbLine
 10
91.19747507202919
 20
226.8208136844322
 30
0.0
 11
135.6239750720287
 21
226.820813684432
 31
0.0
  0
LINE
  5
46B2
330
1F
100
AcDbEntity
  8
T
100
AcDbLine
 10
90.16955340768891
 20
230.1443136844322
 30
0.0
 11
142.5507617059929
 21
230.1443136844322
 31
0.0
  0
ARC
  5
46B3
330
1F
100
AcDbEntity
  8
0
100
AcDbCircle
 10
38.94269494253808
 20
196.1944162129764
 30
0.0
 40
1.0
100
AcDbArc
 50
90.0
 51
180.0
  0
ARC
  5
46B9
330
1F
100
AcDbEntity
  8
0
100
AcDbCircle
 10
38.94269494253808
 20
138.1944162129764
 30
0.0
 40
1.0
100
AcDbArc
 50
180.0
 51
270.0
  0
LINE
  5
46BE
330
1F
100
AcDbEntity
  8
0
100
AcDbLine
 10
37.94269494253808
 20
196.1944162129764
 30
0.0
 11
37.94269494253808
 21
138.1944162129764
 31
0.0
  0
LINE
  5
46BF
330
1F
100
AcDbEntity
  8
0
100
AcDbLine
 10
38.94269494253808
 20
197.1944162129764
 30
0.0
 11
107.942694942538
 21
197.1944162129764
 31
0.0
  0
LINE
  5
46C1
330
1F
100
AcDbEntity
  8
0
100
AcDbLine
 10
38.94269494253808
 20
137.1944162129764
 30
0.0
 11
107.942694942538
 21
137.1944162129764
 31
0.0
  0
LINE
  5
46C7
330
1F
100
AcDbEntity
  8
0
100
AcDbLine
 10
238.8498846388706
 20
192.0495338664998
 30
0.0
 11
238.8498846388706
 21
175.9495338664995
 31
0.0
  0
LINE
  5
46C8
330
1F
100
AcDbEntity
  8
0
100
AcDbLine
 10
237.8498846388707
 20
175.9495338664995
 30
0.0
 11
237.8498846388707
 21
192.0495338664998
 31
0.0
  0
LINE
  5
46C9
330
1F
100
AcDbEntity
  8
0
100
AcDbLine
 10
206.0920159244729
 20
177.1495338664993
 30
0.0
 11
206.0920159244729
 21
187.9495338664995
 31
0.0
  0
LINE
  5
46CA
330
1F
100
AcDbEntity
  8
0
100
AcDbLine
 10
206.0920159244729
 20
188.2823202821335
 30
0.0
 11
206.0920159244729
 21
177.7246991400823
 31
0.0
  0
LINE
  5
46CB
330
1F
100
AcDbEntity
  8
T
100
AcDbLine
 10
206.0920159244729
 20
177.7495338664997
 30
0.0
 11
206.0920159244729
 21
187.3495338665
 31
0.0
  0
LINE
  5
46CC
330
1F
100
AcDbEntity
  8
0
100
AcDbLine
 10
237.8498846388707
 20
179.3680232039508
 30
0.0
 11
238.8498846388706
 21
179.3680232039508
 31
0.0
  0
LINE
  5
46CD
330
1F
100
AcDbEntity
  8
0
100
AcDbLine
 10
238.8498846388706
 20
175.9495338664995
 30
0.0
 11
237.8498846388707
 21
175.9495338664995
 31
0.0
  0
LINE
  5
46D4
330
1F
100
AcDbEntity
  8
0
100
AcDbLine
 10
230.0915345673652
 20
175.949533866499
 30
0.0
 11
230.0915345673652
 21
179.4446554952499
 31
0.0
  0
LINE
  5
46D5
330
1F
100
AcDbEntity
  8
0
100
AcDbLine
 10
237.9779170493362
 20
154.1908726155977
 30
0.0
 11
239.9779170493362
 21
154.1908726155977
 31
0.0
  0
LINE
  5
46D6
330
1F
100
AcDbEntity
  8
0
100
AcDbLine
 10
237.8498846388707
 20
192.0495338664998
 30
0.0
 11
238.8498846388706
 21
192.0495338664998
 31
0.0
  0
CIRCLE
  5
46D7
330
1F
100
AcDbEntity
  8
0
100
AcDbCircle
 10
170.5920159244726
 20
182.5495338664999
 30
0.0
 40
4.15
  0
LINE
  5
46D8
330
1F
100
AcDbEntity
  8
0
100
AcDbLine
 10
170.5920159244726
 20
187.4308985093187
 30
0.0
 11
170.5920159244726
 21
178.0652692093393
 31
0.0
  0
LINE
  5
46D9
330
1F
100
AcDbEntity
  8
0
100
AcDbLine
 10
170.5920159244726
 20
177.7495338664997
 30
0.0
 11
170.5920159244726
 21
187.3495338665
 31
0.0
  0
LINE
  5
46DA
330
1F
100
AcDbEntity
  8
T
100
AcDbLine
 10
170.5920159244726
 20
177.7495338664997
 30
0.0
 11
170.5920159244726
 21
187.3495338665
 31
0.0
  0
ARC
  5
46DB
330
1F
100
AcDbEntity
  8
0
100
AcDbCircle
 10
170.5915345673645
 20
182.5495338664999
 30
0.0
 40
9.5
100
AcDbArc
 50
90.0
 51
180.0
  0
LINE
  5
46DD
330
1F
100
AcDbEntity
  8
0
100
AcDbLine
 10
175.3920159244728
 20
182.5495338664999
 30
0.0
 11
165.7920159244724
 21
182.5495338664999
 31
0.0
  0
LINE
  5
46DE
330
1F
100
AcDbEntity
  8
T
100
AcDbLine
 10
175.3920159244728
 20
182.5495338664999
 30
0.0
 11
165.7920159244724
 21
182.5495338664999
 31
0.0
  0
LINE
  5
46E3
330
1F
100
AcDbEntity
  8
0
100
AcDbLine
 10
161.091534567365
 20
175.9495338664995
 30
0.0
 11
161.0915345673645
 21
182.5495338664999
 31
0.0
  0
LINE
  5
46E9
330
1F
100
AcDbEntity
  8
0
100
AcDbLine
 10
170.7425706267784
 20
154.1908726155977
 30
0.0
 11
197.2425706267791
 21
154.1908726155977
 31
0.0
  0
LINE
  5
46EB
330
1F
100
AcDbEntity
  8
0
100
AcDbLine
 10
170.5915345673645
 20
192.0495338664998
 30
0.0
 11
197.0915345673652
 21
192.0495338664998
 31
0.0
  0
CIRCLE
  5
46EC
330
1F
100
AcDbEntity
  8
0
100
AcDbCircle
 10
206.0920159244729
 20
182.5495338664999
 30
0.0
 40
4.15
  0
ARC
  5
46ED
330
1F
100
AcDbEntity
  8
0
100
AcDbCircle
 10
197.0915345673652
 20
142.5495338664998
 30
0.0
 40
49.5
100
AcDbArc
 50
48.18968510423138
 51
90.0
  0
LINE
  5
46EE
330
1F
100
AcDbEntity
  8
0
100
AcDbLine
 10
161.091534567365
 20
175.9495338664995
 30
0.0
 11
230.0915345673652
 21
175.9495338664995
 31
0.0
  0
LINE
  5
46F0
330
1F
100
AcDbEntity
  8
0
100
AcDbLine
 10
210.8920159244731
 20
182.5495338664999
 30
0.0
 11
201.2920159244727
 21
182.5495338664999
 31
0.0
  0
LINE
  5
46F1
330
1F
100
AcDbEntity
  8
T
100
AcDbLine
 10
211.4920159244725
 20
182.5495338664999
 30
0.0
 11
200.6920159244724
 21
182.5495338664999
 31
0.0
  0
LINE
  5
46F7
330
1F
100
AcDbEntity
  8
0
100
AcDbLine
 10
230.7425706267782
 20
138.0908726155973
 30
0.0
 11
230.7425706267782
 21
141.085994244335
 31
0.0
  0
LINE
  5
46F8
330
1F
100
AcDbEntity
  8
0
100
AcDbLine
 10
206.2430519838858
 20
149.9236590312313
 30
0.0
 11
206.2430519838858
 21
139.3660378891802
 31
0.0
  0
LINE
  5
46F9
330
1F
100
AcDbEntity
  8
0
100
AcDbLine
 10
206.2430519838858
 20
139.3908726155975
 30
0.0
 11
206.2430519838858
 21
148.9908726155979
 31
0.0
  0
LINE
  5
46FA
330
1F
100
AcDbEntity
  8
0
100
AcDbLine
 10
206.2430519838858
 20
138.7908726155971
 30
0.0
 11
206.2430519838858
 21
149.5908726155973
 31
0.0
  0
LINE
  5
46FB
330
1F
100
AcDbEntity
  8
0
100
AcDbLine
 10
239.9779170493362
 20
137.5908726155973
 30
0.0
 11
237.9779170493362
 21
137.5908726155973
 31
0.0
  0
ARC
  5
46FC
330
1F
100
AcDbEntity
  8
0
100
AcDbCircle
 10
230.2425706267781
 20
138.0908726155973
 30
0.0
 40
0.5
100
AcDbArc
 50
270.0
 51
0.0
  0
LINE
  5
4703
330
1F
100
AcDbEntity
  8
0
100
AcDbLine
 10
237.9779170493362
 20
141.0093619530486
 30
0.0
 11
239.9779170493362
 21
141.0093619530486
 31
0.0
  0
ARC
  5
4704
330
1F
100
AcDbEntity
  8
0
100
AcDbCircle
 10
230.2425706267781
 20
141.085994244335
 30
0.0
 40
0.5
100
AcDbArc
 50
0.0
 51
48.1896851042326
  0
LINE
  5
4705
330
1F
100
AcDbEntity
  8
0
100
AcDbLine
 10
170.743051983886
 20
149.0722372584166
 30
0.0
 11
170.743051983886
 21
139.7066079584371
 31
0.0
  0
LINE
  5
4706
330
1F
100
AcDbEntity
  8
0
100
AcDbLine
 10
170.743051983886
 20
139.3908726155975
 30
0.0
 11
170.743051983886
 21
148.9908726155979
 31
0.0
  0
LINE
  5
4707
330
1F
100
AcDbEntity
  8
T
100
AcDbLine
 10
170.743051983886
 20
139.3908726155975
 30
0.0
 11
170.743051983886
 21
148.9908726155979
 31
0.0
  0
CIRCLE
  5
4708
330
1F
100
AcDbEntity
  8
0
100
AcDbCircle
 10
170.743051983886
 20
144.1908726155977
 30
0.0
 40
4.15
  0
LINE
  5
4709
330
1F
100
AcDbEntity
  8
0
100
AcDbLine
 10
160.7425706267784
 20
138.0908726155973
 30
0.0
 11
160.7425706267784
 21
144.1908726155977
 31
0.0
  0
ARC
  5
470A
330
1F
100
AcDbEntity
  8
0
100
AcDbCircle
 10
161.2425706267783
 20
138.0908726155973
 30
0.0
 40
0.5
100
AcDbArc
 50
180.0
 51
270.0
  0
LINE
  5
470F
330
1F
100
AcDbEntity
  8
0
100
AcDbLine
 10
175.5430519838862
 20
144.1908726155977
 30
0.0
 11
165.9430519838859
 21
144.1908726155977
 31
0.0
  0
LINE
  5
4710
330
1F
100
AcDbEntity
  8
T
100
AcDbLine
 10
175.5430519838862
 20
144.1908726155977
 30
0.0
 11
165.9430519838859
 21
144.1908726155977
 31
0.0
  0
CIRCLE
  5
4712
330
1F
100
AcDbEntity
  8
T
100
AcDbCircle
 10
206.2430519838858
 20
144.1908726155977
 30
0.0
 40
4.15
  0
LINE
  5
4713
330
1F
100
AcDbEntity
  8
0
100
AcDbLine
 10
161.2425706267783
 20
137.5908726155973
 30
0.0
 11
230.2425706267781
 21
137.5908726155973
 31
0.0
  0
LINE
  5
4715
330
1F
100
AcDbEntity
  8
0
100
AcDbLine
 10
211.043051983886
 20
144.1908726155977
 30
0.0
 11
201.4430519838856
 21
144.1908726155977
 31
0.0
  0
LINE
  5
4716
330
1F
100
AcDbEntity
  8
T
100
AcDbLine
 10
211.6430519838864
 20
144.1908726155977
 30
0.0
 11
200.8430519838862
 21
144.1908726155977
 31
0.0
  0
ARC
  5
4719
330
1F
100
AcDbEntity
  8
0
100
AcDbCircle
 10
170.7425706267784
 20
144.1908726155977
 30
0.0
 40
10.0
100
AcDbArc
 50
90.0
 51
180.0
  0
LINE
  5
471A
330
1F
100
AcDbEntity
  8
0
100
AcDbLine
 10
237.9779170493362
 20
137.5908726155973
 30
0.0
 11
237.9779170493362
 21
154.1908726155977
 31
0.0
  0
LINE
  5
471B
330
1F
100
AcDbEntity
  8
0
100
AcDbLine
 10
239.9779170493362
 20
154.1908726155977
 30
0.0
 11
239.9779170493362
 21
137.5908726155973
 31
0.0
  0
ARC
  5
471C
330
1F
100
AcDbEntity
  8
0
100
AcDbCircle
 10
197.2425706267791
 20
104.1908726155977
 30
0.0
 40
50.0
100
AcDbArc
 50
48.18968510421544
 51
90.0
  0
LINE
  5
471D
330
1F
100
AcDbEntity
  8
0
100
AcDbLine
 10
260.8687952940766
 20
234.2900207231334
 30
0.0
 11
261.3687952940765
 21
227.5900207231331
 31
0.0
  0
LINE
  5
471E
330
1F
100
AcDbEntity
  8
0
100
AcDbLine
 10
259.8687952940766
 20
218.8900207231333
 30
0.0
 11
260.4337303590121
 21
227.5900207231331
 31
0.0
  0
LINE
  5
471F
330
1F
100
AcDbEntity
  8
0
100
AcDbLine
 10
259.8687952940766
 20
218.8900207231333
 30
0.0
 11
259.3687952940765
 21
225.5900207231331
 31
0.0
  0
LINE
  5
4720
330
1F
100
AcDbEntity
  8
0
100
AcDbLine
 10
258.303860229142
 20
225.5900207231331
 30
0.0
 11
258.8687952940766
 21
234.2900207231334
 31
0.0
  0
LINE
  5
4721
330
1F
100
AcDbEntity
  8
0
100
AcDbLine
 10
258.8687952940766
 20
234.2900207231334
 30
0.0
 11
259.3687952940765
 21
227.5900207231331
 31
0.0
  0
LINE
  5
4722
330
1F
100
AcDbEntity
  8
0
100
AcDbLine
 10
260.8687952940766
 20
234.2900207231334
 30
0.0
 11
258.8687952940766
 21
234.2900207231334
 31
0.0
  0
LINE
  5
4723
330
1F
100
AcDbEntity
  8
0
100
AcDbLine
 10
261.3687952940765
 20
227.5900207231331
 30
0.0
 11
259.3687952940765
 21
227.5900207231331
 31
0.0
  0
LINE
  5
4726
330
1F
100
AcDbEntity
  8
T
100
AcDbLine
 10
231.2610642350048
 20
226.5900207231333
 30
0.0
 11
251.9511409532063
 21
226.5900207231333
 31
0.0
  0
ARC
  5
4727
330
1F
100
AcDbEntity
  8
0
100
AcDbCircle
 10
241.4650898371885
 20
226.5900207231333
 30
0.0
 40
7.7
100
AcDbArc
 50
7.462087685618259
 51
352.5379123143785
  0
LINE
  5
4728
330
1F
100
AcDbEntity
  8
0
100
AcDbLine
 10
245.4412689076028
 20
225.5900207231331
 30
0.0
 11
249.0998786358389
 21
225.5900207231331
 31
0.0
  0
LINE
  5
4729
330
1F
100
AcDbEntity
  8
0
100
AcDbLine
 10
245.4412689076028
 20
227.5900207231331
 30
0.0
 11
249.0998786358389
 21
227.5900207231331
 31
0.0
  0
LINE
  5
472A
330
1F
100
AcDbEntity
  8
0
100
AcDbLine
 10
257.8687952940766
 20
218.8900207231333
 30
0.0
 11
257.3687952940765
 21
225.5900207231331
 31
0.0
  0
LINE
  5
472B
330
1F
100
AcDbEntity
  8
T
100
AcDbLine
 10
241.4650898371885
 20
237.5601150114527
 30
0.0
 11
241.4650898371885
 21
215.2766141349222
 31
0.0
  0
ARC
  5
472C
330
1F
100
AcDbEntity
  8
0
100
AcDbCircle
 10
241.4650898371885
 20
226.5900207231333
 30
0.0
 40
4.099999999999999
100
AcDbArc
 50
14.11698057130065
 51
345.8830194286918
  0
LINE
  5
472D
330
1F
100
AcDbEntity
  8
0
100
AcDbLine
 10
259.3687952940765
 20
225.5900207231331
 30
0.0
 11
257.3687952940765
 21
225.5900207231331
 31
0.0
  0
LINE
  5
472E
330
1F
100
AcDbEntity
  8
0
100
AcDbLine
 10
259.8687952940766
 20
218.8900207231333
 30
0.0
 11
257.8687952940766
 21
218.8900207231333
 31
0.0
  0
LINE
  5
472F
330
1F
100
AcDbEntity
  8
T
100
AcDbLine
 10
348.0209894688039
 20
227.4912466851163
 30
0.0
 11
357.6293165964423
 21
227.4912466851163
 31
0.0
  0
LWPOLYLINE
  5
4731
330
1F
100
AcDbEntity
  8
0
100
AcDbPolyline
 90
        6
 70
     1
 43
0.0
 10
350.2762509332295
 20
226.0478710121422
 10
352.7762509332295
 20
224.6044953391681
 10
355.2762509332294
 20
226.0478710121422
 10
355.2762509332294
 20
228.9346223580903
 10
352.7762509332295
 20
230.3779980310644
 10
350.2762509332295
 20
228.9346223580903
  0
CIRCLE
  5
4732
330
1F
100
AcDbEntity
  8
0
100
AcDbCircle
 10
352.7762509332295
 20
227.4912466851163
 30
0.0
 40
2.886751345948132
  0
CIRCLE
  5
4733
330
1F
100
AcDbEntity
  8
0
100
AcDbCircle
 10
352.7762509332299
 20
227.4912466851165
 30
0.0
 40
8.0
  0
LINE
  5
4735
330
1F
100
AcDbEntity
  8
0
100
AcDbLine
 10
350.4262509332291
 20
227.4912466851154
 30
0.0
 11
350.4262509332291
 21
227.4670579377987
 31
0.0
  0
LINE
  5
473A
330
1F
100
AcDbEntity
  8
T
100
AcDbLine
 10
352.7762509332295
 20
232.2508181627224
 30
0.0
 11
352.7762509332295
 21
222.4575572151077
 31
0.0
  0
LINE
  5
473B
330
1F
100
AcDbEntity
  8
0
100
AcDbLine
 10
368.9224726699947
 20
235.4912466851165
 30
0.0
 11
368.9224726699947
 21
219.4912466851165
 31
0.0
  0
LINE
  5
473C
330
1F
100
AcDbEntity
  8
0
100
AcDbLine
 10
369.3224726699948
 20
235.4912466851165
 30
0.0
 11
369.3224726699948
 21
219.4912466851165
 31
0.0
  0
LINE
  5
473D
330
1F
100
AcDbEntity
  8
0
100
AcDbLine
 10
373.9989726699944
 20
231.4912466851169
 30
0.0
 11
373.9989726699944
 21
223.4912466851163
 31
0.0
  0
LINE
  5
473E
330
1F
100
AcDbEntity
  8
0
100
AcDbLine
 10
388.9224726699947
 20
230.2412466851162
 30
0.0
 11
388.9224726699947
 21
224.7412466851163
 31
0.0
  0
LINE
  5
473F
330
1F
100
AcDbEntity
  8
0
100
AcDbLine
 10
387.6724726699938
 20
231.4912466851165
 30
0.0
 11
387.6724726699947
 21
223.4912466851165
 31
0.0
  0
LINE
  5
4740
330
1F
100
AcDbEntity
  8
0
100
AcDbLine
 10
388.9224726699947
 20
224.7412466851163
 30
0.0
 11
387.6724726699947
 21
223.4912466851165
 31
0.0
  0
LINE
  5
4743
330
1F
100
AcDbEntity
  8
T
100
AcDbLine
 10
365.6843519392789
 20
227.4912466851165
 30
0.0
 11
393.4066805825485
 21
227.4912466851165
 31
0.0
  0
LINE
  5
4744
330
1F
100
AcDbEntity
  8
0
100
AcDbLine
 10
373.9989726699944
 20
224.1677466851165
 30
0.0
 11
388.3489726699947
 21
224.1677466851165
 31
0.0
  0
LINE
  5
4745
330
1F
100
AcDbEntity
  8
0
100
AcDbLine
 10
373.3224726699948
 20
223.4912466851165
 30
0.0
 11
387.6724726699947
 21
223.4912466851165
 31
0.0
  0
LINE
  5
4746
330
1F
100
AcDbEntity
  8
0
100
AcDbLine
 10
373.3224726699948
 20
223.4912466851165
 30
0.0
 11
369.3224726699948
 21
219.4912466851165
 31
0.0
  0
LINE
  5
4747
330
1F
100
AcDbEntity
  8
0
100
AcDbLine
 10
373.9989726699944
 20
224.1677466851165
 30
0.0
 11
373.3224726699948
 21
223.4912466851165
 31
0.0
  0
LINE
  5
4748
330
1F
100
AcDbEntity
  8
0
100
AcDbLine
 10
368.9224726699947
 20
219.4912466851165
 30
0.0
 11
369.3224726699948
 21
219.4912466851165
 31
0.0
  0
LINE
  5
474F
330
1F
100
AcDbEntity
  8
0
100
AcDbLine
 10
388.9224726699947
 20
230.2412466851162
 30
0.0
 11
387.6724726699938
 21
231.4912466851165
 31
0.0
  0
LINE
  5
4750
330
1F
100
AcDbEntity
  8
0
100
AcDbLine
 10
373.3224726699948
 20
231.4912466851167
 30
0.0
 11
387.6724726699943
 21
231.4912466851165
 31
0.0
  0
LINE
  5
4751
330
1F
100
AcDbEntity
  8
0
100
AcDbLine
 10
373.9989726699944
 20
230.8147466851167
 30
0.0
 11
388.3489726699943
 21
230.8147466851167
 31
0.0
  0
LINE
  5
4752
330
1F
100
AcDbEntity
  8
0
100
AcDbLine
 10
373.3224726699948
 20
231.4912466851167
 30
0.0
 11
369.3224726699944
 21
235.4912466851165
 31
0.0
  0
LINE
  5
4753
330
1F
100
AcDbEntity
  8
0
100
AcDbLine
 10
373.9989726699944
 20
230.8147466851167
 30
0.0
 11
373.3224726699948
 21
231.4912466851167
 31
0.0
  0
LINE
  5
4754
330
1F
100
AcDbEntity
  8
0
100
AcDbLine
 10
368.9224726699947
 20
235.4912466851165
 30
0.0
 11
369.3224726699944
 21
235.4912466851165
 31
0.0
  0
LINE
  5
4755
330
1F
100
AcDbEntity
  8
0
100
AcDbLine
 10
316.7661049578035
 20
232.8696650155762
 30
0.0
 11
316.2031884453434
 21
233.8446650155765
 31
0.0
  0
ARC
  5
4756
330
1F
100
AcDbEntity
  8
0
100
AcDbCircle
 10
313.9758906572049
 20
231.9691058235699
 30
0.0
 40
2.895045205056399
100
AcDbArc
 50
320.2953929040747
 51
344.5341458697183
  0
ARC
  5
4757
330
1F
100
AcDbEntity
  8
0
100
AcDbCircle
 10
313.6053811582231
 20
224.4252129346819
 30
0.0
 40
3.163638093904615
100
AcDbArc
 50
325.1996308882649
 51
357.540514413859
  0
ARC
  5
4758
330
1F
100
AcDbEntity
  8
0
100
AcDbCircle
 10
313.6549207185719
 20
220.6025305151775
 30
0.0
 40
3.249999999999971
100
AcDbArc
 50
16.80635009787072
 51
38.36411112843446
  0
LINE
  5
4759
330
1F
100
AcDbEntity
  8
0
100
AcDbLine
 10
316.7661049578035
 20
219.8696650155762
 30
0.0
 11
316.2031884453434
 21
218.8946650155767
 31
0.0
  0
LINE
  5
475A
330
1F
100
AcDbEntity
  8
0
100
AcDbLine
 10
316.7661049578035
 20
219.8696650155762
 30
0.0
 11
316.7661049578035
 21
232.8696650155762
 31
0.0
  0
ARC
  5
475B
330
1F
100
AcDbEntity
  8
0
100
AcDbCircle
 10
313.5202684177573
 20
228.2854239939047
 30
0.0
 40
3.25
100
AcDbArc
 50
2.900477626559425
 51
34.35937707144277
  0
LINE
  5
475E
330
1F
100
AcDbEntity
  8
0
100
AcDbLine
 10
295.4840807977132
 20
233.8446650155763
 30
0.0
 11
288.9840807977132
 21
230.0918882658441
 31
0.0
  0
LINE
  5
475F
330
1F
100
AcDbEntity
  8
0
100
AcDbLine
 10
295.4840807977132
 20
218.8946650155765
 30
0.0
 11
288.9840807977132
 21
222.6474417653087
 31
0.0
  0
LINE
  5
4760
330
1F
100
AcDbEntity
  8
0
100
AcDbLine
 10
288.9840807977132
 20
222.6474417653087
 30
0.0
 11
288.9840807977132
 21
230.0918882658441
 31
0.0
  0
LINE
  5
4761
330
1F
100
AcDbEntity
  8
T
100
AcDbLine
 10
295.4840807977137
 20
216.522917225381
 30
0.0
 11
295.4840807977137
 21
236.1295906818382
 31
0.0
  0
LINE
  5
4762
330
1F
100
AcDbEntity
  8
T
100
AcDbLine
 10
285.7201851300026
 20
226.3696650155771
 30
0.0
 11
306.1548259798967
 21
226.3696650155771
 31
0.0
  0
LINE
  5
4763
330
1F
100
AcDbEntity
  8
0
100
AcDbLine
 10
310.2661049578035
 20
232.8696650155762
 30
0.0
 11
310.8290214702636
 21
233.8446650155765
 31
0.0
  0
ARC
  5
4764
330
1F
100
AcDbEntity
  8
0
100
AcDbCircle
 10
313.3772891970364
 20
232.1367995159722
 30
0.0
 40
3.249999999999943
100
AcDbArc
 50
196.8063500978015
 51
218.3641111283962
  0
LINE
  5
4765
330
1F
100
AcDbEntity
  8
0
100
AcDbLine
 10
295.4840807977132
 20
233.8446650155763
 30
0.0
 11
301.9840807977137
 21
230.0918882658441
 31
0.0
  0
ARC
  5
4766
330
1F
100
AcDbEntity
  8
0
100
AcDbCircle
 10
313.5119414978501
 20
224.4539060372458
 30
0.0
 40
3.249999999999971
100
AcDbArc
 50
182.9004776264955
 51
214.3593770713984
  0
ARC
  5
4767
330
1F
100
AcDbEntity
  8
0
100
AcDbCircle
 10
313.0563192584011
 20
220.7702242075825
 30
0.0
 40
2.895045205055748
100
AcDbArc
 50
140.2953929040537
 51
164.5341458696751
  0
LINE
  5
4768
330
1F
100
AcDbEntity
  8
0
100
AcDbLine
 10
310.2661049578035
 20
219.8696650155762
 30
0.0
 11
310.8290214702636
 21
218.8946650155767
 31
0.0
  0
LINE
  5
4769
330
1F
100
AcDbEntity
  8
0
100
AcDbLine
 10
295.4840807977132
 20
218.8946650155765
 30
0.0
 11
301.9840807977132
 21
222.6474417653098
 31
0.0
  0
LINE
  5
476A
330
1F
100
AcDbEntity
  8
0
100
AcDbLine
 10
301.9840807977132
 20
222.6474417653098
 30
0.0
 11
301.9840807977137
 21
230.0918882658432
 31
0.0
  0
LINE
  5
476B
330
1F
100
AcDbEntity
  8
0
100
AcDbLine
 10
310.2661049578035
 20
219.8696650155762
 30
0.0
 11
310.2661049578035
 21
232.8696650155762
 31
0.0
  0
ARC
  5
476C
330
1F
100
AcDbEntity
  8
0
100
AcDbCircle
 10
313.4268287573825
 20
228.3141170964695
 30
0.0
 40
3.163638093902946
100
AcDbArc
 50
145.1996308882243
 51
177.5405144138103
  0
CIRCLE
  5
476D
330
1F
100
AcDbEntity
  8
0
100
AcDbCircle
 10
295.4840807977137
 20
226.3696650155771
 30
0.0
 40
4.15
  0
CIRCLE
  5
476E
330
1F
100
AcDbEntity
  8
0
100
AcDbCircle
 10
295.4840807977137
 20
226.3696650155771
 30
0.0
 40
4.25
  0
CIRCLE
  5
476F
330
1F
100
AcDbEntity
  8
0
100
AcDbCircle
 10
295.4840807977137
 20
226.3696650155771
 30
0.0
 40
6.5
  0
LINE
  5
4770
330
1F
100
AcDbEntity
  8
0
100
AcDbLine
 10
310.8290214702636
 20
233.8446650155765
 30
0.0
 11
316.2031884453434
 21
233.8446650155765
 31
0.0
  0
LINE
  5
4771
330
1F
100
AcDbEntity
  8
0
100
AcDbLine
 10
316.2031884453438
 20
230.1196650155766
 30
0.0
 11
310.8290214702636
 21
230.1196650155766
 31
0.0
  0
LINE
  5
4772
330
1F
100
AcDbEntity
  8
0
100
AcDbLine
 10
316.2031884453438
 20
222.6196650155757
 30
0.0
 11
310.8290214702636
 21
222.6196650155757
 31
0.0
  0
LINE
  5
4773
330
1F
100
AcDbEntity
  8
0
100
AcDbLine
 10
310.8290214702636
 20
218.8946650155767
 30
0.0
 11
316.2031884453434
 21
218.8946650155767
 31
0.0
  0
LINE
  5
4776
330
1F
100
AcDbEntity
  8
0
100
AcDbLine
 10
396.1591930312277
 20
202.5318151568453
 30
0.0
 11
396.1591930312268
 21
186.4318151607066
 31
0.0
  0
LINE
  5
4777
330
1F
100
AcDbEntity
  8
0
100
AcDbLine
 10
395.1591930312268
 20
186.4318151607066
 30
0.0
 11
395.1591930312277
 21
202.5318151568453
 31
0.0
  0
LINE
  5
4780
330
1F
100
AcDbEntity
  8
0
100
AcDbLine
 10
396.1591930312268
 20
186.4318151607066
 30
0.0
 11
395.1591930312268
 21
186.4318151607066
 31
0.0
  0
LINE
  5
4781
330
1F
100
AcDbEntity
  8
0
100
AcDbLine
 10
395.1591930312268
 20
189.3125734375139
 30
0.0
 11
396.1591930312268
 21
189.3125734375139
 31
0.0
  0
LINE
  5
4782
330
1F
100
AcDbEntity
  8
0
100
AcDbLine
 10
383.8751917552843
 20
192.1827868549298
 30
0.0
 11
383.8751917552843
 21
186.4318151607066
 31
0.0
  0
LINE
  5
4783
330
1F
100
AcDbEntity
  8
0
100
AcDbLine
 10
395.1591930312277
 20
202.5318151568453
 30
0.0
 11
396.1591930312277
 21
202.5318151568453
 31
0.0
  0
LINE
  5
4784
330
1F
100
AcDbEntity
  8
T
100
AcDbLine
 10
335.8751917552843
 20
198.1270995213994
 30
0.0
 11
335.8751917552843
 21
188.055202757799
 31
0.0
  0
LINE
  5
4785
330
1F
100
AcDbEntity
  8
T
100
AcDbLine
 10
331.0751917552845
 20
193.0323061776975
 30
0.0
 11
340.675191755284
 21
193.0323061776975
 31
0.0
  0
CIRCLE
  5
4787
330
1F
100
AcDbEntity
  8
0
100
AcDbCircle
 10
335.8751917552843
 20
193.0323061776975
 30
0.0
 40
4.15
  0
ARC
  5
4788
330
1F
100
AcDbEntity
  8
0
100
AcDbCircle
 10
297.3751917552834
 20
193.0318151568462
 30
0.0
 40
9.5
100
AcDbArc
 50
90.0
 51
180.0000000000049
  0
LINE
  5
478B
330
1F
100
AcDbEntity
  8
0
100
AcDbLine
 10
300.3751917552843
 20
189.8400896617453
 30
0.0
 11
300.3751917552843
 21
197.8434454853522
 31
0.0
  0
LINE
  5
478C
330
1F
100
AcDbEntity
  8
0
100
AcDbLine
 10
300.3751917552843
 20
197.8323061776972
 30
0.0
 11
300.3751917552843
 21
188.2323061776973
 31
0.0
  0
LINE
  5
478D
330
1F
100
AcDbEntity
  8
T
100
AcDbLine
 10
300.3751917552843
 20
189.8400896617453
 30
0.0
 11
300.3751917552843
 21
197.8434454853522
 31
0.0
  0
LINE
  5
478E
330
1F
100
AcDbEntity
  8
T
100
AcDbLine
 10
295.5751917552841
 20
193.0323061776975
 30
0.0
 11
305.1751917552835
 21
193.0323061776975
 31
0.0
  0
LINE
  5
4793
330
1F
100
AcDbEntity
  8
0
100
AcDbLine
 10
287.8751917552833
 20
193.0318151568453
 30
0.0
 11
287.8751917552843
 21
186.4318151607062
 31
0.0
  0
CIRCLE
  5
4794
330
1F
100
AcDbEntity
  8
0
100
AcDbCircle
 10
300.3751917552843
 20
193.0323061776975
 30
0.0
 40
4.15
  0
LINE
  5
4797
330
1F
100
AcDbEntity
  8
0
100
AcDbLine
 10
297.3751917552842
 20
202.5318151568462
 30
0.0
 11
363.8751917552843
 21
202.5318151568448
 31
0.0
  0
LINE
  5
4799
330
1F
100
AcDbEntity
  8
0
100
AcDbLine
 10
287.8751917552843
 20
186.4318151607062
 30
0.0
 11
383.8751917552843
 21
186.4318151607066
 31
0.0
  0
ARC
  5
479A
330
1F
100
AcDbEntity
  8
0
100
AcDbCircle
 10
363.8751917552843
 20
178.0318151568448
 30
0.0
 40
24.5
100
AcDbArc
 50
35.28126182726359
 51
90.0
  0
LINE
  5
479B
330
1F
100
AcDbEntity
  8
0
100
AcDbLine
 10
393.9720711024977
 20
165.088290136977
 30
0.0
 11
395.9720711024977
 21
165.0882901369766
 31
0.0
  0
LINE
  5
47A0
330
1F
100
AcDbEntity
  8
0
100
AcDbLine
 10
297.8710212655667
 20
165.0877991161266
 30
0.0
 11
363.8710212655667
 21
165.0877991161253
 31
0.0
  0
LINE
  5
47A1
330
1F
100
AcDbEntity
  8
0
100
AcDbLine
 10
384.8710212655658
 20
153.5042069811247
 30
0.0
 11
384.8710212655658
 21
148.9877991199866
 31
0.0
  0
LINE
  5
47A2
330
1F
100
AcDbEntity
  8
0
100
AcDbLine
 10
393.9720711024977
 20
151.3685573967943
 30
0.0
 11
395.9720711024977
 21
151.3685573967943
 31
0.0
  0
LINE
  5
47AB
330
1F
100
AcDbEntity
  8
0
100
AcDbLine
 10
395.9720711024977
 20
148.4877991199871
 30
0.0
 11
393.9720711024977
 21
148.4877991199871
 31
0.0
  0
ARC
  5
47AC
330
1F
100
AcDbEntity
  8
0
100
AcDbCircle
 10
384.3710212655658
 20
148.9877991199866
 30
0.0
 40
0.5
100
AcDbArc
 50
270.0
 51
0.0000000000032569
  0
ARC
  5
47AD
330
1F
100
AcDbEntity
  8
0
100
AcDbCircle
 10
384.3710212655658
 20
153.5042069811245
 30
0.0
 40
0.5
100
AcDbArc
 50
0.0000000000032569
 51
33.20309919803886
  0
CIRCLE
  5
47AE
330
1F
100
AcDbEntity
  8
0
100
AcDbCircle
 10
336.3710212655658
 20
155.0882901369779
 30
0.0
 40
4.15
  0
LINE
  5
47AF
330
1F
100
AcDbEntity
  8
T
100
AcDbLine
 10
336.3710212655658
 20
159.8882901369776
 30
0.0
 11
336.3710212655658
 21
150.2882901369777
 31
0.0
  0
LINE
  5
47B1
330
1F
100
AcDbEntity
  8
T
100
AcDbLine
 10
341.1710212655659
 20
155.0882901369779
 30
0.0
 11
331.5710212655656
 21
155.0882901369779
 31
0.0
  0
LINE
  5
47B3
330
1F
100
AcDbEntity
  8
0
100
AcDbLine
 10
300.8710212655658
 20
151.8960736210257
 30
0.0
 11
300.8710212655658
 21
159.8994294446326
 31
0.0
  0
LINE
  5
47B4
330
1F
100
AcDbEntity
  8
0
100
AcDbLine
 10
300.8710212655658
 20
159.8882901369776
 30
0.0
 11
300.8710212655658
 21
150.2882901369777
 31
0.0
  0
LINE
  5
47B5
330
1F
100
AcDbEntity
  8
T
100
AcDbLine
 10
300.8710212655658
 20
159.8882901369776
 30
0.0
 11
300.8710212655658
 21
150.2882901369777
 31
0.0
  0
CIRCLE
  5
47B6
330
1F
100
AcDbEntity
  8
0
100
AcDbCircle
 10
300.8710212655658
 20
155.0882901369779
 30
0.0
 40
4.15
  0
LINE
  5
47B7
330
1F
100
AcDbEntity
  8
0
100
AcDbLine
 10
287.8710212655658
 20
155.0877991161257
 30
0.0
 11
287.8710212655667
 21
148.9877991199866
 31
0.0
  0
ARC
  5
47BB
330
1F
100
AcDbEntity
  8
0
100
AcDbCircle
 10
288.3710212655667
 20
148.9877991199866
 30
0.0
 40
0.5
100
AcDbArc
 50
180.0000000000049
 51
270.0
  0
LINE
  5
47BD
330
1F
100
AcDbEntity
  8
T
100
AcDbLine
 10
296.0710212655656
 20
155.0882901369779
 30
0.0
 11
305.671021265566
 21
155.0882901369779
 31
0.0
  0
LINE
  5
47BF
330
1F
100
AcDbEntity
  8
0
100
AcDbLine
 10
288.3710212655667
 20
148.4877991199866
 30
0.0
 11
384.3710212655658
 21
148.4877991199866
 31
0.0
  0
LINE
  5
47C0
330
1F
100
AcDbEntity
  8
0
100
AcDbLine
 10
393.9720711024977
 20
148.4877991199871
 30
0.0
 11
393.9720711024977
 21
165.088290136977
 31
0.0
  0
LINE
  5
47C1
330
1F
100
AcDbEntity
  8
0
100
AcDbLine
 10
395.9720711024977
 20
165.0882901369766
 30
0.0
 11
395.9720711024977
 21
148.4877991199871
 31
0.0
  0
ARC
  5
47C3
330
1F
100
AcDbEntity
  8
0
100
AcDbCircle
 10
297.8710212655658
 20
155.0877991161266
 30
0.0
 40
10.0
100
AcDbArc
 50
90.0
 51
180.0000000000049
  0
ARC
  5
47C4
330
1F
100
AcDbEntity
  8
0
100
AcDbCircle
 10
363.8710212655667
 20
140.0877991161253
 30
0.0
 40
25.0
100
AcDbArc
 50
33.20309919803938
 51
90.0
  0
CIRCLE
  5
47C5
330
1F
100
AcDbEntity
  8
0
100
AcDbCircle
 10
200.1100594351592
 20
96.1023005826936
 30
0.0
 40
6.5
  0
LINE
  5
47C6
330
1F
100
AcDbEntity
  8
T
100
AcDbLine
 10
209.1100594351597
 20
96.1023005826936
 30
0.0
 11
191.1100594351587
 21
96.1023005826936
 31
0.0
  0
LINE
  5
47C8
330
1F
100
AcDbEntity
  8
0
100
AcDbLine
 10
191.1100594351592
 20
86.1023005826936
 30
0.0
 11
244.6100594351592
 21
86.1023005826936
 31
0.0
  0
LINE
  5
47C9
330
1F
100
AcDbEntity
  8
0
100
AcDbLine
 10
191.1100594351592
 20
106.1023005826936
 30
0.0
 11
244.6100594351592
 21
106.1023005826936
 31
0.0
  0
LINE
  5
47CC
330
1F
100
AcDbEntity
  8
0
100
AcDbLine
 10
188.1100594351592
 20
103.1023005826936
 30
0.0
 11
188.1100594351592
 21
89.10230058269361
 31
0.0
  0
ARC
  5
47CD
330
1F
100
AcDbEntity
  8
0
100
AcDbCircle
 10
191.1100594351592
 20
89.10230058269361
 30
0.0
 40
3.0
100
AcDbArc
 50
180.0
 51
270.0
  0
ARC
  5
47D0
330
1F
100
AcDbEntity
  8
0
100
AcDbCircle
 10
191.1100594351592
 20
103.1023005826936
 30
0.0
 40
3.0
100
AcDbArc
 50
90.0
 51
180.0
  0
LINE
  5
47D8
330
1F
100
AcDbEntity
  8
0
  6
H2
100
AcDbLine
 10
265.9164156224842
 20
100.6023005826936
 30
0.0
 11
265.9164156224847
 21
91.60230058269361
 31
0.0
  0
CIRCLE
  5
47D9
330
1F
100
AcDbEntity
  8
0
100
AcDbCircle
 10
235.6100594351592
 20
96.1023005826936
 30
0.0
 40
6.5
  0
LINE
  5
47DA
330
1F
100
AcDbEntity
  8
T
100
AcDbLine
 10
235.6100594351592
 20
105.1023005826932
 30
0.0
 11
235.6100594351592
 21
87.10230058269393
 31
0.0
  0
LINE
  5
47DB
330
1F
100
AcDbEntity
  8
T
100
AcDbLine
 10
200.1100594351592
 20
105.1023005826939
 30
0.0
 11
200.1100594351592
 21
87.10230058269326
 31
0.0
  0
LINE
  5
47DD
330
1F
100
AcDbEntity
  8
0
100
AcDbLine
 10
263.716415622484
 20
106.1023005826936
 30
0.0
 11
263.716415622484
 21
86.1023005826936
 31
0.0
  0
LINE
  5
47DE
330
1F
100
AcDbEntity
  8
0
100
AcDbLine
 10
266.9164156224842
 20
106.1023005826936
 30
0.0
 11
266.9164156224842
 21
86.1023005826936
 31
0.0
  0
LINE
  5
47DF
330
1F
100
AcDbEntity
  8
0
100
AcDbLine
 10
247.6100594351592
 20
103.1023005826936
 30
0.0
 11
247.6100594351592
 21
89.10230058269361
 31
0.0
  0
CIRCLE
  5
47E0
330
1F
100
AcDbEntity
  8
0
100
AcDbCircle
 10
235.6100594351592
 20
96.1023005826936
 30
0.0
 40
4.5
  0
CIRCLE
  5
47E1
330
1F
100
AcDbEntity
  8
0
100
AcDbCircle
 10
200.1100594351592
 20
96.1023005826936
 30
0.0
 40
4.5
  0
LINE
  5
47E2
330
1F
100
AcDbEntity
  8
T
100
AcDbLine
 10
244.6100594351587
 20
96.1023005826936
 30
0.0
 11
226.6100594351597
 21
96.1023005826936
 31
0.0
  0
LINE
  5
47E3
330
1F
100
AcDbEntity
  8
0
  6
H2
100
AcDbLine
 10
265.9164156224842
 20
91.60230058269361
 30
0.0
 11
263.716415622484
 21
89.6023005826936
 31
0.0
  0
LINE
  5
47E4
330
1F
100
AcDbEntity
  8
0
  6
H2
100
AcDbLine
 10
265.9164156224847
 20
91.60230058269361
 30
0.0
 11
266.9164156224847
 21
91.60230058269371
 31
0.0
  0
LINE
  5
47E8
330
1F
100
AcDbEntity
  8
0
100
AcDbLine
 10
263.716415622484
 20
86.1023005826936
 30
0.0
 11
266.9164156224842
 21
86.1023005826936
 31
0.0
  0
ARC
  5
47E9
330
1F
100
AcDbEntity
  8
0
100
AcDbCircle
 10
244.6100594351592
 20
89.10230058269361
 30
0.0
 40
3.0
100
AcDbArc
 50
270.0
 51
0.0
  0
LINE
  5
47EA
330
1F
100
AcDbEntity
  8
0
  6
H2
100
AcDbLine
 10
265.9164156224842
 20
100.6023005826936
 30
0.0
 11
263.716415622484
 21
102.6023005826936
 31
0.0
  0
LINE
  5
47EB
330
1F
100
AcDbEntity
  8
0
  6
H2
100
AcDbLine
 10
265.9164156224847
 20
100.6023005826936
 30
0.0
 11
266.9164156224847
 21
100.6023005826936
 31
0.0
  0
LINE
  5
47EE
330
1F
100
AcDbEntity
  8
0
100
AcDbLine
 10
263.716415622484
 20
106.1023005826936
 30
0.0
 11
266.9164156224842
 21
106.1023005826936
 31
0.0
  0
ARC
  5
47EF
330
1F
100
AcDbEntity
  8
0
100
AcDbCircle
 10
244.6100594351592
 20
103.1023005826936
 30
0.0
 40
3.0
100
AcDbArc
 50
0.0
 51
90.0
  0
LINE
  5
47F2
330
1F
100
AcDbEntity
  8
0
100
AcDbLine
 10
159.7678066015255
 20
106.4512803865776
 30
0.0
 11
162.9678066015253
 21
106.4512803865776
 31
0.0
  0
ARC
  5
47F3
330
1F
100
AcDbEntity
  8
0
100
AcDbCircle
 10
142.6517402977893
 20
103.4512803865776
 30
0.0
 40
3.0
100
AcDbArc
 50
0.0
 51
90.0
  0
CIRCLE
  5
47F4
330
1F
100
AcDbEntity
  8
0
100
AcDbCircle
 10
133.6517402977893
 20
96.45128038657766
 30
0.0
 40
4.5
  0
LINE
  5
47F8
330
1F
100
AcDbEntity
  8
0
100
AcDbLine
 10
159.7678066015255
 20
86.45128038657764
 30
0.0
 11
162.9678066015253
 21
86.45128038657764
 31
0.0
  0
ARC
  5
47F9
330
1F
100
AcDbEntity
  8
0
100
AcDbCircle
 10
142.6517402977893
 20
89.45128038657765
 30
0.0
 40
3.0
100
AcDbArc
 50
270.0
 51
0.0
  0
LINE
  5
4802
330
1F
100
AcDbEntity
  8
T
100
AcDbLine
 10
133.6517402977893
 20
105.4512803865773
 30
0.0
 11
133.6517402977893
 21
87.45128038657799
 31
0.0
  0
LINE
  5
4804
330
1F
100
AcDbEntity
  8
0
100
AcDbLine
 10
159.7678066015255
 20
106.4512803865776
 30
0.0
 11
159.7678066015255
 21
86.45128038657764
 31
0.0
  0
LINE
  5
4805
330
1F
100
AcDbEntity
  8
0
100
AcDbLine
 10
162.9678066015253
 20
106.4512803865776
 30
0.0
 11
162.9678066015253
 21
86.45128038657764
 31
0.0
  0
LINE
  5
4806
330
1F
100
AcDbEntity
  8
0
100
AcDbLine
 10
145.6517402977892
 20
103.4512803865776
 30
0.0
 11
145.6517402977892
 21
89.45128038657765
 31
0.0
  0
ARC
  5
4807
330
1F
100
AcDbEntity
  8
0
100
AcDbCircle
 10
89.15174029778928
 20
103.4512803865776
 30
0.0
 40
3.0
100
AcDbArc
 50
90.0
 51
180.0
  0
CIRCLE
  5
480A
330
1F
100
AcDbEntity
  8
0
100
AcDbCircle
 10
98.15174029778928
 20
96.45128038657766
 30
0.0
 40
4.5
  0
ARC
  5
480C
330
1F
100
AcDbEntity
  8
0
100
AcDbCircle
 10
89.15174029778928
 20
89.45128038657765
 30
0.0
 40
3.0
100
AcDbArc
 50
180.0
 51
270.0
  0
LINE
  5
480F
330
1F
100
AcDbEntity
  8
T
100
AcDbLine
 10
107.1517402977892
 20
96.45128038657766
 30
0.0
 11
89.15174029778928
 21
96.45128038657766
 31
0.0
  0
LINE
  5
4810
330
1F
100
AcDbEntity
  8
T
100
AcDbLine
 10
98.15174029778928
 20
105.4512803865777
 30
0.0
 11
98.15174029778928
 21
87.45128038657753
 31
0.0
  0
LINE
  5
4811
330
1F
100
AcDbEntity
  8
0
100
AcDbLine
 10
86.15174029778927
 20
103.4512803865776
 30
0.0
 11
86.15174029778927
 21
89.45128038657765
 31
0.0
  0
LINE
  5
4812
330
1F
100
AcDbEntity
  8
T
100
AcDbLine
 10
142.6517402977888
 20
96.45128038657766
 30
0.0
 11
124.6517402977897
 21
96.45128038657766
 31
0.0
  0
LINE
  5
4813
330
1F
100
AcDbEntity
  8
0
100
AcDbLine
 10
89.15174029778928
 20
106.4512803865776
 30
0.0
 11
142.6517402977893
 21
106.4512803865776
 31
0.0
  0
LINE
  5
4814
330
1F
100
AcDbEntity
  8
0
100
AcDbLine
 10
89.15174029778928
 20
86.45128038657764
 30
0.0
 11
142.6517402977893
 21
86.45128038657764
 31
0.0
  0
TEXT
  5
4F04
330
1F
100
AcDbEntity
  8
W
 62
     6
100
AcDbText
 10
1333.570552079095
 20
737.232767109816
 30
0.0
 40
3.0
  1

 41
0.7
  7
SIMPLEX
100
AcDbText
  0
CIRCLE
  5
5299
330
1F
100
AcDbEntity
  8
0
100
AcDbCircle
 10
375.1000499913804
 20
360.3278464760001
 30
0.0
 40
3.625
  0
CIRCLE
  5
529A
330
1F
100
AcDbEntity
  8
0
100
AcDbCircle
 10
375.1000499913804
 20
360.3278464760001
 30
0.0
 40
4.0
  0
CIRCLE
  5
529B
330
1F
100
AcDbEntity
  8
0
100
AcDbCircle
 10
339.6000499913804
 20
360.3278464760001
 30
0.0
 40
3.625
  0
CIRCLE
  5
529C
330
1F
100
AcDbEntity
  8
0
100
AcDbCircle
 10
339.6000499913804
 20
360.3278464760001
 30
0.0
 40
4.0
  0
LINE
  5
52D3
330
1F
100
AcDbEntity
  8
0
100
AcDbLine
 10
329.7995686342753
 20
323.8278464760008
 30
0.0
 11
329.7995686342753
 21
320.6278464760007
 31
0.0
  0
LINE
  5
52D4
330
1F
100
AcDbEntity
  8
0
100
AcDbLine
 10
328.7995686342753
 20
323.8278464760008
 30
0.0
 11
328.7995686342753
 21
320.6278464760007
 31
0.0
  0
LINE
  5
52D5
330
1F
100
AcDbEntity
  8
0
100
AcDbLine
 10
323.2995686342753
 20
323.8278464760008
 30
0.0
 11
323.2995686342753
 21
320.6278464760007
 31
0.0
  0
LINE
  5
52D6
330
1F
100
AcDbEntity
  8
0
100
AcDbLine
 10
319.7995686342752
 20
323.8278464760008
 30
0.0
 11
319.7995686342752
 21
320.6278464760007
 31
0.0
  0
LINE
  5
52D7
330
1F
100
AcDbEntity
  8
0
100
AcDbLine
 10
310.399568634275
 20
323.8278464760008
 30
0.0
 11
310.399568634275
 21
320.6278464760005
 31
0.0
  0
LINE
  5
52D9
330
1F
100
AcDbEntity
  8
0
100
AcDbLine
 10
310.399568634275
 20
323.8278464760008
 30
0.0
 11
329.7995686342753
 21
323.8278464760008
 31
0.0
  0
ARC
  5
52DC
330
1F
100
AcDbEntity
  8
0
100
AcDbCircle
 10
338.1000499913813
 20
329.8278464760001
 30
0.0
 40
47.0
100
AcDbArc
 50
314.1604804299589
 51
0.1209213289781132
  0
ARC
  5
52DD
330
1F
100
AcDbEntity
  8
0
100
AcDbCircle
 10
338.1000499913813
 20
329.8278464760001
 30
0.0
 40
50.00000000000003
100
AcDbArc
 50
270.0
 51
0.0
  0
LINE
  5
52DE
330
1F
100
AcDbEntity
  8
0
100
AcDbLine
 10
301.5995686342736
 20
305.8280832089145
 30
0.0
 11
301.5995686342736
 21
289.8278464760001
 31
0.0
  0
LINE
  5
52DF
330
1F
100
AcDbEntity
  8
0
100
AcDbLine
 10
318.6000499913822
 20
282.8278464760001
 30
0.0
 11
318.6000499913813
 21
295.8278464760001
 31
0.0
  0
LINE
  5
52E0
330
1F
100
AcDbEntity
  8
0
100
AcDbLine
 10
340.1000499913822
 20
282.8278464760001
 30
0.0
 11
340.1000499913822
 21
295.8278464760001
 31
0.0
  0
LINE
  5
52E1
330
1F
100
AcDbEntity
  8
0
100
AcDbLine
 10
365.2000499913826
 20
330.7278464759997
 30
0.0
 11
384.600175887737
 21
330.7278464759997
 31
0.0
  0
LINE
  5
52E2
330
1F
100
AcDbEntity
  8
0
100
AcDbLine
 10
364.2000499913826
 20
330.7278464759997
 30
0.0
 11
384.600175887737
 21
330.7278464759997
 31
0.0
  0
LINE
  5
52E3
330
1F
100
AcDbEntity
  8
0
100
AcDbLine
 10
388.1000499913804
 20
354.3273554590101
 30
0.0
 11
368.1000499913804
 21
354.3273554590101
 31
0.0
  0
LINE
  5
52E4
330
1F
100
AcDbEntity
  8
0
100
AcDbLine
 10
377.6004270213854
 20
351.2278464759997
 30
0.0
 11
384.600175887737
 21
351.2278464759997
 31
0.0
  0
LINE
  5
52E5
330
1F
100
AcDbEntity
  8
0
100
AcDbLine
 10
377.6004270213854
 20
350.7285385182549
 30
0.0
 11
384.1001758877366
 21
350.7285385182549
 31
0.0
  0
LINE
  5
52E6
330
1F
100
AcDbEntity
  8
0
100
AcDbLine
 10
331.8000444213027
 20
353.3278464760001
 30
0.0
 11
388.1000499913813
 21
353.3278464760001
 31
0.0
  0
ARC
  5
52E7
330
1F
100
AcDbEntity
  8
0
100
AcDbCircle
 10
378.1000499913795
 20
360.3278464760001
 30
0.0
 40
10.0
100
AcDbArc
 50
0.0
 51
90.00000000000003
  0
LINE
  5
52EC
330
1F
100
AcDbEntity
  8
0
100
AcDbLine
 10
286.6000499913804
 20
345.327846475999
 30
0.0
 11
286.6000499913804
 21
337.227846476
 31
0.0
  0
LINE
  5
52ED
330
1F
100
AcDbEntity
  8
0
100
AcDbLine
 10
302.7995686342734
 20
347.727846476
 30
0.0
 11
302.7995686342744
 21
336.7278464760007
 31
0.0
  0
LINE
  5
52EE
330
1F
100
AcDbEntity
  8
0
100
AcDbLine
 10
296.6000499913795
 20
349.3851961289954
 30
0.0
 11
296.6000499913804
 21
333.227846476
 31
0.0
  0
LINE
  5
52EF
330
1F
100
AcDbEntity
  8
0
100
AcDbLine
 10
316.2995686342725
 20
325.6268644420193
 30
0.0
 11
316.2995686342725
 21
357.3273554590078
 31
0.0
  0
LINE
  5
52F0
330
1F
100
AcDbEntity
  8
0
100
AcDbLine
 10
328.2995686342725
 20
325.626864442019
 30
0.0
 11
328.2995686342725
 21
354.3273554590101
 31
0.0
  0
LINE
  5
52F1
330
1F
100
AcDbEntity
  8
0
100
AcDbLine
 10
309.8000444213027
 20
355.8278464760001
 30
0.0
 11
309.8000444213027
 21
315.6278464760021
 31
0.0
  0
LINE
  5
52F2
330
1F
100
AcDbEntity
  8
0
100
AcDbLine
 10
299.5995686342736
 20
347.0563028771067
 30
0.0
 11
299.5995686342736
 21
313.2921848240521
 31
0.0
  0
LINE
  5
52F3
330
1F
100
AcDbEntity
  8
0
100
AcDbLine
 10
331.8000444213027
 20
354.3273554590101
 30
0.0
 11
331.8000444213027
 21
315.6278464760021
 31
0.0
  0
LINE
  5
52F4
330
1F
100
AcDbEntity
  8
0
100
AcDbLine
 10
337.8004270213838
 20
295.8278464760001
 30
0.0
 11
337.8004270213838
 21
353.3278464760003
 31
0.0
  0
LINE
  5
52F5
330
1F
100
AcDbEntity
  8
0
100
AcDbLine
 10
338.3004270213843
 20
295.8278464760003
 30
0.0
 11
338.3004270213843
 21
352.3285385182551
 31
0.0
  0
LINE
  5
52F6
330
1F
100
AcDbEntity
  8
0
100
AcDbLine
 10
346.6000499913804
 20
354.3273554590101
 30
0.0
 11
309.8000444213027
 21
354.3273554590101
 31
0.0
  0
LINE
  5
52F7
330
1F
100
AcDbEntity
  8
0
100
AcDbLine
 10
378.1000499913795
 20
370.3278464760001
 30
0.0
 11
311.6000499913795
 21
370.327846475999
 31
0.0
  0
ARC
  5
52F8
330
1F
100
AcDbEntity
  8
0
100
AcDbCircle
 10
299.6000499913795
 20
349.3851961289954
 30
0.0
 40
3.0
100
AcDbArc
 50
135.0000000000077
 51
180.0000000000016
  0
LINE
  5
52F9
330
1F
100
AcDbEntity
  8
0
100
AcDbLine
 10
303.2995686342725
 20
357.3273554590078
 30
0.0
 11
297.4787296478195
 21
351.5065164725549
 31
0.0
  0
LINE
  5
52FA
330
1F
100
AcDbEntity
  8
0
100
AcDbLine
 10
303.2995686342725
 20
357.3273554590078
 30
0.0
 11
316.2995686342725
 21
357.3273554590078
 31
0.0
  0
LINE
  5
52FB
330
1F
100
AcDbEntity
  8
0
100
AcDbLine
 10
303.2995686342734
 20
348.2278464760002
 30
0.0
 11
309.8000444213018
 21
348.2278464759998
 31
0.0
  0
LINE
  5
52FC
330
1F
100
AcDbEntity
  8
0
100
AcDbLine
 10
303.8000444213027
 20
353.3278464760001
 30
0.0
 11
309.8000444213027
 21
353.3278464760001
 31
0.0
  0
LINE
  5
52FD
330
1F
100
AcDbEntity
  8
0
100
AcDbLine
 10
309.8000444213027
 20
355.8278464760001
 30
0.0
 11
306.3000444213027
 21
355.8278464760001
 31
0.0
  0
LINE
  5
52FE
330
1F
100
AcDbEntity
  8
0
100
AcDbLine
 10
306.3000444213027
 20
355.8278464760001
 30
0.0
 11
301.0640347283412
 21
350.5918367830393
 31
0.0
  0
ARC
  5
52FF
330
1F
100
AcDbEntity
  8
0
100
AcDbCircle
 10
304.5995686342736
 20
347.0563028771067
 30
0.0
 40
5.0
100
AcDbArc
 50
134.9999999999933
 51
180.0
  0
ARC
  5
5300
330
1F
100
AcDbEntity
  8
0
100
AcDbCircle
 10
303.2995686342734
 20
347.7278464760002
 30
0.0
 40
0.5
100
AcDbArc
 50
90.00000000000003
 51
180.0000000000065
  0
ARC
  5
5301
330
1F
100
AcDbEntity
  8
0
100
AcDbCircle
 10
311.6000499913804
 20
345.327846475999
 30
0.0
 40
25.0
100
AcDbArc
 50
90.00000000000003
 51
180.0
  0
LINE
  5
5302
330
1F
100
AcDbEntity
  8
0
100
AcDbLine
 10
304.7995534043126
 20
354.3273554590101
 30
0.0
 11
288.2760529483136
 21
354.3273554590101
 31
0.0
  0
LINE
  5
5314
330
1F
100
AcDbEntity
  8
0
100
AcDbLine
 10
346.6000499913804
 20
364.3278464760001
 30
0.0
 11
346.6000499913804
 21
354.3273554590101
 31
0.0
  0
LINE
  5
5315
330
1F
100
AcDbEntity
  8
T
100
AcDbLine
 10
375.1000499913804
 20
365.1278464760003
 30
0.0
 11
375.1000499913804
 21
355.5278464759999
 31
0.0
  0
LINE
  5
5316
330
1F
100
AcDbEntity
  8
0
100
AcDbLine
 10
368.1000499913804
 20
364.3278464760001
 30
0.0
 11
368.1000499913804
 21
354.3273554590101
 31
0.0
  0
LINE
  5
5317
330
1F
100
AcDbEntity
  8
T
100
AcDbLine
 10
379.9000499913806
 20
360.3278464760001
 30
0.0
 11
370.3000499913802
 21
360.3278464760001
 31
0.0
  0
ARC
  5
5318
330
1F
100
AcDbEntity
  8
0
100
AcDbCircle
 10
349.6000499913804
 20
364.3278464760001
 30
0.0
 40
3.0
100
AcDbArc
 50
90.00000000000003
 51
180.0
  0
ARC
  5
5319
330
1F
100
AcDbEntity
  8
0
100
AcDbCircle
 10
365.1000499913804
 20
364.3278464760001
 30
0.0
 40
3.0
100
AcDbArc
 50
0.0
 51
90.00000000000003
  0
LINE
  5
531A
330
1F
100
AcDbEntity
  8
0
100
AcDbLine
 10
365.1000499913804
 20
367.3278464760001
 30
0.0
 11
349.6000499913804
 21
367.3278464760001
 31
0.0
  0
LINE
  5
531B
330
1F
100
AcDbEntity
  8
0
100
AcDbLine
 10
368.1000499913804
 20
355.8278464760001
 30
0.0
 11
346.6000499913804
 21
355.8278464760001
 31
0.0
  0
LINE
  5
531C
330
1F
100
AcDbEntity
  8
0
100
AcDbLine
 10
378.100175887737
 20
353.3278464760001
 30
0.0
 11
378.100175887737
 21
351.2278464759997
 31
0.0
  0
LINE
  5
531D
330
1F
100
AcDbEntity
  8
0
100
AcDbLine
 10
377.6004270213854
 20
350.7285385182549
 30
0.0
 11
377.6004270213849
 21
352.3285385182551
 31
0.0
  0
ARC
  5
531E
330
1F
100
AcDbEntity
  8
0
100
AcDbCircle
 10
377.1004270213849
 20
352.3285385182548
 30
0.0
 40
0.5
100
AcDbArc
 50
0.0000000000130416
 51
90.00000000000003
  0
LINE
  5
531F
330
1F
100
AcDbEntity
  8
T
100
AcDbLine
 10
339.6000499913804
 20
365.6278464760003
 30
0.0
 11
339.6000499913804
 21
356.0278464760008
 31
0.0
  0
ARC
  5
5320
330
1F
100
AcDbEntity
  8
0
100
AcDbCircle
 10
338.8004270213843
 20
352.3285385182551
 30
0.0
 40
0.5
100
AcDbArc
 50
90.00000000000003
 51
180.0
  0
LINE
  5
5321
330
1F
100
AcDbEntity
  8
T
100
AcDbLine
 10
334.8000499913802
 20
360.3278464760001
 30
0.0
 11
344.4000499913796
 21
360.3278464760001
 31
0.0
  0
LINE
  5
5322
330
1F
100
AcDbEntity
  8
0
100
AcDbLine
 10
338.8004270213843
 20
352.8285385182551
 30
0.0
 11
377.1004270213849
 21
352.8285385182548
 31
0.0
  0
LINE
  5
5323
330
1F
100
AcDbEntity
  8
0
100
AcDbLine
 10
328.2995686342725
 20
325.626864442019
 30
0.0
 11
316.2995686342725
 21
325.6268644420193
 31
0.0
  0
LINE
  5
5324
330
1F
100
AcDbEntity
  8
0
100
AcDbLine
 10
309.8000444213027
 20
320.6278464760003
 30
0.0
 11
331.8000444213027
 21
320.6278464760003
 31
0.0
  0
LINE
  5
5325
330
1F
100
AcDbEntity
  8
0
100
AcDbLine
 10
301.5995686342736
 20
295.8278464760001
 30
0.0
 11
374.7606555510316
 21
295.8278464760001
 31
0.0
  0
LINE
  5
5326
330
1F
100
AcDbEntity
  8
0
100
AcDbLine
 10
294.6000499913804
 20
331.227846476
 30
0.0
 11
293.4155512178164
 21
331.227846476
 31
0.0
  0
ARC
  5
5327
330
1F
100
AcDbEntity
  8
0
100
AcDbCircle
 10
294.6000499913804
 20
333.227846476
 30
0.0
 40
2.0
100
AcDbArc
 50
270.0
 51
0.0
  0
ARC
  5
5328
330
1F
100
AcDbEntity
  8
0
100
AcDbCircle
 10
310.3000444213027
 20
321.1278464760003
 30
0.0
 40
0.5
100
AcDbArc
 50
180.0
 51
270.0
  0
LINE
  5
5329
330
1F
100
AcDbEntity
  8
0
100
AcDbLine
 10
301.5995686342736
 20
305.8280832089145
 30
0.0
 11
299.5995686342736
 21
313.2921848240521
 31
0.0
  0
LINE
  5
532A
330
1F
100
AcDbEntity
  8
0
100
AcDbLine
 10
303.2995686342744
 20
336.2278464760006
 30
0.0
 11
309.8000444213027
 21
336.2278464759997
 31
0.0
  0
ARC
  5
532B
330
1F
100
AcDbEntity
  8
0
100
AcDbCircle
 10
303.2995686342744
 20
336.7278464760007
 30
0.0
 40
0.5
100
AcDbArc
 50
180.0000000000065
 51
269.999999999987
  0
LINE
  5
532C
330
1F
100
AcDbEntity
  8
0
100
AcDbLine
 10
299.5995686342736
 20
325.7837707923479
 30
0.0
 11
286.6000499913804
 21
337.227846476
 31
0.0
  0
LINE
  5
5362
330
1F
100
AcDbEntity
  8
0
100
AcDbLine
 10
356.2000499913826
 20
296.3278464760001
 30
0.0
 11
356.2000499913826
 21
319.7278464759979
 31
0.0
  0
LINE
  5
5363
330
1F
100
AcDbEntity
  8
0
100
AcDbLine
 10
354.2000499913826
 20
320.7278464759993
 30
0.0
 11
354.2000499913826
 21
295.8278464760001
 31
0.0
  0
ARC
  5
5364
330
1F
100
AcDbEntity
  8
0
100
AcDbCircle
 10
356.7000499913826
 20
328.2278464759997
 30
0.0
 40
8.0
100
AcDbArc
 50
270.0
 51
0.0
  0
LINE
  5
5365
330
1F
100
AcDbEntity
  8
T
100
AcDbLine
 10
361.5000499913818
 20
328.2278464759997
 30
0.0
 11
351.9000499913815
 21
328.2278464759997
 31
0.0
  0
LINE
  5
5366
330
1F
100
AcDbEntity
  8
0
100
AcDbLine
 10
356.7000499913826
 20
325.8278464760001
 30
0.0
 11
356.7000499913826
 21
330.6278464760003
 31
0.0
  0
LINE
  5
5367
330
1F
100
AcDbEntity
  8
0
100
AcDbLine
 10
359.1000499913822
 20
328.2278464759997
 30
0.0
 11
354.300049991382
 21
328.2278464759997
 31
0.0
  0
LINE
  5
5368
330
1F
100
AcDbEntity
  8
T
100
AcDbLine
 10
356.7000499913826
 20
323.4278464759996
 30
0.0
 11
356.7000499913826
 21
333.0278464759999
 31
0.0
  0
ARC
  5
5369
330
1F
100
AcDbEntity
  8
0
100
AcDbCircle
 10
356.7000499913826
 20
319.7278464759979
 30
0.0
 40
0.5
100
AcDbArc
 50
90.00000000000003
 51
180.0
  0
LINE
  5
536A
330
1F
100
AcDbEntity
  8
0
100
AcDbLine
 10
364.7000499913826
 20
328.2278464759997
 30
0.0
 11
364.7000499913826
 21
330.2278464759997
 31
0.0
  0
ARC
  5
536B
330
1F
100
AcDbEntity
  8
0
100
AcDbCircle
 10
365.2000499913826
 20
330.2278464759997
 30
0.0
 40
0.5
100
AcDbArc
 50
90.00000000000003
 51
180.0
  0
CIRCLE
  5
536C
330
1F
100
AcDbEntity
  8
0
100
AcDbCircle
 10
356.7000499913826
 20
328.2278464759997
 30
0.0
 40
4.5
  0
CIRCLE
  5
536D
330
1F
100
AcDbEntity
  8
0
100
AcDbCircle
 10
356.7000499913826
 20
328.2278464759997
 30
0.0
 40
4.0
  0
LINE
  5
536E
330
1F
100
AcDbEntity
  8
0
100
AcDbLine
 10
356.1000499913822
 20
329.3278464759997
 30
0.0
 11
356.1000499913822
 21
330.7278464759997
 31
0.0
  0
LINE
  5
536F
330
1F
100
AcDbEntity
  8
0
100
AcDbLine
 10
357.300049991382
 20
329.3278464759997
 30
0.0
 11
357.300049991382
 21
330.7278464759997
 31
0.0
  0
LINE
  5
5370
330
1F
100
AcDbEntity
  8
0
100
AcDbLine
 10
356.1000499913822
 20
330.7278464759997
 30
0.0
 11
357.300049991382
 21
330.7278464759997
 31
0.0
  0
LINE
  5
5371
330
1F
100
AcDbEntity
  8
0
100
AcDbLine
 10
357.3000499913829
 20
325.7278464759997
 30
0.0
 11
357.3000499913829
 21
327.1278464759998
 31
0.0
  0
LINE
  5
5372
330
1F
100
AcDbEntity
  8
0
100
AcDbLine
 10
356.1000499913822
 20
325.7278464759997
 30
0.0
 11
357.300049991382
 21
325.7278464759997
 31
0.0
  0
ARC
  5
5373
330
1F
100
AcDbEntity
  8
0
100
AcDbCircle
 10
355.6000499913822
 20
327.1278464759998
 30
0.0
 40
0.5
100
AcDbArc
 50
0.0
 51
90.00000000000003
  0
LINE
  5
5374
330
1F
100
AcDbEntity
  8
0
100
AcDbLine
 10
354.2000499913826
 20
327.6278464759998
 30
0.0
 11
355.6000499913822
 21
327.6278464759998
 31
0.0
  0
LINE
  5
5375
330
1F
100
AcDbEntity
  8
0
100
AcDbLine
 10
354.2000499913826
 20
327.6278464759998
 30
0.0
 11
354.2000499913826
 21
328.8278464759997
 31
0.0
  0
LINE
  5
5376
330
1F
100
AcDbEntity
  8
0
100
AcDbLine
 10
354.2000499913826
 20
328.8278464759997
 30
0.0
 11
355.6000499913822
 21
328.8278464759997
 31
0.0
  0
LINE
  5
5377
330
1F
100
AcDbEntity
  8
0
100
AcDbLine
 10
356.1000499913822
 20
325.7278464759997
 30
0.0
 11
356.1000499913822
 21
327.1278464759998
 31
0.0
  0
ARC
  5
5378
330
1F
100
AcDbEntity
  8
0
100
AcDbCircle
 10
355.6000499913822
 20
329.3278464759997
 30
0.0
 40
0.5
100
AcDbArc
 50
270.0
 51
0.0
  0
LINE
  5
5379
330
1F
100
AcDbEntity
  8
0
100
AcDbLine
 10
359.2000499913826
 20
327.6278464759998
 30
0.0
 11
359.2000499913826
 21
328.8278464759997
 31
0.0
  0
ARC
  5
537A
330
1F
100
AcDbEntity
  8
0
100
AcDbCircle
 10
357.800049991382
 20
327.1278464759998
 30
0.0
 40
0.5
100
AcDbArc
 50
90.00000000000003
 51
180.0
  0
LINE
  5
537B
330
1F
100
AcDbEntity
  8
0
100
AcDbLine
 10
357.800049991382
 20
328.8278464759997
 30
0.0
 11
359.2000499913826
 21
328.8278464759997
 31
0.0
  0
LINE
  5
537C
330
1F
100
AcDbEntity
  8
0
100
AcDbLine
 10
357.800049991382
 20
327.6278464759998
 30
0.0
 11
359.2000499913826
 21
327.6278464759998
 31
0.0
  0
ARC
  5
537D
330
1F
100
AcDbEntity
  8
0
100
AcDbCircle
 10
357.800049991382
 20
329.3278464759997
 30
0.0
 40
0.5
100
AcDbArc
 50
180.0
 51
270.0
  0
ARC
  5
537E
330
1F
100
AcDbEntity
  8
0
100
AcDbCircle
 10
356.7000499913826
 20
328.2278464759997
 30
0.0
 40
7.5
100
AcDbArc
 50
270.0
 51
0.0
  0
LINE
  5
537F
330
1F
100
AcDbEntity
  8
0
100
AcDbLine
 10
364.2000499913826
 20
328.2278464759993
 30
0.0
 11
364.2000499913826
 21
330.7278464759997
 31
0.0
  0
LINE
  5
5380
330
1F
100
AcDbEntity
  8
0
100
AcDbLine
 10
356.7000499913826
 20
320.7278464759998
 30
0.0
 11
354.2000499913826
 21
320.7278464759993
 31
0.0
  0
ARC
  5
5381
330
1F
100
AcDbEntity
  8
0
100
AcDbCircle
 10
356.7000499913826
 20
296.3278464760001
 30
0.0
 40
0.5
100
AcDbArc
 50
180.0
 51
270.0
  0
ARC
  5
5382
330
1F
100
AcDbEntity
  8
0
100
AcDbCircle
 10
370.1468907093091
 20
296.8278464760001
 30
0.0
 40
1.0
100
AcDbArc
 50
270.0
 51
314.1604804299595
  0
LINE
  5
5383
330
1F
100
AcDbEntity
  8
0
100
AcDbLine
 10
338.3004270213852
 20
295.8278464760003
 30
0.0
 11
354.2000499913826
 21
295.8278464760001
 31
0.0
  0
ARC
  5
5384
330
1F
100
AcDbEntity
  8
0
100
AcDbCircle
 10
331.3000444213027
 20
321.1278464760003
 30
0.0
 40
0.5
100
AcDbArc
 50
270.0
 51
0.0
  0
LINE
  5
5386
330
1F
100
AcDbEntity
  8
0
100
AcDbLine
 10
419.600175887737
 20
347.7278464760002
 30
0.0
 11
419.600175887737
 21
336.7278464759995
 31
0.0
  0
LINE
  5
5387
330
1F
100
AcDbEntity
  8
0
100
AcDbLine
 10
420.600175887737
 20
346.7278464760002
 30
0.0
 11
420.600175887737
 21
337.7278464759993
 31
0.0
  0
LINE
  5
5388
330
1F
100
AcDbEntity
  8
0
100
AcDbLine
 10
390.1000499913813
 20
348.7278464759997
 30
0.0
 11
390.1000499913813
 21
335.7278464759998
 31
0.0
  0
LINE
  5
5389
330
1F
100
AcDbEntity
  8
0
100
AcDbLine
 10
385.100175887737
 20
350.7278464759997
 30
0.0
 11
385.100175887737
 21
329.4270387427123
 31
0.0
  0
LINE
  5
538A
330
1F
100
AcDbEntity
  8
0
100
AcDbLine
 10
388.1000499913804
 20
355.8278464760001
 30
0.0
 11
388.1000499913813
 21
329.3278464760005
 31
0.0
  0
LINE
  5
538B
330
1F
100
AcDbEntity
  8
0
100
AcDbLine
 10
384.6001758877365
 20
350.2285385182549
 30
0.0
 11
384.600175887737
 21
330.7278464759997
 31
0.0
  0
LINE
  5
538C
330
1F
100
AcDbEntity
  8
0
100
AcDbLine
 10
420.600175887737
 20
346.7278464760002
 30
0.0
 11
419.600175887737
 21
347.7278464760002
 31
0.0
  0
LINE
  5
538D
330
1F
100
AcDbEntity
  8
0
100
AcDbLine
 10
390.1000499913813
 20
347.7278464759998
 30
0.0
 11
419.600175887737
 21
347.7278464760002
 31
0.0
  0
LINE
  5
538E
330
1F
100
AcDbEntity
  8
0
100
AcDbLine
 10
388.1000499913804
 20
354.3273554590101
 30
0.0
 11
388.1000499913804
 21
360.3278464760001
 31
0.0
  0
ARC
  5
538F
330
1F
100
AcDbEntity
  8
0
100
AcDbCircle
 10
384.600175887737
 20
350.7278464759997
 30
0.0
 40
0.5
100
AcDbArc
 50
0.0
 51
90.00000000000003
  0
ARC
  5
5390
330
1F
100
AcDbEntity
  8
0
100
AcDbCircle
 10
384.1001758877366
 20
350.2285385182549
 30
0.0
 40
0.5
100
AcDbArc
 50
0.0
 51
90.00000000000003
  0
LINE
  5
5391
330
1F
100
AcDbEntity
  8
0
100
AcDbLine
 10
388.1000499913804
 20
348.7278464760002
 30
0.0
 11
390.1000499913813
 21
348.7278464759997
 31
0.0
  0
LINE
  5
5392
330
1F
100
AcDbEntity
  8
0
100
AcDbLine
 10
419.600175887737
 20
336.7278464759993
 30
0.0
 11
420.600175887737
 21
337.7278464759993
 31
0.0
  0
LINE
  5
5393
330
1F
100
AcDbEntity
  8
0
100
AcDbLine
 10
390.1000499913813
 20
336.7278464759997
 30
0.0
 11
419.600175887737
 21
336.7278464759993
 31
0.0
  0
ARC
  5
5394
330
1F
100
AcDbEntity
  8
0
100
AcDbCircle
 10
384.600175887737
 20
333.7278464759998
 30
0.0
 40
0.5
100
AcDbArc
 50
270.0
 51
0.0
  0
ARC
  5
5395
330
1F
100
AcDbEntity
  8
0
100
AcDbCircle
 10
384.600175887737
 20
330.2278464759997
 30
0.0
 40
0.5
100
AcDbArc
 50
0.0
 51
90.00000000000003
  0
LINE
  5
5396
330
1F
100
AcDbEntity
  8
0
100
AcDbLine
 10
384.6001758877379
 20
334.2278464759993
 30
0.0
 11
385.1001758877379
 21
334.2278464759997
 31
0.0
  0
LINE
  5
5397
330
1F
100
AcDbEntity
  8
0
100
AcDbLine
 10
388.1000499913813
 20
335.7278464759998
 30
0.0
 11
390.1000499913813
 21
335.7278464759998
 31
0.0
  0
LINE
  5
5398
330
1F
100
AcDbEntity
  8
0
100
AcDbLine
 10
318.6000499913822
 20
282.8278464760001
 30
0.0
 11
340.1000499913822
 21
282.8278464760001
 31
0.0
  0
LINE
  5
5399
330
1F
100
AcDbEntity
  8
0
100
AcDbLine
 10
311.5995686342736
 20
279.8278464760001
 30
0.0
 11
338.1000499913813
 21
279.8278464760001
 31
0.0
  0
LINE
  5
539A
330
1F
100
AcDbEntity
  8
0
100
AcDbLine
 10
318.6000499913813
 20
290.8280832089226
 30
0.0
 11
340.1000499913822
 21
290.8280832089226
 31
0.0
  0
ARC
  5
539B
330
1F
100
AcDbEntity
  8
0
100
AcDbCircle
 10
311.5995686342736
 20
289.8278464760001
 30
0.0
 40
10.0
100
AcDbArc
 50
180.0
 51
270.0
  0
LINE
  5
539C
330
1F
100
AcDbEntity
  8
0
100
AcDbLine
 10
316.4000499913815
 20
289.8278464760001
 30
0.0
 11
306.8000499913811
 21
289.8278464760001
 31
0.0
  0
LINE
  5
539D
330
1F
100
AcDbEntity
  8
T
100
AcDbLine
 10
316.4000499913815
 20
289.8278464760001
 30
0.0
 11
306.8000499913811
 21
289.8278464760001
 31
0.0
  0
LINE
  5
539E
330
1F
100
AcDbEntity
  8
0
100
AcDbLine
 10
311.6000499913822
 20
284.9464818331812
 30
0.0
 11
311.6000499913822
 21
294.3121111331602
 31
0.0
  0
LINE
  5
539F
330
1F
100
AcDbEntity
  8
0
100
AcDbLine
 10
311.6000499913822
 20
294.1278464760003
 30
0.0
 11
311.6000499913822
 21
284.5278464759999
 31
0.0
  0
LINE
  5
53A0
330
1F
100
AcDbEntity
  8
T
100
AcDbLine
 10
311.6000499913822
 20
294.1278464760003
 30
0.0
 11
311.6000499913822
 21
284.5278464759999
 31
0.0
  0
CIRCLE
  5
53A1
330
1F
100
AcDbEntity
  8
0
100
AcDbCircle
 10
311.6000499913822
 20
289.8278464760001
 30
0.0
 40
4.0
  0
CIRCLE
  5
53A2
330
1F
100
AcDbEntity
  8
0
100
AcDbCircle
 10
311.6000499913822
 20
289.8278464760001
 30
0.0
 40
3.625
  0
LINE
  5
53A3
330
1F
100
AcDbEntity
  8
0
100
AcDbLine
 10
351.9000499913815
 20
289.8278464760001
 30
0.0
 11
342.3000499913811
 21
289.8278464760001
 31
0.0
  0
LINE
  5
53A4
330
1F
100
AcDbEntity
  8
T
100
AcDbLine
 10
352.5000499913819
 20
289.8278464760001
 30
0.0
 11
341.7000499913817
 21
289.8278464760001
 31
0.0
  0
LINE
  5
53A5
330
1F
100
AcDbEntity
  8
0
100
AcDbLine
 10
347.1000499913822
 20
294.7278464760002
 30
0.0
 11
347.1000499913822
 21
283.927846476
 31
0.0
  0
LINE
  5
53A6
330
1F
100
AcDbEntity
  8
0
100
AcDbLine
 10
347.1000499913822
 20
283.595060060366
 30
0.0
 11
347.1000499913822
 21
294.1526812024171
 31
0.0
  0
LINE
  5
53A7
330
1F
100
AcDbEntity
  8
T
100
AcDbLine
 10
347.1000499913822
 20
294.1278464760003
 30
0.0
 11
347.1000499913822
 21
284.5278464759999
 31
0.0
  0
CIRCLE
  5
53A8
330
1F
100
AcDbEntity
  8
0
100
AcDbCircle
 10
347.1000499913822
 20
289.8278464760001
 30
0.0
 40
4.0
  0
CIRCLE
  5
53A9
330
1F
100
AcDbEntity
  8
0
100
AcDbCircle
 10
347.1000499913822
 20
289.8278464760001
 30
0.0
 40
3.625
  0
INSERT
  5
5A87
330
1F
100
AcDbEntity
  8
0
100
AcDbBlockReference
  2
SUG-AR01
 10
378.4510939993906
 20
56.99052297773744
 30
0.0
 41
0.4999999999999946
 42
0.5
 43
0.5
 50
246.8158405399963
  0
LWPOLYLINE
  5
5A88
330
1F
100
AcDbEntity
  8
0
100
AcDbPolyline
 90
        3
 70
     0
 43
0.0
 10
380.0258451257072
 20
60.66749984605803
 10
367.138263275408
 20
30.57554464106113
 10
388.6836271911327
 20
30.57554464106113
  0
TEXT
  5
5A89
330
1F
100
AcDbEntity
  8
0
100
AcDbText
 10
371.8042135702191
 20
31.39281529826803
 30
0.0
 40
3.0
  1
4-Ó10
  7
SIMPLEX
 72
     2
 11
386.2613564273619
 21
31.39281529826803
 31
0.0
100
AcDbText
  0
INSERT
  5
5A8A
330
1F
100
AcDbEntity
  8
0
100
AcDbBlockReference
  2
SUG-AR01
 10
395.3605728802567
 20
60.66749984605803
 30
0.0
 41
0.5
 42
0.5
 43
0.5
 50
90.0
  0
LINE
  5
5A8B
330
1F
100
AcDbEntity
  8
0
100
AcDbLine
 10
395.3605728802567
 20
96.16749984605803
 30
0.0
 11
395.3605728802567
 21
60.66749984605803
 31
0.0
  0
LINE
  5
5A8C
330
1F
100
AcDbEntity
  8
0
100
AcDbLine
 10
385.5258451257072
 20
60.66749984605803
 30
0.0
 11
396.3605728802567
 21
60.66749984605803
 31
0.0
  0
INSERT
  5
5A8D
330
1F
100
AcDbEntity
  8
0
100
AcDbBlockReference
  2
SUG-AR01
 10
395.3605728802567
 20
96.16749984605803
 30
0.0
 41
0.5
 42
0.5
 43
0.5
 50
270.0
  0
LINE
  5
5A8E
330
1F
100
AcDbEntity
  8
0
100
AcDbLine
 10
386.3258451257074
 20
96.16749984605803
 30
0.0
 11
396.3605728802567
 21
96.16749984605803
 31
0.0
  0
TEXT
  5
5A8F
330
1F
100
AcDbEntity
  8
0
100
AcDbText
 10
394.4605728802566
 20
73.84607127462946
 30
0.0
 40
3.0
  1
35.5
 50
90.0
  7
SIMPLEX
 72
     1
 11
394.4605728802566
 21
78.41749984605804
 31
0.0
100
AcDbText
  0
TEXT
  5
5A90
330
1F
100
AcDbEntity
  8
0
100
AcDbText
 10
295.4605728802567
 20
45.84607127463037
 30
0.0
 40
3.0
  1
35.5
 50
90.0
  7
SIMPLEX
 72
     1
 11
295.4605728802567
 21
50.41749984605894
 31
0.0
100
AcDbText
  0
LINE
  5
5A91
330
1F
100
AcDbEntity
  8
0
100
AcDbLine
 10
296.3605728802568
 20
68.16749984605895
 30
0.0
 11
296.3605728802568
 21
32.66749984605894
 31
0.0
  0
LINE
  5
5A92
330
1F
100
AcDbEntity
  8
0
100
AcDbLine
 10
303.0453541087168
 20
32.66749984605894
 30
0.0
 11
295.3605728802568
 21
32.66749984605894
 31
0.0
  0
INSERT
  5
5A93
330
1F
100
AcDbEntity
  8
0
100
AcDbBlockReference
  2
SUG-AR01
 10
296.3605728802568
 20
32.66749984605894
 30
0.0
 41
0.5
 42
0.5
 43
0.5
 50
90.0
  0
LINE
  5
5A94
330
1F
100
AcDbEntity
  8
0
100
AcDbLine
 10
303.2253541087166
 20
68.16749984605895
 30
0.0
 11
295.3605728802568
 21
68.16749984605895
 31
0.0
  0
INSERT
  5
5A95
330
1F
100
AcDbEntity
  8
0
100
AcDbBlockReference
  2
SUG-AR01
 10
296.3605728802568
 20
68.16749984605895
 30
0.0
 41
0.5
 42
0.5
 43
0.5
 50
270.0
  0
INSERT
  5
5A96
330
1F
100
AcDbEntity
  8
0
100
AcDbBlockReference
  2
SUG-AR01
 10
309.5253541087168
 20
111.1398898752554
 30
0.0
 41
-0.5
 42
0.5
 43
0.5
 50
180.0
  0
TEXT
  5
5A97
330
1F
100
AcDbEntity
  8
0
100
AcDbText
 10
340.2041710457836
 20
112.0398898752554
 30
0.0
 40
3.0
  1
70.5
  7
SIMPLEX
 72
     1
 11
344.7755996172122
 21
112.0398898752554
 31
0.0
100
AcDbText
  0
LINE
  5
5A98
330
1F
100
AcDbEntity
  8
0
100
AcDbLine
 10
309.5253541087168
 20
73.56749984605858
 30
0.0
 11
309.5253541087168
 21
62.7674998460584
 31
0.0
  0
CIRCLE
  5
5A99
330
1F
100
AcDbEntity
  8
0
100
AcDbCircle
 10
309.5253541087168
 20
68.16749984605895
 30
0.0
 40
4.0
  0
LINE
  5
5A9A
330
1F
100
AcDbEntity
  8
0
100
AcDbLine
 10
314.3253541087165
 20
68.16749984605895
 30
0.0
 11
304.7253541087166
 21
68.16749984605895
 31
0.0
  0
LINE
  5
5A9F
330
1F
100
AcDbEntity
  8
0
100
AcDbLine
 10
312.8253541087165
 20
68.16749984605895
 30
0.0
 11
346.1985430272043
 21
68.16749984605883
 31
0.0
  0
LINE
  5
5AA0
330
1F
100
AcDbEntity
  8
0
100
AcDbLine
 10
314.325354108717
 20
32.66749984605894
 30
0.0
 11
304.7253541087166
 21
32.66749984605894
 31
0.0
  0
TEXT
  5
5AA1
330
1F
100
AcDbEntity
  8
0
100
AcDbText
 10
331.4870922923867
 20
29.25623260615942
 30
0.0
 40
3.0
  1
%%UætQl¡@
  7
SIMPLEX
100
AcDbText
  0
LINE
  5
5AA2
330
1F
100
AcDbEntity
  8
0
100
AcDbLine
 10
309.5253541087168
 20
37.46749984605913
 30
0.0
 11
309.5253541087168
 21
27.86749984605876
 31
0.0
  0
CIRCLE
  5
5AA3
330
1F
100
AcDbEntity
  8
0
100
AcDbCircle
 10
309.5253541087168
 20
32.66749984605894
 30
0.0
 40
4.0
  0
LINE
  5
5AA4
330
1F
100
AcDbEntity
  8
0
100
AcDbLine
 10
309.5253541087168
 20
75.06749984605858
 30
0.0
 11
309.5253541087168
 21
112.1398898752554
 31
0.0
  0
LINE
  5
5AA5
330
1F
100
AcDbEntity
  8
0
100
AcDbLine
 10
380.0258451257072
 20
101.5674998460576
 30
0.0
 11
380.0258451257072
 21
90.76749984605749
 31
0.0
  0
INSERT
  5
5AA6
330
1F
100
AcDbEntity
  8
0
100
AcDbBlockReference
  2
SUG-AR01
 10
380.0258451257072
 20
111.1398898752554
 30
0.0
 41
-0.5
 42
0.5
 43
0.5
  0
LINE
  5
5AA7
330
1F
100
AcDbEntity
  8
0
100
AcDbLine
 10
384.8258451257074
 20
96.16749984605803
 30
0.0
 11
375.2258451257071
 21
96.16749984605803
 31
0.0
  0
CIRCLE
  5
5AA8
330
1F
100
AcDbEntity
  8
0
100
AcDbCircle
 10
380.0258451257072
 20
96.16749984605803
 30
0.0
 40
4.0
  0
LINE
  5
5AA9
330
1F
100
AcDbEntity
  8
0
100
AcDbLine
 10
380.0258451257072
 20
103.0674998460576
 30
0.0
 11
380.0258451257072
 21
112.1398898752554
 31
0.0
  0
LINE
  5
5AAA
330
1F
100
AcDbEntity
  8
0
100
AcDbLine
 10
380.0258451257072
 20
50.82947226292208
 30
0.0
 11
380.0258451257072
 21
70.79597611909275
 31
0.0
  0
LINE
  5
5AAB
330
1F
100
AcDbEntity
  8
0
100
AcDbLine
 10
385.0058451257073
 20
60.66749984605803
 30
0.0
 11
375.0458451257072
 21
60.66749984605803
 31
0.0
  0
CIRCLE
  5
5AAC
330
1F
100
AcDbEntity
  8
0
100
AcDbCircle
 10
380.0258451257072
 20
60.66749984605803
 30
0.0
 40
4.0
  0
LINE
  5
5AAD
330
1F
100
AcDbEntity
  8
0
100
AcDbLine
 10
380.0258451257072
 20
111.1398898752554
 30
0.0
 11
309.5253541087168
 21
111.1398898752554
 31
0.0
  0
LINE
  5
5AAE
330
1F
100
AcDbEntity
  8
0
100
AcDbLine
 10
373.5458451257072
 20
60.66749984605803
 30
0.0
 11
344.1906263541672
 21
60.66749984605803
 31
0.0
  0
INSERT
  5
5AB3
330
1F
100
AcDbEntity
  8
0
100
AcDbBlockReference
  2
SUG-AR01
 10
345.1906263541673
 20
68.16749984605895
 30
0.0
 41
0.5
 42
0.5
 43
0.5
 50
90.0
  0
LINE
  5
5AB4
330
1F
100
AcDbEntity
  8
0
100
AcDbLine
 10
345.1906263541673
 20
53.66749984605803
 30
0.0
 11
345.1906263541673
 21
73.9398898752554
 31
0.0
  0
TEXT
  5
5AB5
330
1F
100
AcDbEntity
  8
0
100
AcDbText
 10
344.2906263541672
 20
61.05448503509895
 30
0.0
 40
3.0
  1
7.5
 50
90.0
  7
SIMPLEX
 72
     1
 11
344.2906263541672
 21
64.1973421779561
 31
0.0
100
AcDbText
  0
INSERT
  5
5AB6
330
1F
100
AcDbEntity
  8
0
100
AcDbBlockReference
  2
SUG-AR01
 10
345.1906263541673
 20
60.66749984605803
 30
0.0
 41
0.5
 42
0.5
 43
0.5
 50
270.0
  0
ENDSEC
  0
SECTION
  2
OBJECTS
  0
DICTIONARY
  5
C
330
0
100
AcDbDictionary
281
     1
  3
ACAD_COLOR
350
73
  3
ACAD_GROUP
350
D
  3
ACAD_LAYOUT
350
1A
  3
ACAD_MATERIAL
350
72
  3
ACAD_MLINESTYLE
350
17
  3
ACAD_PLOTSETTINGS
350
19
  3
ACAD_PLOTSTYLENAME
350
E
  3
ACDBHEADERROUNDTRIPXREC
350
5ADB
  3
AcDbVariableDictionary
350
66
  0
DICTIONARY
  5
9F
330
2
100
AcDbDictionary
280
     1
281
     1
  3
ACAD_LAYERFILTERS
360
AC
  3
ACAD_LAYERSTATES
360
A0
  0
DICTIONARY
  5
73
102
{ACAD_REACTORS
330
C
102
}
330
C
100
AcDbDictionary
281
     1
  0
DICTIONARY
  5
D
102
{ACAD_REACTORS
330
C
102
}
330
C
100
AcDbDictionary
281
     1
  0
DICTIONARY
  5
1A
102
{ACAD_REACTORS
330
C
102
}
330
C
100
AcDbDictionary
281
     1
  3
Model
350
22
  3
CAEg1
350
59
  0
DICTIONARY
  5
72
102
{ACAD_REACTORS
330
C
102
}
330
C
100
AcDbDictionary
281
     1
  0
DICTIONARY
  5
17
102
{ACAD_REACTORS
330
C
102
}
330
C
100
AcDbDictionary
281
     1
  3
Standard
350
18
  0
DICTIONARY
  5
19
102
{ACAD_REACTORS
330
C
102
}
330
C
100
AcDbDictionary
281
     1
  0
ACDBDICTIONARYWDFLT
  5
E
102
{ACAD_REACTORS
330
C
102
}
330
C
100
AcDbDictionary
281
     1
  3
Normal
350
F
100
AcDbDictionaryWithDefault
340
F
  0
DICTIONARY
  5
5ADB
102
{ACAD_REACTORS
330
C
102
}
330
C
100
AcDbDictionary
281
     1
  3
COLORDICT
350
5ADD
  3
MATERIALDICT
350
5ADC
  0
DICTIONARY
  5
66
102
{ACAD_REACTORS
330
C
102
}
330
C
100
AcDbDictionary
281
     1
  3
DIMASSOC
350
67
  3
HIDETEXT
350
6B
  3
PROJECTNAME
350
5AD9
  3
SORTENTS
350
5AD8
  0
DICTIONARY
  5
AC
102
{ACAD_REACTORS
330
9F
102
}
330
9F
100
AcDbDictionary
281
     1
  0
DICTIONARY
  5
A0
102
{ACAD_REACTORS
330
9F
102
}
330
9F
100
AcDbDictionary
281
     1
  3
OPNUS
350
A1
  0
LAYOUT
  5
22
102
{ACAD_XDICTIONARY
360
5ADE
102
}
102
{ACAD_REACTORS
330
1A
102
}
330
1A
100
AcDbPlotSettings
  1

  2
Adobe PDF
  4
A4
  6

 40
3.174999952316284
 41
3.174999952316284
 42
3.175003051757812
 43
3.17498779296875
 44
209.9098358154297
 45
297.0318298339844
 46
0.0
 47
0.9599999999999999
 48
0.0399225298519923
 49
0.014494249079803
140
563.607074515849
141
397.2965530953281
142
1.0
143
1.951672161248139
 70
 11956
 72
     1
 73
     1
 74
     4
  7
monochrome.ctb
 75
     0
147
0.5123811364714435
148
-0.0399225298519923
149
-0.014494249079803
100
AcDbLayout
  1
Model
 70
     1
 71
     0
 10
0.0
 20
0.0
 11
12.0
 21
9.0
 12
0.0
 22
0.0
 32
0.0
 14
0.0
 24
0.0
 34
0.0
 15
0.0
 25
0.0
 35
0.0
146
0.0
 13
0.0
 23
0.0
 33
0.0
 16
1.0
 26
0.0
 36
0.0
 17
0.0
 27
1.0
 37
0.0
 76
     0
330
1F
  0
LAYOUT
  5
59
102
{ACAD_XDICTIONARY
360
5AE0
102
}
102
{ACAD_REACTORS
330
1A
102
}
330
1A
100
AcDbPlotSettings
  1

  2
None
  4

  6

 40
0.0
 41
0.0
 42
0.0
 43
0.0
 44
0.0
 45
0.0
 46
0.0
 47
0.0
 48
0.0
 49
0.0
140
0.0
141
0.0
142
1.0
143
1.0
 70
   688
 72
     0
 73
     0
 74
     5
  7
monochrome.ctb
 75
    16
147
1.0
148
0.0
149
0.0
100
AcDbLayout
  1
CAEg1
 70
     1
 71
     1
 10
0.0
 20
0.0
 11
12.0
 21
9.0
 12
0.0
 22
0.0
 32
0.0
 14
0.0
 24
0.0
 34
0.0
 15
0.0
 25
0.0
 35
0.0
146
0.0
 13
0.0
 23
0.0
 33
0.0
 16
1.0
 26
0.0
 36
0.0
 17
0.0
 27
1.0
 37
0.0
 76
     0
330
58
  0
MLINESTYLE
  5
18
102
{ACAD_REACTORS
330
17
102
}
330
17
100
AcDbMlineStyle
  2
STANDARD
 70
     0
  3

 62
   256
 51
90.0
 52
90.0
 71
     2
 49
0.5
 62
   256
  6
BYLAYER
 49
-0.5
 62
   256
  6
BYLAYER
  0
ACDBPLACEHOLDER
  5
F
102
{ACAD_REACTORS
330
E
102
}
330
E
  0
XRECORD
  5
5ADD
102
{ACAD_REACTORS
330
5ADB
102
}
330
5ADB
100
AcDbXrecord
280
     1
340
73
  0
XRECORD
  5
5ADC
102
{ACAD_REACTORS
330
5ADB
102
}
330
5ADB
100
AcDbXrecord
280
     1
340
72
  0
DICTIONARYVAR
  5
67
102
{ACAD_REACTORS
330
66
102
}
330
66
100
DictionaryVariables
280
     0
  1
2
  0
DICTIONARYVAR
  5
6B
102
{ACAD_REACTORS
330
66
102
}
330
66
100
DictionaryVariables
280
     0
  1
1
  0
DICTIONARYVAR
  5
5AD9
102
{ACAD_REACTORS
330
66
102
}
330
66
100
DictionaryVariables
280
     0
  1

  0
DICTIONARYVAR
  5
5AD8
102
{ACAD_REACTORS
330
66
102
}
330
66
100
DictionaryVariables
280
     0
  1
97
  0
XRECORD
  5
A1
102
{ACAD_REACTORS
330
A0
102
}
330
A0
100
AcDbXrecord
280
     1
 91
       16
330
95
 90
        8
 62
     7
370
    15
331
16
  1
F_7
330
94
 90
        8
 62
     6
370
    15
331
16
  1
F_6
330
93
 90
        8
 62
     5
370
    15
331
16
  1
F_5
330
92
 90
        8
 62
     4
370
    30
331
16
  1
F_4
330
91
 90
        8
 62
     3
370
    30
331
16
  1
F_3
330
90
 90
        8
 62
     2
370
    30
331
16
  1
F_2
330
8F
 90
        8
 62
     1
370
    30
331
16
  1
F_1
330
10
 90
        8
 62
     7
370
    30
331
16
  1
F_7
  0
DICTIONARY
  5
5ADE
330
22
100
AcDbDictionary
280
     1
281
     1
  3
ACAD_XREC_ROUNDTRIP
360
5ADF
  0
DICTIONARY
  5
5AE0
330
59
100
AcDbDictionary
280
     1
281
     1
  3
ACAD_XREC_ROUNDTRIP
360
5AE1
  0
XRECORD
  5
5ADF
102
{ACAD_REACTORS
330
5ADE
102
}
330
5ADE
100
AcDbXrecord
280
     1
102
SHADEPLOT
 70
     0
102
SHADEPLOTRESLEVEL
 70
     2
102
SHADEPLOTCUSTOMDPI
 70
   300
  0
XRECORD
  5
5AE1
102
{ACAD_REACTORS
330
5AE0
102
}
330
5AE0
100
AcDbXrecord
280
     1
102
SHADEPLOT
 70
     0
102
SHADEPLOTRESLEVEL
 70
     2
102
SHADEPLOTCUSTOMDPI
 70
   300
  0
ENDSEC
  0
EOF
