  0
SECTION
  2
HEADER
  9
$ACADVER
  1
AC1015
  9
$ACADMAINTVER
 70
    20
  9
$DWGCODEPAGE
  3
ANSI_932
  9
$INSBASE
 10
1854.688301466919
 20
754.517472832726
 30
0.0
  9
$EXTMIN
 10
1826.924199138028
 20
738.6343226606586
 30
-0.0015258207003583
  9
$EXTMAX
 10
2447.478097586598
 20
1176.858114503181
 30
0.0000000349246037
  9
$LIMMIN
 10
0.0
 20
0.0
  9
$LIMMAX
 10
12.0
 20
9.0
  9
$ORTHOMODE
 70
     0
  9
$REGENMODE
 70
     0
  9
$FILLMODE
 70
     1
  9
$QTEXTMODE
 70
     0
  9
$MIRRTEXT
 70
     1
  9
$LTSCALE
 40
1.0
  9
$ATTMODE
 70
     1
  9
$TEXTSIZE
 40
4.0
  9
$TRACEWID
 40
0.05
  9
$TEXTSTYLE
  7
SIMPLEX
  9
$CLAYER
  8
4
  9
$CELTYPE
  6
ByLayer
  9
$CECOLOR
 62
   256
  9
$CELTSCALE
 40
1.0
  9
$DISPSILH
 70
     0
  9
$DIMSCALE
 40
1.0
  9
$DIMASZ
 40
0.18
  9
$DIMEXO
 40
0.0625
  9
$DIMDLI
 40
0.3799999999999999
  9
$DIMRND
 40
0.0
  9
$DIMDLE
 40
0.0
  9
$DIMEXE
 40
0.18
  9
$DIMTP
 40
0.0
  9
$DIMTM
 40
0.0
  9
$DIMTXT
 40
0.18
  9
$DIMCEN
 40
0.09
  9
$DIMTSZ
 40
0.0
  9
$DIMTOL
 70
     0
  9
$DIMLIM
 70
     0
  9
$DIMTIH
 70
     1
  9
$DIMTOH
 70
     1
  9
$DIMSE1
 70
     0
  9
$DIMSE2
 70
     0
  9
$DIMTAD
 70
     0
  9
$DIMZIN
 70
     0
  9
$DIMBLK
  1

  9
$DIMASO
 70
     1
  9
$DIMSHO
 70
     0
  9
$DIMPOST
  1

  9
$DIMAPOST
  1

  9
$DIMALT
 70
     0
  9
$DIMALTD
 70
     2
  9
$DIMALTF
 40
25.4
  9
$DIMLFAC
 40
1.0
  9
$DIMTOFL
 70
     0
  9
$DIMTVP
 40
0.0
  9
$DIMTIX
 70
     0
  9
$DIMSOXD
 70
     0
  9
$DIMSAH
 70
     0
  9
$DIMBLK1
  1

  9
$DIMBLK2
  1

  9
$DIMSTYLE
  2
Standard
  9
$DIMCLRD
 70
     0
  9
$DIMCLRE
 70
     0
  9
$DIMCLRT
 70
     0
  9
$DIMTFAC
 40
1.0
  9
$DIMGAP
 40
0.09
  9
$DIMJUST
 70
     0
  9
$DIMSD1
 70
     0
  9
$DIMSD2
 70
     0
  9
$DIMTOLJ
 70
     1
  9
$DIMTZIN
 70
     0
  9
$DIMALTZ
 70
     0
  9
$DIMALTTZ
 70
     0
  9
$DIMUPT
 70
     0
  9
$DIMDEC
 70
     3
  9
$DIMTDEC
 70
     3
  9
$DIMALTU
 70
     2
  9
$DIMALTTD
 70
     2
  9
$DIMTXSTY
  7
STANDARD
  9
$DIMAUNIT
 70
     0
  9
$DIMADEC
 70
     0
  9
$DIMALTRND
 40
0.0
  9
$DIMAZIN
 70
     0
  9
$DIMDSEP
 70
    46
  9
$DIMATFIT
 70
     3
  9
$DIMFRAC
 70
     0
  9
$DIMLDRBLK
  1

  9
$DIMLUNIT
 70
     2
  9
$DIMLWD
 70
    -2
  9
$DIMLWE
 70
    -2
  9
$DIMTMOVE
 70
     2
  9
$LUNITS
 70
     2
  9
$LUPREC
 70
     3
  9
$SKETCHINC
 40
0.1
  9
$FILLETRAD
 40
0.5
  9
$AUNITS
 70
     0
  9
$AUPREC
 70
     3
  9
$MENU
  1
Z:SANPOU-1
  9
$ELEVATION
 40
0.0
  9
$PELEVATION
 40
0.0
  9
$THICKNESS
 40
0.0
  9
$LIMCHECK
 70
     0
  9
$CHAMFERA
 40
0.0
  9
$CHAMFERB
 40
0.0
  9
$CHAMFERC
 40
0.0
  9
$CHAMFERD
 40
0.0
  9
$SKPOLY
 70
     0
  9
$TDCREATE
 40
2452957.371122685
  9
$TDUCREATE
 40
2452956.996122686
  9
$TDUPDATE
 40
2455140.661147095
  9
$TDUUPDATE
 40
2455140.286147095
  9
$TDINDWG
 40
0.0099265741
  9
$TDUSRTIMER
 40
0.0099265741
  9
$USRTIMER
 70
     1
  9
$ANGBASE
 50
0.0
  9
$ANGDIR
 70
     0
  9
$PDMODE
 70
     0
  9
$PDSIZE
 40
0.0
  9
$PLINEWID
 40
0.0
  9
$SPLFRAME
 70
     0
  9
$SPLINETYPE
 70
     6
  9
$SPLINESEGS
 70
     8
  9
$HANDSEED
  5
99E
  9
$SURFTAB1
 70
     6
  9
$SURFTAB2
 70
     6
  9
$SURFTYPE
 70
     6
  9
$SURFU
 70
     6
  9
$SURFV
 70
     6
  9
$UCSBASE
  2

  9
$UCSNAME
  2

  9
$UCSORG
 10
0.0
 20
0.0
 30
0.0
  9
$UCSXDIR
 10
1.0
 20
0.0
 30
0.0
  9
$UCSYDIR
 10
0.0
 20
1.0
 30
0.0
  9
$UCSORTHOREF
  2

  9
$UCSORTHOVIEW
 70
     0
  9
$UCSORGTOP
 10
0.0
 20
0.0
 30
0.0
  9
$UCSORGBOTTOM
 10
0.0
 20
0.0
 30
0.0
  9
$UCSORGLEFT
 10
0.0
 20
0.0
 30
0.0
  9
$UCSORGRIGHT
 10
0.0
 20
0.0
 30
0.0
  9
$UCSORGFRONT
 10
0.0
 20
0.0
 30
0.0
  9
$UCSORGBACK
 10
0.0
 20
0.0
 30
0.0
  9
$PUCSBASE
  2

  9
$PUCSNAME
  2

  9
$PUCSORG
 10
0.0
 20
0.0
 30
0.0
  9
$PUCSXDIR
 10
1.0
 20
0.0
 30
0.0
  9
$PUCSYDIR
 10
0.0
 20
1.0
 30
0.0
  9
$PUCSORTHOREF
  2

  9
$PUCSORTHOVIEW
 70
     0
  9
$PUCSORGTOP
 10
0.0
 20
0.0
 30
0.0
  9
$PUCSORGBOTTOM
 10
0.0
 20
0.0
 30
0.0
  9
$PUCSORGLEFT
 10
0.0
 20
0.0
 30
0.0
  9
$PUCSORGRIGHT
 10
0.0
 20
0.0
 30
0.0
  9
$PUCSORGFRONT
 10
0.0
 20
0.0
 30
0.0
  9
$PUCSORGBACK
 10
0.0
 20
0.0
 30
0.0
  9
$USERI1
 70
     0
  9
$USERI2
 70
     0
  9
$USERI3
 70
     0
  9
$USERI4
 70
     0
  9
$USERI5
 70
     0
  9
$USERR1
 40
1.0
  9
$USERR2
 40
0.0
  9
$USERR3
 40
0.0
  9
$USERR4
 40
0.0
  9
$USERR5
 40
0.0
  9
$WORLDVIEW
 70
     1
  9
$SHADEDGE
 70
     3
  9
$SHADEDIF
 70
    70
  9
$TILEMODE
 70
     1
  9
$MAXACTVP
 70
    16
  9
$PINSBASE
 10
685.634816542931
 20
50.00000000000001
 30
1800.992778214582
  9
$PLIMCHECK
 70
     0
  9
$PEXTMIN
 10
1.000000000000000E+20
 20
1.000000000000000E+20
 30
1.000000000000000E+20
  9
$PEXTMAX
 10
-1.000000000000000E+20
 20
-1.000000000000000E+20
 30
-1.000000000000000E+20
  9
$PLIMMIN
 10
0.0
 20
0.0
  9
$PLIMMAX
 10
12.0
 20
9.0
  9
$UNITMODE
 70
     0
  9
$VISRETAIN
 70
     0
  9
$PLINEGEN
 70
     0
  9
$PSLTSCALE
 70
     0
  9
$TREEDEPTH
 70
  3020
  9
$CMLSTYLE
  2
Standard
  9
$CMLJUST
 70
     0
  9
$CMLSCALE
 40
1.0
  9
$PROXYGRAPHICS
 70
     1
  9
$MEASUREMENT
 70
     0
  9
$CELWEIGHT
370
    -1
  9
$ENDCAPS
280
     0
  9
$JOINSTYLE
280
     0
  9
$LWDISPLAY
290
     0
  9
$INSUNITS
 70
     0
  9
$HYPERLINKBASE
  1

  9
$STYLESHEET
  1

  9
$XEDIT
290
     1
  9
$CEPSNTYPE
380
     0
  9
$PSTYLEMODE
290
     1
  9
$FINGERPRINTGUID
  2
{5435CB23-2841-4D52-A7AE-BA35F88E61D5}
  9
$VERSIONGUID
  2
{1CD1A978-9719-4396-BC5F-E4F89265CA38}
  9
$EXTNAMES
290
     1
  9
$PSVPSCALE
 40
0.0
  9
$OLESTARTUP
290
     0
  0
ENDSEC
  0
SECTION
  2
CLASSES
  0
CLASS
  1
ACDBDICTIONARYWDFLT
  2
AcDbDictionaryWithDefault
  3
ObjectDBX Classes
 90
        0
280
     0
281
     0
  0
CLASS
  1
DICTIONARYVAR
  2
AcDbDictionaryVar
  3
ObjectDBX Classes
 90
        0
280
     0
281
     0
  0
CLASS
  1
ACDBPLACEHOLDER
  2
AcDbPlaceHolder
  3
ObjectDBX Classes
 90
        0
280
     0
281
     0
  0
CLASS
  1
LAYOUT
  2
AcDbLayout
  3
ObjectDBX Classes
 90
        0
280
     0
281
     0
  0
ENDSEC
  0
SECTION
  2
TABLES
  0
TABLE
  2
VPORT
  5
8
330
0
100
AcDbSymbolTable
 70
     3
  0
VPORT
  5
996
330
8
100
AcDbSymbolTableRecord
100
AcDbViewportTableRecord
  2
*Active
 70
     0
 10
0.0
 20
0.0
 11
1.0
 21
1.0
 12
2124.990735103011
 22
881.5032058419879
 13
0.0
 23
0.0
 14
0.3
 24
3.0
 15
0.0
 25
0.0
 16
0.0
 26
0.0
 36
1.0
 17
0.0
 27
0.0
 37
0.0
 40
908.6767675908076
 41
2.050420168067226
 42
50.0
 43
0.0
 44
0.0
 50
0.0
 51
0.0
 71
     0
 72
  2000
 73
     1
 74
     0
 75
     0
 76
     1
 77
     0
 78
     1
281
     0
 65
     1
110
0.0
120
0.0
130
0.0
111
1.0
121
0.0
131
0.0
112
0.0
122
1.0
132
0.0
 79
     0
146
0.0
  0
ENDTAB
  0
TABLE
  2
LTYPE
  5
5
330
0
100
AcDbSymbolTable
 70
     3
  0
LTYPE
  5
13
330
5
100
AcDbSymbolTableRecord
100
AcDbLinetypeTableRecord
  2
ByBlock
 70
     0
  3

 72
    65
 73
     0
 40
0.0
  0
LTYPE
  5
14
330
5
100
AcDbSymbolTableRecord
100
AcDbLinetypeTableRecord
  2
ByLayer
 70
     0
  3

 72
    65
 73
     0
 40
0.0
  0
LTYPE
  5
15
330
5
100
AcDbSymbolTableRecord
100
AcDbLinetypeTableRecord
  2
CONTINUOUS
 70
     0
  3
実線
 72
    65
 73
     0
 40
0.0
  0
LTYPE
  5
2B
330
5
100
AcDbSymbolTableRecord
100
AcDbLinetypeTableRecord
  2
C5
 70
     0
  3
―――――  ･  ―――――  ･  ―――――  ･  ―
 72
    65
 73
     4
 40
16.64
 49
12.8
 74
     0
 49
-1.28
 74
     0
 49
1.28
 74
     0
 49
-1.28
 74
     0
  0
LTYPE
  5
2C
330
5
100
AcDbSymbolTableRecord
100
AcDbLinetypeTableRecord
  2
H4
 70
     0
  3
――――　　――――　　――――　　――――　´P
 72
    65
 73
     2
 40
2.7
 49
1.6
 74
     0
 49
-1.1
 74
     0
  0
ENDTAB
  0
TABLE
  2
LAYER
  5
2
330
0
100
AcDbSymbolTable
 70
    11
  0
LAYER
  5
10
330
2
100
AcDbSymbolTableRecord
100
AcDbLayerTableRecord
  2
0
 70
     0
 62
     7
  6
CONTINUOUS
370
    -3
390
F
  0
LAYER
  5
30
330
2
100
AcDbSymbolTableRecord
100
AcDbLayerTableRecord
  2
T
 70
     0
 62
     5
  6
C5
370
    -3
390
F
  0
LAYER
  5
32
330
2
100
AcDbSymbolTableRecord
100
AcDbLayerTableRecord
  2
S
 70
     0
 62
     6
  6
CONTINUOUS
370
    -3
390
F
  0
LAYER
  5
33
330
2
100
AcDbSymbolTableRecord
100
AcDbLayerTableRecord
  2
4
 70
     0
 62
     4
  6
CONTINUOUS
370
    -3
390
F
  0
LAYER
  5
34
330
2
100
AcDbSymbolTableRecord
100
AcDbLayerTableRecord
  2
6
 70
     0
 62
     6
  6
CONTINUOUS
370
    -3
390
F
  0
LAYER
  5
35
330
2
100
AcDbSymbolTableRecord
100
AcDbLayerTableRecord
  2
2
 70
     0
 62
     2
  6
CONTINUOUS
370
    -3
390
F
  0
LAYER
  5
37
330
2
100
AcDbSymbolTableRecord
100
AcDbLayerTableRecord
  2
7
 70
     0
 62
     7
  6
CONTINUOUS
370
    -3
390
F
  0
ENDTAB
  0
TABLE
  2
STYLE
  5
3
330
0
100
AcDbSymbolTable
 70
     3
  0
STYLE
  5
11
330
3
100
AcDbSymbolTableRecord
100
AcDbTextStyleTableRecord
  2
STANDARD
 70
     0
 40
0.0
 41
1.0
 50
0.0
 71
     0
 42
1.5
  3
T:TXT
  4
T:SUG-BIG1
  0
STYLE
  5
29
330
3
100
AcDbSymbolTableRecord
100
AcDbTextStyleTableRecord
  2
SIMPLEX
 70
     0
 40
0.0
 41
1.0
 50
0.0
 71
     0
 42
4.0
  3
T:SIMPLEX
  4
T:SUG-BIG1
  0
ENDTAB
  0
TABLE
  2
VIEW
  5
6
330
0
100
AcDbSymbolTable
 70
     0
  0
ENDTAB
  0
TABLE
  2
UCS
  5
7
330
0
100
AcDbSymbolTable
 70
     0
  0
ENDTAB
  0
TABLE
  2
APPID
  5
9
330
0
100
AcDbSymbolTable
 70
     1
  0
APPID
  5
12
330
9
100
AcDbSymbolTableRecord
100
AcDbRegAppTableRecord
  2
ACAD
 70
     0
  0
ENDTAB
  0
TABLE
  2
DIMSTYLE
  5
A
330
0
100
AcDbSymbolTable
 70
     1
100
AcDbDimStyleTable
 71
     0
  0
DIMSTYLE
105
98F
330
A
100
AcDbSymbolTableRecord
100
AcDbDimStyleTableRecord
  2
Standard
 70
     0
340
11
  0
ENDTAB
  0
TABLE
  2
BLOCK_RECORD
  5
1
330
0
100
AcDbSymbolTable
 70
     5
  0
BLOCK_RECORD
  5
20
330
1
100
AcDbSymbolTableRecord
100
AcDbBlockTableRecord
  2
*Model_Space
340
23
  0
BLOCK_RECORD
  5
1C
330
1
100
AcDbSymbolTableRecord
100
AcDbBlockTableRecord
  2
*Paper_Space
340
1F
  0
BLOCK_RECORD
  5
24
330
1
100
AcDbSymbolTableRecord
100
AcDbBlockTableRecord
  2
SUG-AR01
340
0
102
{BLKREFS
331
296
331
299
331
29E
331
2A3
331
371
331
379
331
37C
331
380
331
39C
102
}
  0
BLOCK_RECORD
  5
26
330
1
100
AcDbSymbolTableRecord
100
AcDbBlockTableRecord
  2
*X2
340
0
102
{BLKREFS
331
5B2
102
}
  0
ENDTAB
  0
ENDSEC
  0
SECTION
  2
BLOCKS
  0
BLOCK
  5
3A
330
20
100
AcDbEntity
  8
0
100
AcDbBlockBegin
  2
*Model_Space
 70
     0
 10
0.0
 20
0.0
 30
0.0
  3
*Model_Space
  1

  0
ENDBLK
  5
3B
330
20
100
AcDbEntity
  8
0
100
AcDbBlockEnd
  0
BLOCK
  5
38
330
1C
100
AcDbEntity
 67
     1
  8
0
100
AcDbBlockBegin
  2
*Paper_Space
 70
     0
 10
0.0
 20
0.0
 30
0.0
  3
*Paper_Space
  1

  0
ENDBLK
  5
39
330
1C
100
AcDbEntity
 67
     1
  8
0
100
AcDbBlockEnd
  0
BLOCK
  5
3C
330
24
100
AcDbEntity
  8
0
100
AcDbBlockBegin
  2
SUG-AR01
 70
     0
 10
0.0
 20
0.0
 30
0.0
  3
SUG-AR01
  1

  0
LINE
  5
3D
330
24
100
AcDbEntity
  8
0
100
AcDbLine
 10
0.0
 20
0.0
 30
0.0
 11
5.0
 21
1.339745962155659
 31
0.0
  0
LINE
  5
3E
330
24
100
AcDbEntity
  8
0
100
AcDbLine
 10
5.0
 20
-1.339745962155659
 30
0.0
 11
5.0
 21
1.339745962155659
 31
0.0
  0
LINE
  5
3F
330
24
100
AcDbEntity
  8
0
100
AcDbLine
 10
0.0
 20
0.0
 30
0.0
 11
5.0
 21
-1.339745962155659
 31
0.0
  0
ENDBLK
  5
40
330
24
100
AcDbEntity
  8
0
100
AcDbBlockEnd
  0
BLOCK
  5
44
330
26
100
AcDbEntity
  8
0
100
AcDbBlockBegin
  2
*X2
 70
     1
 10
0.0
 20
0.0
 30
0.0
  3
*X2
  1

  0
LINE
  5
45
330
26
100
AcDbEntity
  8
0
 62
     0
100
AcDbLine
 10
-367.3576674071351
 20
124.7374491893554
 30
0.0
 11
-367.3576674071351
 21
124.7374491893554
 31
0.0
  0
LINE
  5
46
330
26
100
AcDbEntity
  8
0
 62
     0
100
AcDbLine
 10
-367.1576674071352
 20
124.7374491893554
 30
0.0
 11
-367.1576674071352
 21
124.7374491893554
 31
0.0
  0
LINE
  5
47
330
26
100
AcDbEntity
  8
0
 62
     0
100
AcDbLine
 10
-357.1576674071351
 20
124.7374491893554
 30
0.0
 11
-357.1576674071351
 21
124.7374491893554
 31
0.0
  0
LINE
  5
48
330
26
100
AcDbEntity
  8
0
 62
     0
100
AcDbLine
 10
-356.9576674071351
 20
124.7374491893554
 30
0.0
 11
-356.9576674071351
 21
124.7374491893554
 31
0.0
  0
LINE
  5
49
330
26
100
AcDbEntity
  8
0
 62
     0
100
AcDbLine
 10
-365.557667407135
 20
124.7374491893554
 30
0.0
 11
-365.557667407135
 21
124.7374491893554
 31
0.0
  0
LINE
  5
4A
330
26
100
AcDbEntity
  8
0
 62
     0
100
AcDbLine
 10
-365.357667407135
 20
124.7374491893554
 30
0.0
 11
-365.357667407135
 21
124.7374491893554
 31
0.0
  0
LINE
  5
4B
330
26
100
AcDbEntity
  8
0
 62
     0
100
AcDbLine
 10
-358.7576674071351
 20
124.7374491893554
 30
0.0
 11
-358.7576674071351
 21
124.7374491893554
 31
0.0
  0
LINE
  5
4C
330
26
100
AcDbEntity
  8
0
 62
     0
100
AcDbLine
 10
-358.5576674071351
 20
124.7374491893554
 30
0.0
 11
-358.5576674071351
 21
124.7374491893554
 31
0.0
  0
LINE
  5
4D
330
26
100
AcDbEntity
  8
0
 62
     0
100
AcDbLine
 10
-364.7576674071351
 20
124.7374491893554
 30
0.0
 11
-364.7576674071351
 21
124.7374491893554
 31
0.0
  0
LINE
  5
4E
330
26
100
AcDbEntity
  8
0
 62
     0
100
AcDbLine
 10
-364.557667407135
 20
124.7374491893554
 30
0.0
 11
-364.557667407135
 21
124.7374491893554
 31
0.0
  0
LINE
  5
4F
330
26
100
AcDbEntity
  8
0
 62
     0
100
AcDbLine
 10
-360.1576674071349
 20
124.7374491893554
 30
0.0
 11
-360.1576674071349
 21
124.7374491893554
 31
0.0
  0
LINE
  5
50
330
26
100
AcDbEntity
  8
0
 62
     0
100
AcDbLine
 10
-359.957667407135
 20
124.7374491893554
 30
0.0
 11
-359.957667407135
 21
124.7374491893554
 31
0.0
  0
LINE
  5
51
330
26
100
AcDbEntity
  8
0
 62
     0
100
AcDbLine
 10
-363.1576674071351
 20
124.7374491893554
 30
0.0
 11
-363.1576674071351
 21
124.7374491893554
 31
0.0
  0
LINE
  5
52
330
26
100
AcDbEntity
  8
0
 62
     0
100
AcDbLine
 10
-362.9576674071352
 20
124.7374491893554
 30
0.0
 11
-362.9576674071352
 21
124.7374491893554
 31
0.0
  0
LINE
  5
53
330
26
100
AcDbEntity
  8
0
 62
     0
100
AcDbLine
 10
-360.9576674071352
 20
124.7374491893554
 30
0.0
 11
-360.9576674071352
 21
124.7374491893554
 31
0.0
  0
LINE
  5
54
330
26
100
AcDbEntity
  8
0
 62
     0
100
AcDbLine
 10
-360.7576674071351
 20
124.7374491893554
 30
0.0
 11
-360.7576674071351
 21
124.7374491893554
 31
0.0
  0
LINE
  5
55
330
26
100
AcDbEntity
  8
0
 62
     0
100
AcDbLine
 10
-362.3576674071351
 20
124.7374491893554
 30
0.0
 11
-362.3576674071351
 21
124.7374491893554
 31
0.0
  0
LINE
  5
56
330
26
100
AcDbEntity
  8
0
 62
     0
100
AcDbLine
 10
-362.1576674071351
 20
124.7374491893554
 30
0.0
 11
-362.1576674071351
 21
124.7374491893554
 31
0.0
  0
LINE
  5
57
330
26
100
AcDbEntity
  8
0
 62
     0
100
AcDbLine
 10
-367.2576674071348
 20
124.9374491893554
 30
0.0
 11
-367.2576674071348
 21
124.9374491893554
 31
0.0
  0
LINE
  5
58
330
26
100
AcDbEntity
  8
0
 62
     0
100
AcDbLine
 10
-357.457667407135
 20
124.9374491893554
 30
0.0
 11
-357.457667407135
 21
124.9374491893554
 31
0.0
  0
LINE
  5
59
330
26
100
AcDbEntity
  8
0
 62
     0
100
AcDbLine
 10
-357.257667407135
 20
124.9374491893554
 30
0.0
 11
-357.257667407135
 21
124.9374491893554
 31
0.0
  0
LINE
  5
5A
330
26
100
AcDbEntity
  8
0
 62
     0
100
AcDbLine
 10
-357.0576674071351
 20
124.9374491893554
 30
0.0
 11
-357.0576674071351
 21
124.9374491893554
 31
0.0
  0
LINE
  5
5B
330
26
100
AcDbEntity
  8
0
 62
     0
100
AcDbLine
 10
-365.4576674071349
 20
124.9374491893554
 30
0.0
 11
-365.4576674071349
 21
124.9374491893554
 31
0.0
  0
LINE
  5
5C
330
26
100
AcDbEntity
  8
0
 62
     0
100
AcDbLine
 10
-365.2576674071349
 20
124.9374491893554
 30
0.0
 11
-365.2576674071349
 21
124.9374491893554
 31
0.0
  0
LINE
  5
5D
330
26
100
AcDbEntity
  8
0
 62
     0
100
AcDbLine
 10
-358.6576674071348
 20
124.9374491893554
 30
0.0
 11
-358.6576674071348
 21
124.9374491893554
 31
0.0
  0
LINE
  5
5E
330
26
100
AcDbEntity
  8
0
 62
     0
100
AcDbLine
 10
-358.4576674071348
 20
124.9374491893554
 30
0.0
 11
-358.4576674071348
 21
124.9374491893554
 31
0.0
  0
LINE
  5
5F
330
26
100
AcDbEntity
  8
0
 62
     0
100
AcDbLine
 10
-364.6576674071349
 20
124.9374491893554
 30
0.0
 11
-364.6576674071349
 21
124.9374491893554
 31
0.0
  0
LINE
  5
60
330
26
100
AcDbEntity
  8
0
 62
     0
100
AcDbLine
 10
-364.4576674071349
 20
124.9374491893554
 30
0.0
 11
-364.4576674071349
 21
124.9374491893554
 31
0.0
  0
LINE
  5
61
330
26
100
AcDbEntity
  8
0
 62
     0
100
AcDbLine
 10
-360.057667407135
 20
124.9374491893554
 30
0.0
 11
-360.057667407135
 21
124.9374491893554
 31
0.0
  0
LINE
  5
62
330
26
100
AcDbEntity
  8
0
 62
     0
100
AcDbLine
 10
-359.8576674071351
 20
124.9374491893554
 30
0.0
 11
-359.8576674071351
 21
124.9374491893554
 31
0.0
  0
LINE
  5
63
330
26
100
AcDbEntity
  8
0
 62
     0
100
AcDbLine
 10
-363.0576674071349
 20
124.9374491893554
 30
0.0
 11
-363.0576674071349
 21
124.9374491893554
 31
0.0
  0
LINE
  5
64
330
26
100
AcDbEntity
  8
0
 62
     0
100
AcDbLine
 10
-361.0576674071348
 20
124.9374491893554
 30
0.0
 11
-361.0576674071348
 21
124.9374491893554
 31
0.0
  0
LINE
  5
65
330
26
100
AcDbEntity
  8
0
 62
     0
100
AcDbLine
 10
-360.8576674071348
 20
124.9374491893554
 30
0.0
 11
-360.8576674071348
 21
124.9374491893554
 31
0.0
  0
LINE
  5
66
330
26
100
AcDbEntity
  8
0
 62
     0
100
AcDbLine
 10
-362.457667407135
 20
124.9374491893554
 30
0.0
 11
-362.457667407135
 21
124.9374491893554
 31
0.0
  0
LINE
  5
67
330
26
100
AcDbEntity
  8
0
 62
     0
100
AcDbLine
 10
-362.257667407135
 20
124.9374491893554
 30
0.0
 11
-362.257667407135
 21
124.9374491893554
 31
0.0
  0
LINE
  5
68
330
26
100
AcDbEntity
  8
0
 62
     0
100
AcDbLine
 10
-367.3576674071351
 20
125.1374491893554
 30
0.0
 11
-367.3576674071351
 21
125.1374491893554
 31
0.0
  0
LINE
  5
69
330
26
100
AcDbEntity
  8
0
 62
     0
100
AcDbLine
 10
-367.1576674071351
 20
125.1374491893554
 30
0.0
 11
-367.1576674071351
 21
125.1374491893554
 31
0.0
  0
LINE
  5
6A
330
26
100
AcDbEntity
  8
0
 62
     0
100
AcDbLine
 10
-357.5576674071351
 20
125.1374491893554
 30
0.0
 11
-357.5576674071351
 21
125.1374491893554
 31
0.0
  0
LINE
  5
6B
330
26
100
AcDbEntity
  8
0
 62
     0
100
AcDbLine
 10
-357.3576674071351
 20
125.1374491893554
 30
0.0
 11
-357.3576674071351
 21
125.1374491893554
 31
0.0
  0
LINE
  5
6C
330
26
100
AcDbEntity
  8
0
 62
     0
100
AcDbLine
 10
-365.5576674071349
 20
125.1374491893554
 30
0.0
 11
-365.5576674071349
 21
125.1374491893554
 31
0.0
  0
LINE
  5
6D
330
26
100
AcDbEntity
  8
0
 62
     0
100
AcDbLine
 10
-365.3576674071349
 20
125.1374491893554
 30
0.0
 11
-365.3576674071349
 21
125.1374491893554
 31
0.0
  0
LINE
  5
6E
330
26
100
AcDbEntity
  8
0
 62
     0
100
AcDbLine
 10
-358.7576674071349
 20
125.1374491893554
 30
0.0
 11
-358.7576674071349
 21
125.1374491893554
 31
0.0
  0
LINE
  5
6F
330
26
100
AcDbEntity
  8
0
 62
     0
100
AcDbLine
 10
-358.5576674071349
 20
125.1374491893554
 30
0.0
 11
-358.5576674071349
 21
125.1374491893554
 31
0.0
  0
LINE
  5
70
330
26
100
AcDbEntity
  8
0
 62
     0
100
AcDbLine
 10
-364.757667407135
 20
125.1374491893554
 30
0.0
 11
-364.757667407135
 21
125.1374491893554
 31
0.0
  0
LINE
  5
71
330
26
100
AcDbEntity
  8
0
 62
     0
100
AcDbLine
 10
-364.557667407135
 20
125.1374491893554
 30
0.0
 11
-364.557667407135
 21
125.1374491893554
 31
0.0
  0
LINE
  5
72
330
26
100
AcDbEntity
  8
0
 62
     0
100
AcDbLine
 10
-360.1576674071351
 20
125.1374491893554
 30
0.0
 11
-360.1576674071351
 21
125.1374491893554
 31
0.0
  0
LINE
  5
73
330
26
100
AcDbEntity
  8
0
 62
     0
100
AcDbLine
 10
-359.9576674071351
 20
125.1374491893554
 30
0.0
 11
-359.9576674071351
 21
125.1374491893554
 31
0.0
  0
LINE
  5
74
330
26
100
AcDbEntity
  8
0
 62
     0
100
AcDbLine
 10
-363.157667407135
 20
125.1374491893554
 30
0.0
 11
-363.157667407135
 21
125.1374491893554
 31
0.0
  0
LINE
  5
75
330
26
100
AcDbEntity
  8
0
 62
     0
100
AcDbLine
 10
-362.957667407135
 20
125.1374491893554
 30
0.0
 11
-362.957667407135
 21
125.1374491893554
 31
0.0
  0
LINE
  5
76
330
26
100
AcDbEntity
  8
0
 62
     0
100
AcDbLine
 10
-360.9576674071349
 20
125.1374491893554
 30
0.0
 11
-360.9576674071349
 21
125.1374491893554
 31
0.0
  0
LINE
  5
77
330
26
100
AcDbEntity
  8
0
 62
     0
100
AcDbLine
 10
-360.7576674071349
 20
125.1374491893554
 30
0.0
 11
-360.7576674071349
 21
125.1374491893554
 31
0.0
  0
LINE
  5
78
330
26
100
AcDbEntity
  8
0
 62
     0
100
AcDbLine
 10
-362.3576674071351
 20
125.1374491893554
 30
0.0
 11
-362.3576674071351
 21
125.1374491893554
 31
0.0
  0
LINE
  5
79
330
26
100
AcDbEntity
  8
0
 62
     0
100
AcDbLine
 10
-362.1576674071351
 20
125.1374491893554
 30
0.0
 11
-362.1576674071351
 21
125.1374491893554
 31
0.0
  0
LINE
  5
7A
330
26
100
AcDbEntity
  8
0
 62
     0
100
AcDbLine
 10
-367.2576674071349
 20
125.3374491893554
 30
0.0
 11
-367.2576674071349
 21
125.3374491893554
 31
0.0
  0
LINE
  5
7B
330
26
100
AcDbEntity
  8
0
 62
     0
100
AcDbLine
 10
-367.0576674071349
 20
125.3374491893554
 30
0.0
 11
-367.0576674071349
 21
125.3374491893554
 31
0.0
  0
LINE
  5
7C
330
26
100
AcDbEntity
  8
0
 62
     0
100
AcDbLine
 10
-357.657667407135
 20
125.3374491893554
 30
0.0
 11
-357.657667407135
 21
125.3374491893554
 31
0.0
  0
LINE
  5
7D
330
26
100
AcDbEntity
  8
0
 62
     0
100
AcDbLine
 10
-357.457667407135
 20
125.3374491893554
 30
0.0
 11
-357.457667407135
 21
125.3374491893554
 31
0.0
  0
LINE
  5
7E
330
26
100
AcDbEntity
  8
0
 62
     0
100
AcDbLine
 10
-365.6576674071349
 20
125.3374491893554
 30
0.0
 11
-365.6576674071349
 21
125.3374491893554
 31
0.0
  0
LINE
  5
7F
330
26
100
AcDbEntity
  8
0
 62
     0
100
AcDbLine
 10
-365.4576674071349
 20
125.3374491893554
 30
0.0
 11
-365.4576674071349
 21
125.3374491893554
 31
0.0
  0
LINE
  5
80
330
26
100
AcDbEntity
  8
0
 62
     0
100
AcDbLine
 10
-358.6576674071348
 20
125.3374491893554
 30
0.0
 11
-358.6576674071348
 21
125.3374491893554
 31
0.0
  0
LINE
  5
81
330
26
100
AcDbEntity
  8
0
 62
     0
100
AcDbLine
 10
-358.4576674071348
 20
125.3374491893554
 30
0.0
 11
-358.4576674071348
 21
125.3374491893554
 31
0.0
  0
LINE
  5
82
330
26
100
AcDbEntity
  8
0
 62
     0
100
AcDbLine
 10
-364.6576674071348
 20
125.3374491893554
 30
0.0
 11
-364.6576674071348
 21
125.3374491893554
 31
0.0
  0
LINE
  5
83
330
26
100
AcDbEntity
  8
0
 62
     0
100
AcDbLine
 10
-364.4576674071348
 20
125.3374491893554
 30
0.0
 11
-364.4576674071348
 21
125.3374491893554
 31
0.0
  0
LINE
  5
84
330
26
100
AcDbEntity
  8
0
 62
     0
100
AcDbLine
 10
-360.0576674071348
 20
125.3374491893554
 30
0.0
 11
-360.0576674071348
 21
125.3374491893554
 31
0.0
  0
LINE
  5
85
330
26
100
AcDbEntity
  8
0
 62
     0
100
AcDbLine
 10
-359.8576674071348
 20
125.3374491893554
 30
0.0
 11
-359.8576674071348
 21
125.3374491893554
 31
0.0
  0
LINE
  5
86
330
26
100
AcDbEntity
  8
0
 62
     0
100
AcDbLine
 10
-363.057667407135
 20
125.3374491893554
 30
0.0
 11
-363.057667407135
 21
125.3374491893554
 31
0.0
  0
LINE
  5
87
330
26
100
AcDbEntity
  8
0
 62
     0
100
AcDbLine
 10
-361.057667407135
 20
125.3374491893554
 30
0.0
 11
-361.057667407135
 21
125.3374491893554
 31
0.0
  0
LINE
  5
88
330
26
100
AcDbEntity
  8
0
 62
     0
100
AcDbLine
 10
-360.857667407135
 20
125.3374491893554
 30
0.0
 11
-360.857667407135
 21
125.3374491893554
 31
0.0
  0
LINE
  5
89
330
26
100
AcDbEntity
  8
0
 62
     0
100
AcDbLine
 10
-362.4576674071347
 20
125.3374491893554
 30
0.0
 11
-362.4576674071347
 21
125.3374491893554
 31
0.0
  0
LINE
  5
8A
330
26
100
AcDbEntity
  8
0
 62
     0
100
AcDbLine
 10
-362.2576674071348
 20
125.3374491893554
 30
0.0
 11
-362.2576674071348
 21
125.3374491893554
 31
0.0
  0
LINE
  5
8B
330
26
100
AcDbEntity
  8
0
 62
     0
100
AcDbLine
 10
-367.1576674071348
 20
125.5374491893554
 30
0.0
 11
-367.1576674071348
 21
125.5374491893554
 31
0.0
  0
LINE
  5
8C
330
26
100
AcDbEntity
  8
0
 62
     0
100
AcDbLine
 10
-366.9576674071349
 20
125.5374491893554
 30
0.0
 11
-366.9576674071349
 21
125.5374491893554
 31
0.0
  0
LINE
  5
8D
330
26
100
AcDbEntity
  8
0
 62
     0
100
AcDbLine
 10
-357.757667407135
 20
125.5374491893554
 30
0.0
 11
-357.757667407135
 21
125.5374491893554
 31
0.0
  0
LINE
  5
8E
330
26
100
AcDbEntity
  8
0
 62
     0
100
AcDbLine
 10
-357.557667407135
 20
125.5374491893554
 30
0.0
 11
-357.557667407135
 21
125.5374491893554
 31
0.0
  0
LINE
  5
8F
330
26
100
AcDbEntity
  8
0
 62
     0
100
AcDbLine
 10
-357.357667407135
 20
125.5374491893554
 30
0.0
 11
-357.357667407135
 21
125.5374491893554
 31
0.0
  0
LINE
  5
90
330
26
100
AcDbEntity
  8
0
 62
     0
100
AcDbLine
 10
-365.757667407135
 20
125.5374491893554
 30
0.0
 11
-365.757667407135
 21
125.5374491893554
 31
0.0
  0
LINE
  5
91
330
26
100
AcDbEntity
  8
0
 62
     0
100
AcDbLine
 10
-365.5576674071349
 20
125.5374491893554
 30
0.0
 11
-365.5576674071349
 21
125.5374491893554
 31
0.0
  0
LINE
  5
92
330
26
100
AcDbEntity
  8
0
 62
     0
100
AcDbLine
 10
-358.757667407135
 20
125.5374491893554
 30
0.0
 11
-358.757667407135
 21
125.5374491893554
 31
0.0
  0
LINE
  5
93
330
26
100
AcDbEntity
  8
0
 62
     0
100
AcDbLine
 10
-358.557667407135
 20
125.5374491893554
 30
0.0
 11
-358.557667407135
 21
125.5374491893554
 31
0.0
  0
LINE
  5
94
330
26
100
AcDbEntity
  8
0
 62
     0
100
AcDbLine
 10
-364.7576674071349
 20
125.5374491893554
 30
0.0
 11
-364.7576674071349
 21
125.5374491893554
 31
0.0
  0
LINE
  5
95
330
26
100
AcDbEntity
  8
0
 62
     0
100
AcDbLine
 10
-364.5576674071349
 20
125.5374491893554
 30
0.0
 11
-364.5576674071349
 21
125.5374491893554
 31
0.0
  0
LINE
  5
96
330
26
100
AcDbEntity
  8
0
 62
     0
100
AcDbLine
 10
-360.1576674071349
 20
125.5374491893554
 30
0.0
 11
-360.1576674071349
 21
125.5374491893554
 31
0.0
  0
LINE
  5
97
330
26
100
AcDbEntity
  8
0
 62
     0
100
AcDbLine
 10
-359.9576674071349
 20
125.5374491893554
 30
0.0
 11
-359.9576674071349
 21
125.5374491893554
 31
0.0
  0
LINE
  5
98
330
26
100
AcDbEntity
  8
0
 62
     0
100
AcDbLine
 10
-363.157667407135
 20
125.5374491893554
 30
0.0
 11
-363.157667407135
 21
125.5374491893554
 31
0.0
  0
LINE
  5
99
330
26
100
AcDbEntity
  8
0
 62
     0
100
AcDbLine
 10
-362.957667407135
 20
125.5374491893554
 30
0.0
 11
-362.957667407135
 21
125.5374491893554
 31
0.0
  0
LINE
  5
9A
330
26
100
AcDbEntity
  8
0
 62
     0
100
AcDbLine
 10
-360.9576674071351
 20
125.5374491893554
 30
0.0
 11
-360.9576674071351
 21
125.5374491893554
 31
0.0
  0
LINE
  5
9B
330
26
100
AcDbEntity
  8
0
 62
     0
100
AcDbLine
 10
-360.7576674071351
 20
125.5374491893554
 30
0.0
 11
-360.7576674071351
 21
125.5374491893554
 31
0.0
  0
LINE
  5
9C
330
26
100
AcDbEntity
  8
0
 62
     0
100
AcDbLine
 10
-362.3576674071348
 20
125.5374491893554
 30
0.0
 11
-362.3576674071348
 21
125.5374491893554
 31
0.0
  0
LINE
  5
9D
330
26
100
AcDbEntity
  8
0
 62
     0
100
AcDbLine
 10
-362.1576674071349
 20
125.5374491893554
 30
0.0
 11
-362.1576674071349
 21
125.5374491893554
 31
0.0
  0
LINE
  5
9E
330
26
100
AcDbEntity
  8
0
 62
     0
100
AcDbLine
 10
-367.0576674071351
 20
125.7374491893554
 30
0.0
 11
-367.0576674071351
 21
125.7374491893554
 31
0.0
  0
LINE
  5
9F
330
26
100
AcDbEntity
  8
0
 62
     0
100
AcDbLine
 10
-366.8576674071351
 20
125.7374491893554
 30
0.0
 11
-366.8576674071351
 21
125.7374491893554
 31
0.0
  0
LINE
  5
A0
330
26
100
AcDbEntity
  8
0
 62
     0
100
AcDbLine
 10
-366.6576674071351
 20
125.7374491893554
 30
0.0
 11
-366.6576674071351
 21
125.7374491893554
 31
0.0
  0
LINE
  5
A1
330
26
100
AcDbEntity
  8
0
 62
     0
100
AcDbLine
 10
-357.8576674071351
 20
125.7374491893554
 30
0.0
 11
-357.8576674071351
 21
125.7374491893554
 31
0.0
  0
LINE
  5
A2
330
26
100
AcDbEntity
  8
0
 62
     0
100
AcDbLine
 10
-357.6576674071351
 20
125.7374491893554
 30
0.0
 11
-357.6576674071351
 21
125.7374491893554
 31
0.0
  0
LINE
  5
A3
330
26
100
AcDbEntity
  8
0
 62
     0
100
AcDbLine
 10
-357.4576674071352
 20
125.7374491893554
 30
0.0
 11
-357.4576674071352
 21
125.7374491893554
 31
0.0
  0
LINE
  5
A4
330
26
100
AcDbEntity
  8
0
 62
     0
100
AcDbLine
 10
-365.857667407135
 20
125.7374491893554
 30
0.0
 11
-365.857667407135
 21
125.7374491893554
 31
0.0
  0
LINE
  5
A5
330
26
100
AcDbEntity
  8
0
 62
     0
100
AcDbLine
 10
-365.657667407135
 20
125.7374491893554
 30
0.0
 11
-365.657667407135
 21
125.7374491893554
 31
0.0
  0
LINE
  5
A6
330
26
100
AcDbEntity
  8
0
 62
     0
100
AcDbLine
 10
-365.457667407135
 20
125.7374491893554
 30
0.0
 11
-365.457667407135
 21
125.7374491893554
 31
0.0
  0
LINE
  5
A7
330
26
100
AcDbEntity
  8
0
 62
     0
100
AcDbLine
 10
-358.6576674071352
 20
125.7374491893554
 30
0.0
 11
-358.6576674071352
 21
125.7374491893554
 31
0.0
  0
LINE
  5
A8
330
26
100
AcDbEntity
  8
0
 62
     0
100
AcDbLine
 10
-358.4576674071351
 20
125.7374491893554
 30
0.0
 11
-358.4576674071351
 21
125.7374491893554
 31
0.0
  0
LINE
  5
A9
330
26
100
AcDbEntity
  8
0
 62
     0
100
AcDbLine
 10
-364.657667407135
 20
125.7374491893554
 30
0.0
 11
-364.657667407135
 21
125.7374491893554
 31
0.0
  0
LINE
  5
AA
330
26
100
AcDbEntity
  8
0
 62
     0
100
AcDbLine
 10
-364.457667407135
 20
125.7374491893554
 30
0.0
 11
-364.457667407135
 21
125.7374491893554
 31
0.0
  0
LINE
  5
AB
330
26
100
AcDbEntity
  8
0
 62
     0
100
AcDbLine
 10
-360.057667407135
 20
125.7374491893554
 30
0.0
 11
-360.057667407135
 21
125.7374491893554
 31
0.0
  0
LINE
  5
AC
330
26
100
AcDbEntity
  8
0
 62
     0
100
AcDbLine
 10
-359.8576674071349
 20
125.7374491893554
 30
0.0
 11
-359.8576674071349
 21
125.7374491893554
 31
0.0
  0
LINE
  5
AD
330
26
100
AcDbEntity
  8
0
 62
     0
100
AcDbLine
 10
-363.2576674071351
 20
125.7374491893554
 30
0.0
 11
-363.2576674071351
 21
125.7374491893554
 31
0.0
  0
LINE
  5
AE
330
26
100
AcDbEntity
  8
0
 62
     0
100
AcDbLine
 10
-363.0576674071351
 20
125.7374491893554
 30
0.0
 11
-363.0576674071351
 21
125.7374491893554
 31
0.0
  0
LINE
  5
AF
330
26
100
AcDbEntity
  8
0
 62
     0
100
AcDbLine
 10
-361.0576674071352
 20
125.7374491893554
 30
0.0
 11
-361.0576674071352
 21
125.7374491893554
 31
0.0
  0
LINE
  5
B0
330
26
100
AcDbEntity
  8
0
 62
     0
100
AcDbLine
 10
-360.8576674071352
 20
125.7374491893554
 30
0.0
 11
-360.8576674071352
 21
125.7374491893554
 31
0.0
  0
LINE
  5
B1
330
26
100
AcDbEntity
  8
0
 62
     0
100
AcDbLine
 10
-362.457667407135
 20
125.7374491893554
 30
0.0
 11
-362.457667407135
 21
125.7374491893554
 31
0.0
  0
LINE
  5
B2
330
26
100
AcDbEntity
  8
0
 62
     0
100
AcDbLine
 10
-362.257667407135
 20
125.7374491893554
 30
0.0
 11
-362.257667407135
 21
125.7374491893554
 31
0.0
  0
LINE
  5
B3
330
26
100
AcDbEntity
  8
0
 62
     0
100
AcDbLine
 10
-366.957667407135
 20
125.9374491893554
 30
0.0
 11
-366.957667407135
 21
125.9374491893554
 31
0.0
  0
LINE
  5
B4
330
26
100
AcDbEntity
  8
0
 62
     0
100
AcDbLine
 10
-366.757667407135
 20
125.9374491893554
 30
0.0
 11
-366.757667407135
 21
125.9374491893554
 31
0.0
  0
LINE
  5
B5
330
26
100
AcDbEntity
  8
0
 62
     0
100
AcDbLine
 10
-366.557667407135
 20
125.9374491893554
 30
0.0
 11
-366.557667407135
 21
125.9374491893554
 31
0.0
  0
LINE
  5
B6
330
26
100
AcDbEntity
  8
0
 62
     0
100
AcDbLine
 10
-366.357667407135
 20
125.9374491893554
 30
0.0
 11
-366.357667407135
 21
125.9374491893554
 31
0.0
  0
LINE
  5
B7
330
26
100
AcDbEntity
  8
0
 62
     0
100
AcDbLine
 10
-366.157667407135
 20
125.9374491893554
 30
0.0
 11
-366.157667407135
 21
125.9374491893554
 31
0.0
  0
LINE
  5
B8
330
26
100
AcDbEntity
  8
0
 62
     0
100
AcDbLine
 10
-365.957667407135
 20
125.9374491893554
 30
0.0
 11
-365.957667407135
 21
125.9374491893554
 31
0.0
  0
LINE
  5
B9
330
26
100
AcDbEntity
  8
0
 62
     0
100
AcDbLine
 10
-365.757667407135
 20
125.9374491893554
 30
0.0
 11
-365.757667407135
 21
125.9374491893554
 31
0.0
  0
LINE
  5
BA
330
26
100
AcDbEntity
  8
0
 62
     0
100
AcDbLine
 10
-357.7576674071349
 20
125.9374491893554
 30
0.0
 11
-357.7576674071349
 21
125.9374491893554
 31
0.0
  0
LINE
  5
BB
330
26
100
AcDbEntity
  8
0
 62
     0
100
AcDbLine
 10
-357.5576674071349
 20
125.9374491893554
 30
0.0
 11
-357.5576674071349
 21
125.9374491893554
 31
0.0
  0
LINE
  5
BC
330
26
100
AcDbEntity
  8
0
 62
     0
100
AcDbLine
 10
-357.3576674071349
 20
125.9374491893554
 30
0.0
 11
-357.3576674071349
 21
125.9374491893554
 31
0.0
  0
LINE
  5
BD
330
26
100
AcDbEntity
  8
0
 62
     0
100
AcDbLine
 10
-357.1576674071349
 20
125.9374491893554
 30
0.0
 11
-357.1576674071349
 21
125.9374491893554
 31
0.0
  0
LINE
  5
BE
330
26
100
AcDbEntity
  8
0
 62
     0
100
AcDbLine
 10
-356.9576674071349
 20
125.9374491893554
 30
0.0
 11
-356.9576674071349
 21
125.9374491893554
 31
0.0
  0
LINE
  5
BF
330
26
100
AcDbEntity
  8
0
 62
     0
100
AcDbLine
 10
-364.757667407135
 20
125.9374491893554
 30
0.0
 11
-364.757667407135
 21
125.9374491893554
 31
0.0
  0
LINE
  5
C0
330
26
100
AcDbEntity
  8
0
 62
     0
100
AcDbLine
 10
-364.557667407135
 20
125.9374491893554
 30
0.0
 11
-364.557667407135
 21
125.9374491893554
 31
0.0
  0
LINE
  5
C1
330
26
100
AcDbEntity
  8
0
 62
     0
100
AcDbLine
 10
-364.357667407135
 20
125.9374491893554
 30
0.0
 11
-364.357667407135
 21
125.9374491893554
 31
0.0
  0
LINE
  5
C2
330
26
100
AcDbEntity
  8
0
 62
     0
100
AcDbLine
 10
-364.157667407135
 20
125.9374491893554
 30
0.0
 11
-364.157667407135
 21
125.9374491893554
 31
0.0
  0
LINE
  5
C3
330
26
100
AcDbEntity
  8
0
 62
     0
100
AcDbLine
 10
-363.957667407135
 20
125.9374491893554
 30
0.0
 11
-363.957667407135
 21
125.9374491893554
 31
0.0
  0
LINE
  5
C4
330
26
100
AcDbEntity
  8
0
 62
     0
100
AcDbLine
 10
-363.757667407135
 20
125.9374491893554
 30
0.0
 11
-363.757667407135
 21
125.9374491893554
 31
0.0
  0
LINE
  5
C5
330
26
100
AcDbEntity
  8
0
 62
     0
100
AcDbLine
 10
-363.5576674071351
 20
125.9374491893554
 30
0.0
 11
-363.5576674071351
 21
125.9374491893554
 31
0.0
  0
LINE
  5
C6
330
26
100
AcDbEntity
  8
0
 62
     0
100
AcDbLine
 10
-363.3576674071351
 20
125.9374491893554
 30
0.0
 11
-363.3576674071351
 21
125.9374491893554
 31
0.0
  0
LINE
  5
C7
330
26
100
AcDbEntity
  8
0
 62
     0
100
AcDbLine
 10
-363.1576674071351
 20
125.9374491893554
 30
0.0
 11
-363.1576674071351
 21
125.9374491893554
 31
0.0
  0
LINE
  5
C8
330
26
100
AcDbEntity
  8
0
 62
     0
100
AcDbLine
 10
-358.757667407135
 20
125.9374491893554
 30
0.0
 11
-358.757667407135
 21
125.9374491893554
 31
0.0
  0
LINE
  5
C9
330
26
100
AcDbEntity
  8
0
 62
     0
100
AcDbLine
 10
-358.557667407135
 20
125.9374491893554
 30
0.0
 11
-358.557667407135
 21
125.9374491893554
 31
0.0
  0
LINE
  5
CA
330
26
100
AcDbEntity
  8
0
 62
     0
100
AcDbLine
 10
-362.357667407135
 20
125.9374491893554
 30
0.0
 11
-362.357667407135
 21
125.9374491893554
 31
0.0
  0
LINE
  5
CB
330
26
100
AcDbEntity
  8
0
 62
     0
100
AcDbLine
 10
-362.1576674071349
 20
125.9374491893554
 30
0.0
 11
-362.1576674071349
 21
125.9374491893554
 31
0.0
  0
LINE
  5
CC
330
26
100
AcDbEntity
  8
0
 62
     0
100
AcDbLine
 10
-361.957667407135
 20
125.9374491893554
 30
0.0
 11
-361.957667407135
 21
125.9374491893554
 31
0.0
  0
LINE
  5
CD
330
26
100
AcDbEntity
  8
0
 62
     0
100
AcDbLine
 10
-361.757667407135
 20
125.9374491893554
 30
0.0
 11
-361.757667407135
 21
125.9374491893554
 31
0.0
  0
LINE
  5
CE
330
26
100
AcDbEntity
  8
0
 62
     0
100
AcDbLine
 10
-361.557667407135
 20
125.9374491893554
 30
0.0
 11
-361.557667407135
 21
125.9374491893554
 31
0.0
  0
LINE
  5
CF
330
26
100
AcDbEntity
  8
0
 62
     0
100
AcDbLine
 10
-361.357667407135
 20
125.9374491893554
 30
0.0
 11
-361.357667407135
 21
125.9374491893554
 31
0.0
  0
LINE
  5
D0
330
26
100
AcDbEntity
  8
0
 62
     0
100
AcDbLine
 10
-361.157667407135
 20
125.9374491893554
 30
0.0
 11
-361.157667407135
 21
125.9374491893554
 31
0.0
  0
LINE
  5
D1
330
26
100
AcDbEntity
  8
0
 62
     0
100
AcDbLine
 10
-360.957667407135
 20
125.9374491893554
 30
0.0
 11
-360.957667407135
 21
125.9374491893554
 31
0.0
  0
LINE
  5
D2
330
26
100
AcDbEntity
  8
0
 62
     0
100
AcDbLine
 10
-360.7576674071351
 20
125.9374491893554
 30
0.0
 11
-360.7576674071351
 21
125.9374491893554
 31
0.0
  0
LINE
  5
D3
330
26
100
AcDbEntity
  8
0
 62
     0
100
AcDbLine
 10
-360.157667407135
 20
125.9374491893554
 30
0.0
 11
-360.157667407135
 21
125.9374491893554
 31
0.0
  0
LINE
  5
D4
330
26
100
AcDbEntity
  8
0
 62
     0
100
AcDbLine
 10
-359.9576674071351
 20
125.9374491893554
 30
0.0
 11
-359.9576674071351
 21
125.9374491893554
 31
0.0
  0
LINE
  5
D5
330
26
100
AcDbEntity
  8
0
 62
     0
100
AcDbLine
 10
-366.8576674071351
 20
126.1374491893554
 30
0.0
 11
-366.8576674071351
 21
126.1374491893554
 31
0.0
  0
LINE
  5
D6
330
26
100
AcDbEntity
  8
0
 62
     0
100
AcDbLine
 10
-366.6576674071351
 20
126.1374491893554
 30
0.0
 11
-366.6576674071351
 21
126.1374491893554
 31
0.0
  0
LINE
  5
D7
330
26
100
AcDbEntity
  8
0
 62
     0
100
AcDbLine
 10
-366.4576674071351
 20
126.1374491893554
 30
0.0
 11
-366.4576674071351
 21
126.1374491893554
 31
0.0
  0
LINE
  5
D8
330
26
100
AcDbEntity
  8
0
 62
     0
100
AcDbLine
 10
-366.2576674071352
 20
126.1374491893554
 30
0.0
 11
-366.2576674071352
 21
126.1374491893554
 31
0.0
  0
LINE
  5
D9
330
26
100
AcDbEntity
  8
0
 62
     0
100
AcDbLine
 10
-366.0576674071352
 20
126.1374491893554
 30
0.0
 11
-366.0576674071352
 21
126.1374491893554
 31
0.0
  0
LINE
  5
DA
330
26
100
AcDbEntity
  8
0
 62
     0
100
AcDbLine
 10
-365.8576674071352
 20
126.1374491893554
 30
0.0
 11
-365.8576674071352
 21
126.1374491893554
 31
0.0
  0
LINE
  5
DB
330
26
100
AcDbEntity
  8
0
 62
     0
100
AcDbLine
 10
-357.657667407135
 20
126.1374491893554
 30
0.0
 11
-357.657667407135
 21
126.1374491893554
 31
0.0
  0
LINE
  5
DC
330
26
100
AcDbEntity
  8
0
 62
     0
100
AcDbLine
 10
-357.457667407135
 20
126.1374491893554
 30
0.0
 11
-357.457667407135
 21
126.1374491893554
 31
0.0
  0
LINE
  5
DD
330
26
100
AcDbEntity
  8
0
 62
     0
100
AcDbLine
 10
-357.257667407135
 20
126.1374491893554
 30
0.0
 11
-357.257667407135
 21
126.1374491893554
 31
0.0
  0
LINE
  5
DE
330
26
100
AcDbEntity
  8
0
 62
     0
100
AcDbLine
 10
-357.057667407135
 20
126.1374491893554
 30
0.0
 11
-357.057667407135
 21
126.1374491893554
 31
0.0
  0
LINE
  5
DF
330
26
100
AcDbEntity
  8
0
 62
     0
100
AcDbLine
 10
-364.657667407135
 20
126.1374491893554
 30
0.0
 11
-364.657667407135
 21
126.1374491893554
 31
0.0
  0
LINE
  5
E0
330
26
100
AcDbEntity
  8
0
 62
     0
100
AcDbLine
 10
-364.457667407135
 20
126.1374491893554
 30
0.0
 11
-364.457667407135
 21
126.1374491893554
 31
0.0
  0
LINE
  5
E1
330
26
100
AcDbEntity
  8
0
 62
     0
100
AcDbLine
 10
-364.257667407135
 20
126.1374491893554
 30
0.0
 11
-364.257667407135
 21
126.1374491893554
 31
0.0
  0
LINE
  5
E2
330
26
100
AcDbEntity
  8
0
 62
     0
100
AcDbLine
 10
-364.057667407135
 20
126.1374491893554
 30
0.0
 11
-364.057667407135
 21
126.1374491893554
 31
0.0
  0
LINE
  5
E3
330
26
100
AcDbEntity
  8
0
 62
     0
100
AcDbLine
 10
-363.8576674071351
 20
126.1374491893554
 30
0.0
 11
-363.8576674071351
 21
126.1374491893554
 31
0.0
  0
LINE
  5
E4
330
26
100
AcDbEntity
  8
0
 62
     0
100
AcDbLine
 10
-363.6576674071351
 20
126.1374491893554
 30
0.0
 11
-363.6576674071351
 21
126.1374491893554
 31
0.0
  0
LINE
  5
E5
330
26
100
AcDbEntity
  8
0
 62
     0
100
AcDbLine
 10
-363.4576674071351
 20
126.1374491893554
 30
0.0
 11
-363.4576674071351
 21
126.1374491893554
 31
0.0
  0
LINE
  5
E6
330
26
100
AcDbEntity
  8
0
 62
     0
100
AcDbLine
 10
-363.2576674071351
 20
126.1374491893554
 30
0.0
 11
-363.2576674071351
 21
126.1374491893554
 31
0.0
  0
LINE
  5
E7
330
26
100
AcDbEntity
  8
0
 62
     0
100
AcDbLine
 10
-358.6576674071352
 20
126.1374491893554
 30
0.0
 11
-358.6576674071352
 21
126.1374491893554
 31
0.0
  0
LINE
  5
E8
330
26
100
AcDbEntity
  8
0
 62
     0
100
AcDbLine
 10
-358.4576674071351
 20
126.1374491893554
 30
0.0
 11
-358.4576674071351
 21
126.1374491893554
 31
0.0
  0
LINE
  5
E9
330
26
100
AcDbEntity
  8
0
 62
     0
100
AcDbLine
 10
-362.4576674071351
 20
126.1374491893554
 30
0.0
 11
-362.4576674071351
 21
126.1374491893554
 31
0.0
  0
LINE
  5
EA
330
26
100
AcDbEntity
  8
0
 62
     0
100
AcDbLine
 10
-362.2576674071352
 20
126.1374491893554
 30
0.0
 11
-362.2576674071352
 21
126.1374491893554
 31
0.0
  0
LINE
  5
EB
330
26
100
AcDbEntity
  8
0
 62
     0
100
AcDbLine
 10
-362.0576674071352
 20
126.1374491893554
 30
0.0
 11
-362.0576674071352
 21
126.1374491893554
 31
0.0
  0
LINE
  5
EC
330
26
100
AcDbEntity
  8
0
 62
     0
100
AcDbLine
 10
-361.8576674071352
 20
126.1374491893554
 30
0.0
 11
-361.8576674071352
 21
126.1374491893554
 31
0.0
  0
LINE
  5
ED
330
26
100
AcDbEntity
  8
0
 62
     0
100
AcDbLine
 10
-361.6576674071352
 20
126.1374491893554
 30
0.0
 11
-361.6576674071352
 21
126.1374491893554
 31
0.0
  0
LINE
  5
EE
330
26
100
AcDbEntity
  8
0
 62
     0
100
AcDbLine
 10
-361.4576674071352
 20
126.1374491893554
 30
0.0
 11
-361.4576674071352
 21
126.1374491893554
 31
0.0
  0
LINE
  5
EF
330
26
100
AcDbEntity
  8
0
 62
     0
100
AcDbLine
 10
-361.2576674071352
 20
126.1374491893554
 30
0.0
 11
-361.2576674071352
 21
126.1374491893554
 31
0.0
  0
LINE
  5
F0
330
26
100
AcDbEntity
  8
0
 62
     0
100
AcDbLine
 10
-361.0576674071352
 20
126.1374491893554
 30
0.0
 11
-361.0576674071352
 21
126.1374491893554
 31
0.0
  0
LINE
  5
F1
330
26
100
AcDbEntity
  8
0
 62
     0
100
AcDbLine
 10
-360.8576674071352
 20
126.1374491893554
 30
0.0
 11
-360.8576674071352
 21
126.1374491893554
 31
0.0
  0
LINE
  5
F2
330
26
100
AcDbEntity
  8
0
 62
     0
100
AcDbLine
 10
-360.0576674071351
 20
126.1374491893554
 30
0.0
 11
-360.0576674071351
 21
126.1374491893554
 31
0.0
  0
LINE
  5
F3
330
26
100
AcDbEntity
  8
0
 62
     0
100
AcDbLine
 10
-359.8576674071351
 20
126.1374491893554
 30
0.0
 11
-359.8576674071351
 21
126.1374491893554
 31
0.0
  0
LINE
  5
F4
330
26
100
AcDbEntity
  8
0
 62
     0
100
AcDbLine
 10
-367.2576674071351
 20
124.5374491893554
 30
0.0
 11
-367.2576674071351
 21
124.5374491893554
 31
0.0
  0
LINE
  5
F5
330
26
100
AcDbEntity
  8
0
 62
     0
100
AcDbLine
 10
-367.0576674071351
 20
124.5374491893554
 30
0.0
 11
-367.0576674071351
 21
124.5374491893554
 31
0.0
  0
LINE
  5
F6
330
26
100
AcDbEntity
  8
0
 62
     0
100
AcDbLine
 10
-356.8576674071351
 20
124.5374491893554
 30
0.0
 11
-356.8576674071351
 21
124.5374491893554
 31
0.0
  0
LINE
  5
F7
330
26
100
AcDbEntity
  8
0
 62
     0
100
AcDbLine
 10
-356.6576674071351
 20
124.5374491893554
 30
0.0
 11
-356.6576674071351
 21
124.5374491893554
 31
0.0
  0
LINE
  5
F8
330
26
100
AcDbEntity
  8
0
 62
     0
100
AcDbLine
 10
-365.457667407135
 20
124.5374491893554
 30
0.0
 11
-365.457667407135
 21
124.5374491893554
 31
0.0
  0
LINE
  5
F9
330
26
100
AcDbEntity
  8
0
 62
     0
100
AcDbLine
 10
-358.657667407135
 20
124.5374491893554
 30
0.0
 11
-358.657667407135
 21
124.5374491893554
 31
0.0
  0
LINE
  5
FA
330
26
100
AcDbEntity
  8
0
 62
     0
100
AcDbLine
 10
-358.457667407135
 20
124.5374491893554
 30
0.0
 11
-358.457667407135
 21
124.5374491893554
 31
0.0
  0
LINE
  5
FB
330
26
100
AcDbEntity
  8
0
 62
     0
100
AcDbLine
 10
-364.657667407135
 20
124.5374491893554
 30
0.0
 11
-364.657667407135
 21
124.5374491893554
 31
0.0
  0
LINE
  5
FC
330
26
100
AcDbEntity
  8
0
 62
     0
100
AcDbLine
 10
-364.457667407135
 20
124.5374491893554
 30
0.0
 11
-364.457667407135
 21
124.5374491893554
 31
0.0
  0
LINE
  5
FD
330
26
100
AcDbEntity
  8
0
 62
     0
100
AcDbLine
 10
-360.0576674071348
 20
124.5374491893554
 30
0.0
 11
-360.0576674071348
 21
124.5374491893554
 31
0.0
  0
LINE
  5
FE
330
26
100
AcDbEntity
  8
0
 62
     0
100
AcDbLine
 10
-359.8576674071348
 20
124.5374491893554
 30
0.0
 11
-359.8576674071348
 21
124.5374491893554
 31
0.0
  0
LINE
  5
FF
330
26
100
AcDbEntity
  8
0
 62
     0
100
AcDbLine
 10
-363.257667407135
 20
124.5374491893554
 30
0.0
 11
-363.257667407135
 21
124.5374491893554
 31
0.0
  0
LINE
  5
100
330
26
100
AcDbEntity
  8
0
 62
     0
100
AcDbLine
 10
-363.057667407135
 20
124.5374491893554
 30
0.0
 11
-363.057667407135
 21
124.5374491893554
 31
0.0
  0
LINE
  5
101
330
26
100
AcDbEntity
  8
0
 62
     0
100
AcDbLine
 10
-361.0576674071351
 20
124.5374491893554
 30
0.0
 11
-361.0576674071351
 21
124.5374491893554
 31
0.0
  0
LINE
  5
102
330
26
100
AcDbEntity
  8
0
 62
     0
100
AcDbLine
 10
-360.8576674071351
 20
124.5374491893554
 30
0.0
 11
-360.8576674071351
 21
124.5374491893554
 31
0.0
  0
LINE
  5
103
330
26
100
AcDbEntity
  8
0
 62
     0
100
AcDbLine
 10
-362.457667407135
 20
124.5374491893554
 30
0.0
 11
-362.457667407135
 21
124.5374491893554
 31
0.0
  0
LINE
  5
104
330
26
100
AcDbEntity
  8
0
 62
     0
100
AcDbLine
 10
-362.257667407135
 20
124.5374491893554
 30
0.0
 11
-362.257667407135
 21
124.5374491893554
 31
0.0
  0
LINE
  5
105
330
26
100
AcDbEntity
  8
0
 62
     0
100
AcDbLine
 10
-367.157667407135
 20
124.3374491893554
 30
0.0
 11
-367.157667407135
 21
124.3374491893554
 31
0.0
  0
LINE
  5
106
330
26
100
AcDbEntity
  8
0
 62
     0
100
AcDbLine
 10
-356.7576674071349
 20
124.3374491893554
 30
0.0
 11
-356.7576674071349
 21
124.3374491893554
 31
0.0
  0
LINE
  5
107
330
26
100
AcDbEntity
  8
0
 62
     0
100
AcDbLine
 10
-356.5576674071349
 20
124.3374491893554
 30
0.0
 11
-356.5576674071349
 21
124.3374491893554
 31
0.0
  0
LINE
  5
108
330
26
100
AcDbEntity
  8
0
 62
     0
100
AcDbLine
 10
-365.5576674071348
 20
124.3374491893554
 30
0.0
 11
-365.5576674071348
 21
124.3374491893554
 31
0.0
  0
LINE
  5
109
330
26
100
AcDbEntity
  8
0
 62
     0
100
AcDbLine
 10
-365.3576674071348
 20
124.3374491893554
 30
0.0
 11
-365.3576674071348
 21
124.3374491893554
 31
0.0
  0
LINE
  5
10A
330
26
100
AcDbEntity
  8
0
 62
     0
100
AcDbLine
 10
-358.7576674071349
 20
124.3374491893554
 30
0.0
 11
-358.7576674071349
 21
124.3374491893554
 31
0.0
  0
LINE
  5
10B
330
26
100
AcDbEntity
  8
0
 62
     0
100
AcDbLine
 10
-358.5576674071349
 20
124.3374491893554
 30
0.0
 11
-358.5576674071349
 21
124.3374491893554
 31
0.0
  0
LINE
  5
10C
330
26
100
AcDbEntity
  8
0
 62
     0
100
AcDbLine
 10
-364.7576674071349
 20
124.3374491893554
 30
0.0
 11
-364.7576674071349
 21
124.3374491893554
 31
0.0
  0
LINE
  5
10D
330
26
100
AcDbEntity
  8
0
 62
     0
100
AcDbLine
 10
-364.5576674071349
 20
124.3374491893554
 30
0.0
 11
-364.5576674071349
 21
124.3374491893554
 31
0.0
  0
LINE
  5
10E
330
26
100
AcDbEntity
  8
0
 62
     0
100
AcDbLine
 10
-364.357667407135
 20
124.3374491893554
 30
0.0
 11
-364.357667407135
 21
124.3374491893554
 31
0.0
  0
LINE
  5
10F
330
26
100
AcDbEntity
  8
0
 62
     0
100
AcDbLine
 10
-364.1576674071349
 20
124.3374491893554
 30
0.0
 11
-364.1576674071349
 21
124.3374491893554
 31
0.0
  0
LINE
  5
110
330
26
100
AcDbEntity
  8
0
 62
     0
100
AcDbLine
 10
-363.957667407135
 20
124.3374491893554
 30
0.0
 11
-363.957667407135
 21
124.3374491893554
 31
0.0
  0
LINE
  5
111
330
26
100
AcDbEntity
  8
0
 62
     0
100
AcDbLine
 10
-363.757667407135
 20
124.3374491893554
 30
0.0
 11
-363.757667407135
 21
124.3374491893554
 31
0.0
  0
LINE
  5
112
330
26
100
AcDbEntity
  8
0
 62
     0
100
AcDbLine
 10
-363.557667407135
 20
124.3374491893554
 30
0.0
 11
-363.557667407135
 21
124.3374491893554
 31
0.0
  0
LINE
  5
113
330
26
100
AcDbEntity
  8
0
 62
     0
100
AcDbLine
 10
-363.357667407135
 20
124.3374491893554
 30
0.0
 11
-363.357667407135
 21
124.3374491893554
 31
0.0
  0
LINE
  5
114
330
26
100
AcDbEntity
  8
0
 62
     0
100
AcDbLine
 10
-363.157667407135
 20
124.3374491893554
 30
0.0
 11
-363.157667407135
 21
124.3374491893554
 31
0.0
  0
LINE
  5
115
330
26
100
AcDbEntity
  8
0
 62
     0
100
AcDbLine
 10
-360.1576674071347
 20
124.3374491893554
 30
0.0
 11
-360.1576674071347
 21
124.3374491893554
 31
0.0
  0
LINE
  5
116
330
26
100
AcDbEntity
  8
0
 62
     0
100
AcDbLine
 10
-359.9576674071347
 20
124.3374491893554
 30
0.0
 11
-359.9576674071347
 21
124.3374491893554
 31
0.0
  0
LINE
  5
117
330
26
100
AcDbEntity
  8
0
 62
     0
100
AcDbLine
 10
-362.3576674071349
 20
124.3374491893554
 30
0.0
 11
-362.3576674071349
 21
124.3374491893554
 31
0.0
  0
LINE
  5
118
330
26
100
AcDbEntity
  8
0
 62
     0
100
AcDbLine
 10
-362.1576674071349
 20
124.3374491893554
 30
0.0
 11
-362.1576674071349
 21
124.3374491893554
 31
0.0
  0
LINE
  5
119
330
26
100
AcDbEntity
  8
0
 62
     0
100
AcDbLine
 10
-360.957667407135
 20
124.3374491893554
 30
0.0
 11
-360.957667407135
 21
124.3374491893554
 31
0.0
  0
LINE
  5
11A
330
26
100
AcDbEntity
  8
0
 62
     0
100
AcDbLine
 10
-360.757667407135
 20
124.3374491893554
 30
0.0
 11
-360.757667407135
 21
124.3374491893554
 31
0.0
  0
LINE
  5
11B
330
26
100
AcDbEntity
  8
0
 62
     0
100
AcDbLine
 10
-367.2576674071349
 20
124.1374491893554
 30
0.0
 11
-367.2576674071349
 21
124.1374491893554
 31
0.0
  0
LINE
  5
11C
330
26
100
AcDbEntity
  8
0
 62
     0
100
AcDbLine
 10
-367.0576674071349
 20
124.1374491893554
 30
0.0
 11
-367.0576674071349
 21
124.1374491893554
 31
0.0
  0
LINE
  5
11D
330
26
100
AcDbEntity
  8
0
 62
     0
100
AcDbLine
 10
-356.857667407135
 20
124.1374491893554
 30
0.0
 11
-356.857667407135
 21
124.1374491893554
 31
0.0
  0
LINE
  5
11E
330
26
100
AcDbEntity
  8
0
 62
     0
100
AcDbLine
 10
-356.657667407135
 20
124.1374491893554
 30
0.0
 11
-356.657667407135
 21
124.1374491893554
 31
0.0
  0
LINE
  5
11F
330
26
100
AcDbEntity
  8
0
 62
     0
100
AcDbLine
 10
-356.457667407135
 20
124.1374491893554
 30
0.0
 11
-356.457667407135
 21
124.1374491893554
 31
0.0
  0
LINE
  5
120
330
26
100
AcDbEntity
  8
0
 62
     0
100
AcDbLine
 10
-365.6576674071349
 20
124.1374491893554
 30
0.0
 11
-365.6576674071349
 21
124.1374491893554
 31
0.0
  0
LINE
  5
121
330
26
100
AcDbEntity
  8
0
 62
     0
100
AcDbLine
 10
-365.4576674071349
 20
124.1374491893554
 30
0.0
 11
-365.4576674071349
 21
124.1374491893554
 31
0.0
  0
LINE
  5
122
330
26
100
AcDbEntity
  8
0
 62
     0
100
AcDbLine
 10
-358.657667407135
 20
124.1374491893554
 30
0.0
 11
-358.657667407135
 21
124.1374491893554
 31
0.0
  0
LINE
  5
123
330
26
100
AcDbEntity
  8
0
 62
     0
100
AcDbLine
 10
-358.457667407135
 20
124.1374491893554
 30
0.0
 11
-358.457667407135
 21
124.1374491893554
 31
0.0
  0
LINE
  5
124
330
26
100
AcDbEntity
  8
0
 62
     0
100
AcDbLine
 10
-364.6576674071351
 20
124.1374491893554
 30
0.0
 11
-364.6576674071351
 21
124.1374491893554
 31
0.0
  0
LINE
  5
125
330
26
100
AcDbEntity
  8
0
 62
     0
100
AcDbLine
 10
-364.4576674071351
 20
124.1374491893554
 30
0.0
 11
-364.4576674071351
 21
124.1374491893554
 31
0.0
  0
LINE
  5
126
330
26
100
AcDbEntity
  8
0
 62
     0
100
AcDbLine
 10
-364.2576674071351
 20
124.1374491893554
 30
0.0
 11
-364.2576674071351
 21
124.1374491893554
 31
0.0
  0
LINE
  5
127
330
26
100
AcDbEntity
  8
0
 62
     0
100
AcDbLine
 10
-364.0576674071351
 20
124.1374491893554
 30
0.0
 11
-364.0576674071351
 21
124.1374491893554
 31
0.0
  0
LINE
  5
128
330
26
100
AcDbEntity
  8
0
 62
     0
100
AcDbLine
 10
-363.8576674071351
 20
124.1374491893554
 30
0.0
 11
-363.8576674071351
 21
124.1374491893554
 31
0.0
  0
LINE
  5
129
330
26
100
AcDbEntity
  8
0
 62
     0
100
AcDbLine
 10
-363.6576674071351
 20
124.1374491893554
 30
0.0
 11
-363.6576674071351
 21
124.1374491893554
 31
0.0
  0
LINE
  5
12A
330
26
100
AcDbEntity
  8
0
 62
     0
100
AcDbLine
 10
-363.4576674071352
 20
124.1374491893554
 30
0.0
 11
-363.4576674071352
 21
124.1374491893554
 31
0.0
  0
LINE
  5
12B
330
26
100
AcDbEntity
  8
0
 62
     0
100
AcDbLine
 10
-363.2576674071352
 20
124.1374491893554
 30
0.0
 11
-363.2576674071352
 21
124.1374491893554
 31
0.0
  0
LINE
  5
12C
330
26
100
AcDbEntity
  8
0
 62
     0
100
AcDbLine
 10
-360.0576674071351
 20
124.1374491893554
 30
0.0
 11
-360.0576674071351
 21
124.1374491893554
 31
0.0
  0
LINE
  5
12D
330
26
100
AcDbEntity
  8
0
 62
     0
100
AcDbLine
 10
-359.8576674071351
 20
124.1374491893554
 30
0.0
 11
-359.8576674071351
 21
124.1374491893554
 31
0.0
  0
LINE
  5
12E
330
26
100
AcDbEntity
  8
0
 62
     0
100
AcDbLine
 10
-362.457667407135
 20
124.1374491893554
 30
0.0
 11
-362.457667407135
 21
124.1374491893554
 31
0.0
  0
LINE
  5
12F
330
26
100
AcDbEntity
  8
0
 62
     0
100
AcDbLine
 10
-362.257667407135
 20
124.1374491893554
 30
0.0
 11
-362.257667407135
 21
124.1374491893554
 31
0.0
  0
LINE
  5
130
330
26
100
AcDbEntity
  8
0
 62
     0
100
AcDbLine
 10
-361.0576674071349
 20
124.1374491893554
 30
0.0
 11
-361.0576674071349
 21
124.1374491893554
 31
0.0
  0
LINE
  5
131
330
26
100
AcDbEntity
  8
0
 62
     0
100
AcDbLine
 10
-360.8576674071349
 20
124.1374491893554
 30
0.0
 11
-360.8576674071349
 21
124.1374491893554
 31
0.0
  0
LINE
  5
132
330
26
100
AcDbEntity
  8
0
 62
     0
100
AcDbLine
 10
-367.1576674071349
 20
123.9374491893554
 30
0.0
 11
-367.1576674071349
 21
123.9374491893554
 31
0.0
  0
LINE
  5
133
330
26
100
AcDbEntity
  8
0
 62
     0
100
AcDbLine
 10
-366.9576674071349
 20
123.9374491893554
 30
0.0
 11
-366.9576674071349
 21
123.9374491893554
 31
0.0
  0
LINE
  5
134
330
26
100
AcDbEntity
  8
0
 62
     0
100
AcDbLine
 10
-366.7576674071349
 20
123.9374491893554
 30
0.0
 11
-366.7576674071349
 21
123.9374491893554
 31
0.0
  0
LINE
  5
135
330
26
100
AcDbEntity
  8
0
 62
     0
100
AcDbLine
 10
-356.9576674071348
 20
123.9374491893554
 30
0.0
 11
-356.9576674071348
 21
123.9374491893554
 31
0.0
  0
LINE
  5
136
330
26
100
AcDbEntity
  8
0
 62
     0
100
AcDbLine
 10
-356.7576674071348
 20
123.9374491893554
 30
0.0
 11
-356.7576674071348
 21
123.9374491893554
 31
0.0
  0
LINE
  5
137
330
26
100
AcDbEntity
  8
0
 62
     0
100
AcDbLine
 10
-356.5576674071348
 20
123.9374491893554
 30
0.0
 11
-356.5576674071348
 21
123.9374491893554
 31
0.0
  0
LINE
  5
138
330
26
100
AcDbEntity
  8
0
 62
     0
100
AcDbLine
 10
-365.957667407135
 20
123.9374491893554
 30
0.0
 11
-365.957667407135
 21
123.9374491893554
 31
0.0
  0
LINE
  5
139
330
26
100
AcDbEntity
  8
0
 62
     0
100
AcDbLine
 10
-365.757667407135
 20
123.9374491893554
 30
0.0
 11
-365.757667407135
 21
123.9374491893554
 31
0.0
  0
LINE
  5
13A
330
26
100
AcDbEntity
  8
0
 62
     0
100
AcDbLine
 10
-365.557667407135
 20
123.9374491893554
 30
0.0
 11
-365.557667407135
 21
123.9374491893554
 31
0.0
  0
LINE
  5
13B
330
26
100
AcDbEntity
  8
0
 62
     0
100
AcDbLine
 10
-358.7576674071349
 20
123.9374491893554
 30
0.0
 11
-358.7576674071349
 21
123.9374491893554
 31
0.0
  0
LINE
  5
13C
330
26
100
AcDbEntity
  8
0
 62
     0
100
AcDbLine
 10
-358.5576674071349
 20
123.9374491893554
 30
0.0
 11
-358.5576674071349
 21
123.9374491893554
 31
0.0
  0
LINE
  5
13D
330
26
100
AcDbEntity
  8
0
 62
     0
100
AcDbLine
 10
-364.7576674071351
 20
123.9374491893554
 30
0.0
 11
-364.7576674071351
 21
123.9374491893554
 31
0.0
  0
LINE
  5
13E
330
26
100
AcDbEntity
  8
0
 62
     0
100
AcDbLine
 10
-364.557667407135
 20
123.9374491893554
 30
0.0
 11
-364.557667407135
 21
123.9374491893554
 31
0.0
  0
LINE
  5
13F
330
26
100
AcDbEntity
  8
0
 62
     0
100
AcDbLine
 10
-364.3576674071351
 20
123.9374491893554
 30
0.0
 11
-364.3576674071351
 21
123.9374491893554
 31
0.0
  0
LINE
  5
140
330
26
100
AcDbEntity
  8
0
 62
     0
100
AcDbLine
 10
-364.1576674071351
 20
123.9374491893554
 30
0.0
 11
-364.1576674071351
 21
123.9374491893554
 31
0.0
  0
LINE
  5
141
330
26
100
AcDbEntity
  8
0
 62
     0
100
AcDbLine
 10
-363.9576674071351
 20
123.9374491893554
 30
0.0
 11
-363.9576674071351
 21
123.9374491893554
 31
0.0
  0
LINE
  5
142
330
26
100
AcDbEntity
  8
0
 62
     0
100
AcDbLine
 10
-363.7576674071351
 20
123.9374491893554
 30
0.0
 11
-363.7576674071351
 21
123.9374491893554
 31
0.0
  0
LINE
  5
143
330
26
100
AcDbEntity
  8
0
 62
     0
100
AcDbLine
 10
-363.5576674071351
 20
123.9374491893554
 30
0.0
 11
-363.5576674071351
 21
123.9374491893554
 31
0.0
  0
LINE
  5
144
330
26
100
AcDbEntity
  8
0
 62
     0
100
AcDbLine
 10
-360.1576674071349
 20
123.9374491893554
 30
0.0
 11
-360.1576674071349
 21
123.9374491893554
 31
0.0
  0
LINE
  5
145
330
26
100
AcDbEntity
  8
0
 62
     0
100
AcDbLine
 10
-359.9576674071349
 20
123.9374491893554
 30
0.0
 11
-359.9576674071349
 21
123.9374491893554
 31
0.0
  0
LINE
  5
146
330
26
100
AcDbEntity
  8
0
 62
     0
100
AcDbLine
 10
-362.3576674071348
 20
123.9374491893554
 30
0.0
 11
-362.3576674071348
 21
123.9374491893554
 31
0.0
  0
LINE
  5
147
330
26
100
AcDbEntity
  8
0
 62
     0
100
AcDbLine
 10
-362.1576674071349
 20
123.9374491893554
 30
0.0
 11
-362.1576674071349
 21
123.9374491893554
 31
0.0
  0
LINE
  5
148
330
26
100
AcDbEntity
  8
0
 62
     0
100
AcDbLine
 10
-360.9576674071348
 20
123.9374491893554
 30
0.0
 11
-360.9576674071348
 21
123.9374491893554
 31
0.0
  0
LINE
  5
149
330
26
100
AcDbEntity
  8
0
 62
     0
100
AcDbLine
 10
-360.7576674071348
 20
123.9374491893554
 30
0.0
 11
-360.7576674071348
 21
123.9374491893554
 31
0.0
  0
LINE
  5
14A
330
26
100
AcDbEntity
  8
0
 62
     0
100
AcDbLine
 10
-367.0576674071352
 20
123.7374491893554
 30
0.0
 11
-367.0576674071352
 21
123.7374491893554
 31
0.0
  0
LINE
  5
14B
330
26
100
AcDbEntity
  8
0
 62
     0
100
AcDbLine
 10
-366.8576674071352
 20
123.7374491893554
 30
0.0
 11
-366.8576674071352
 21
123.7374491893554
 31
0.0
  0
LINE
  5
14C
330
26
100
AcDbEntity
  8
0
 62
     0
100
AcDbLine
 10
-366.6576674071352
 20
123.7374491893554
 30
0.0
 11
-366.6576674071352
 21
123.7374491893554
 31
0.0
  0
LINE
  5
14D
330
26
100
AcDbEntity
  8
0
 62
     0
100
AcDbLine
 10
-366.4576674071352
 20
123.7374491893554
 30
0.0
 11
-366.4576674071352
 21
123.7374491893554
 31
0.0
  0
LINE
  5
14E
330
26
100
AcDbEntity
  8
0
 62
     0
100
AcDbLine
 10
-366.2576674071352
 20
123.7374491893554
 30
0.0
 11
-366.2576674071352
 21
123.7374491893554
 31
0.0
  0
LINE
  5
14F
330
26
100
AcDbEntity
  8
0
 62
     0
100
AcDbLine
 10
-366.0576674071352
 20
123.7374491893554
 30
0.0
 11
-366.0576674071352
 21
123.7374491893554
 31
0.0
  0
LINE
  5
150
330
26
100
AcDbEntity
  8
0
 62
     0
100
AcDbLine
 10
-365.8576674071353
 20
123.7374491893554
 30
0.0
 11
-365.8576674071353
 21
123.7374491893554
 31
0.0
  0
LINE
  5
151
330
26
100
AcDbEntity
  8
0
 62
     0
100
AcDbLine
 10
-365.6576674071353
 20
123.7374491893554
 30
0.0
 11
-365.6576674071353
 21
123.7374491893554
 31
0.0
  0
LINE
  5
152
330
26
100
AcDbEntity
  8
0
 62
     0
100
AcDbLine
 10
-357.857667407135
 20
123.7374491893554
 30
0.0
 11
-357.857667407135
 21
123.7374491893554
 31
0.0
  0
LINE
  5
153
330
26
100
AcDbEntity
  8
0
 62
     0
100
AcDbLine
 10
-357.657667407135
 20
123.7374491893554
 30
0.0
 11
-357.657667407135
 21
123.7374491893554
 31
0.0
  0
LINE
  5
154
330
26
100
AcDbEntity
  8
0
 62
     0
100
AcDbLine
 10
-357.457667407135
 20
123.7374491893554
 30
0.0
 11
-357.457667407135
 21
123.7374491893554
 31
0.0
  0
LINE
  5
155
330
26
100
AcDbEntity
  8
0
 62
     0
100
AcDbLine
 10
-357.257667407135
 20
123.7374491893554
 30
0.0
 11
-357.257667407135
 21
123.7374491893554
 31
0.0
  0
LINE
  5
156
330
26
100
AcDbEntity
  8
0
 62
     0
100
AcDbLine
 10
-357.057667407135
 20
123.7374491893554
 30
0.0
 11
-357.057667407135
 21
123.7374491893554
 31
0.0
  0
LINE
  5
157
330
26
100
AcDbEntity
  8
0
 62
     0
100
AcDbLine
 10
-356.857667407135
 20
123.7374491893554
 30
0.0
 11
-356.857667407135
 21
123.7374491893554
 31
0.0
  0
LINE
  5
158
330
26
100
AcDbEntity
  8
0
 62
     0
100
AcDbLine
 10
-356.657667407135
 20
123.7374491893554
 30
0.0
 11
-356.657667407135
 21
123.7374491893554
 31
0.0
  0
LINE
  5
159
330
26
100
AcDbEntity
  8
0
 62
     0
100
AcDbLine
 10
-364.657667407135
 20
123.7374491893554
 30
0.0
 11
-364.657667407135
 21
123.7374491893554
 31
0.0
  0
LINE
  5
15A
330
26
100
AcDbEntity
  8
0
 62
     0
100
AcDbLine
 10
-364.457667407135
 20
123.7374491893554
 30
0.0
 11
-364.457667407135
 21
123.7374491893554
 31
0.0
  0
LINE
  5
15B
330
26
100
AcDbEntity
  8
0
 62
     0
100
AcDbLine
 10
-360.057667407135
 20
123.7374491893554
 30
0.0
 11
-360.057667407135
 21
123.7374491893554
 31
0.0
  0
LINE
  5
15C
330
26
100
AcDbEntity
  8
0
 62
     0
100
AcDbLine
 10
-359.857667407135
 20
123.7374491893554
 30
0.0
 11
-359.857667407135
 21
123.7374491893554
 31
0.0
  0
LINE
  5
15D
330
26
100
AcDbEntity
  8
0
 62
     0
100
AcDbLine
 10
-359.657667407135
 20
123.7374491893554
 30
0.0
 11
-359.657667407135
 21
123.7374491893554
 31
0.0
  0
LINE
  5
15E
330
26
100
AcDbEntity
  8
0
 62
     0
100
AcDbLine
 10
-359.457667407135
 20
123.7374491893554
 30
0.0
 11
-359.457667407135
 21
123.7374491893554
 31
0.0
  0
LINE
  5
15F
330
26
100
AcDbEntity
  8
0
 62
     0
100
AcDbLine
 10
-359.257667407135
 20
123.7374491893554
 30
0.0
 11
-359.257667407135
 21
123.7374491893554
 31
0.0
  0
LINE
  5
160
330
26
100
AcDbEntity
  8
0
 62
     0
100
AcDbLine
 10
-359.0576674071351
 20
123.7374491893554
 30
0.0
 11
-359.0576674071351
 21
123.7374491893554
 31
0.0
  0
LINE
  5
161
330
26
100
AcDbEntity
  8
0
 62
     0
100
AcDbLine
 10
-358.8576674071351
 20
123.7374491893554
 30
0.0
 11
-358.8576674071351
 21
123.7374491893554
 31
0.0
  0
LINE
  5
162
330
26
100
AcDbEntity
  8
0
 62
     0
100
AcDbLine
 10
-358.6576674071351
 20
123.7374491893554
 30
0.0
 11
-358.6576674071351
 21
123.7374491893554
 31
0.0
  0
LINE
  5
163
330
26
100
AcDbEntity
  8
0
 62
     0
100
AcDbLine
 10
-358.4576674071351
 20
123.7374491893554
 30
0.0
 11
-358.4576674071351
 21
123.7374491893554
 31
0.0
  0
LINE
  5
164
330
26
100
AcDbEntity
  8
0
 62
     0
100
AcDbLine
 10
-362.4576674071351
 20
123.7374491893554
 30
0.0
 11
-362.4576674071351
 21
123.7374491893554
 31
0.0
  0
LINE
  5
165
330
26
100
AcDbEntity
  8
0
 62
     0
100
AcDbLine
 10
-362.2576674071352
 20
123.7374491893554
 30
0.0
 11
-362.2576674071352
 21
123.7374491893554
 31
0.0
  0
LINE
  5
166
330
26
100
AcDbEntity
  8
0
 62
     0
100
AcDbLine
 10
-361.0576674071352
 20
123.7374491893554
 30
0.0
 11
-361.0576674071352
 21
123.7374491893554
 31
0.0
  0
LINE
  5
167
330
26
100
AcDbEntity
  8
0
 62
     0
100
AcDbLine
 10
-360.8576674071352
 20
123.7374491893554
 30
0.0
 11
-360.8576674071352
 21
123.7374491893554
 31
0.0
  0
LINE
  5
168
330
26
100
AcDbEntity
  8
0
 62
     0
100
AcDbLine
 10
-366.7576674071349
 20
123.5374491893554
 30
0.0
 11
-366.7576674071349
 21
123.5374491893554
 31
0.0
  0
LINE
  5
169
330
26
100
AcDbEntity
  8
0
 62
     0
100
AcDbLine
 10
-366.557667407135
 20
123.5374491893554
 30
0.0
 11
-366.557667407135
 21
123.5374491893554
 31
0.0
  0
LINE
  5
16A
330
26
100
AcDbEntity
  8
0
 62
     0
100
AcDbLine
 10
-366.357667407135
 20
123.5374491893554
 30
0.0
 11
-366.357667407135
 21
123.5374491893554
 31
0.0
  0
LINE
  5
16B
330
26
100
AcDbEntity
  8
0
 62
     0
100
AcDbLine
 10
-366.157667407135
 20
123.5374491893554
 30
0.0
 11
-366.157667407135
 21
123.5374491893554
 31
0.0
  0
LINE
  5
16C
330
26
100
AcDbEntity
  8
0
 62
     0
100
AcDbLine
 10
-365.957667407135
 20
123.5374491893554
 30
0.0
 11
-365.957667407135
 21
123.5374491893554
 31
0.0
  0
LINE
  5
16D
330
26
100
AcDbEntity
  8
0
 62
     0
100
AcDbLine
 10
-357.7576674071349
 20
123.5374491893554
 30
0.0
 11
-357.7576674071349
 21
123.5374491893554
 31
0.0
  0
LINE
  5
16E
330
26
100
AcDbEntity
  8
0
 62
     0
100
AcDbLine
 10
-357.5576674071349
 20
123.5374491893554
 30
0.0
 11
-357.5576674071349
 21
123.5374491893554
 31
0.0
  0
LINE
  5
16F
330
26
100
AcDbEntity
  8
0
 62
     0
100
AcDbLine
 10
-357.3576674071349
 20
123.5374491893554
 30
0.0
 11
-357.3576674071349
 21
123.5374491893554
 31
0.0
  0
LINE
  5
170
330
26
100
AcDbEntity
  8
0
 62
     0
100
AcDbLine
 10
-357.1576674071349
 20
123.5374491893554
 30
0.0
 11
-357.1576674071349
 21
123.5374491893554
 31
0.0
  0
LINE
  5
171
330
26
100
AcDbEntity
  8
0
 62
     0
100
AcDbLine
 10
-356.9576674071349
 20
123.5374491893554
 30
0.0
 11
-356.9576674071349
 21
123.5374491893554
 31
0.0
  0
LINE
  5
172
330
26
100
AcDbEntity
  8
0
 62
     0
100
AcDbLine
 10
-356.7576674071349
 20
123.5374491893554
 30
0.0
 11
-356.7576674071349
 21
123.5374491893554
 31
0.0
  0
LINE
  5
173
330
26
100
AcDbEntity
  8
0
 62
     0
100
AcDbLine
 10
-364.7576674071349
 20
123.5374491893554
 30
0.0
 11
-364.7576674071349
 21
123.5374491893554
 31
0.0
  0
LINE
  5
174
330
26
100
AcDbEntity
  8
0
 62
     0
100
AcDbLine
 10
-364.5576674071349
 20
123.5374491893554
 30
0.0
 11
-364.5576674071349
 21
123.5374491893554
 31
0.0
  0
LINE
  5
175
330
26
100
AcDbEntity
  8
0
 62
     0
100
AcDbLine
 10
-359.957667407135
 20
123.5374491893554
 30
0.0
 11
-359.957667407135
 21
123.5374491893554
 31
0.0
  0
LINE
  5
176
330
26
100
AcDbEntity
  8
0
 62
     0
100
AcDbLine
 10
-359.757667407135
 20
123.5374491893554
 30
0.0
 11
-359.757667407135
 21
123.5374491893554
 31
0.0
  0
LINE
  5
177
330
26
100
AcDbEntity
  8
0
 62
     0
100
AcDbLine
 10
-359.557667407135
 20
123.5374491893554
 30
0.0
 11
-359.557667407135
 21
123.5374491893554
 31
0.0
  0
LINE
  5
178
330
26
100
AcDbEntity
  8
0
 62
     0
100
AcDbLine
 10
-359.357667407135
 20
123.5374491893554
 30
0.0
 11
-359.357667407135
 21
123.5374491893554
 31
0.0
  0
LINE
  5
179
330
26
100
AcDbEntity
  8
0
 62
     0
100
AcDbLine
 10
-359.157667407135
 20
123.5374491893554
 30
0.0
 11
-359.157667407135
 21
123.5374491893554
 31
0.0
  0
LINE
  5
17A
330
26
100
AcDbEntity
  8
0
 62
     0
100
AcDbLine
 10
-358.957667407135
 20
123.5374491893554
 30
0.0
 11
-358.957667407135
 21
123.5374491893554
 31
0.0
  0
LINE
  5
17B
330
26
100
AcDbEntity
  8
0
 62
     0
100
AcDbLine
 10
-358.7576674071351
 20
123.5374491893554
 30
0.0
 11
-358.7576674071351
 21
123.5374491893554
 31
0.0
  0
LINE
  5
17C
330
26
100
AcDbEntity
  8
0
 62
     0
100
AcDbLine
 10
-358.5576674071351
 20
123.5374491893554
 30
0.0
 11
-358.5576674071351
 21
123.5374491893554
 31
0.0
  0
LINE
  5
17D
330
26
100
AcDbEntity
  8
0
 62
     0
100
AcDbLine
 10
-362.3576674071351
 20
123.5374491893554
 30
0.0
 11
-362.3576674071351
 21
123.5374491893554
 31
0.0
  0
LINE
  5
17E
330
26
100
AcDbEntity
  8
0
 62
     0
100
AcDbLine
 10
-362.1576674071351
 20
123.5374491893554
 30
0.0
 11
-362.1576674071351
 21
123.5374491893554
 31
0.0
  0
LINE
  5
17F
330
26
100
AcDbEntity
  8
0
 62
     0
100
AcDbLine
 10
-360.9576674071351
 20
123.5374491893554
 30
0.0
 11
-360.9576674071351
 21
123.5374491893554
 31
0.0
  0
LINE
  5
180
330
26
100
AcDbEntity
  8
0
 62
     0
100
AcDbLine
 10
-360.7576674071351
 20
123.5374491893554
 30
0.0
 11
-360.7576674071351
 21
123.5374491893554
 31
0.0
  0
ENDBLK
  5
181
330
26
100
AcDbEntity
  8
0
100
AcDbBlockEnd
  0
ENDSEC
  0
SECTION
  2
ENTITIES
  0
LINE
  5
270
330
20
100
AcDbEntity
  8
0
100
AcDbLine
 10
1854.688301466919
 20
754.517472832726
 30
0.0
 11
1854.688301466919
 21
738.7417327030263
 31
0.0
  0
LWPOLYLINE
  5
276
330
20
100
AcDbEntity
  8
0
100
AcDbPolyline
 90
        3
 70
     0
 43
0.0
 10
1889.529909598211
 20
820.1332402909253
 10
1876.642327747912
 20
790.0412850859283
 10
1903.852185405396
 20
790.0412850859283
  0
TEXT
  5
27B
330
20
100
AcDbEntity
  8
0
100
AcDbText
 10
1889.395042548253
 20
790.9412850859284
 30
0.0
 40
3.0
  1
4-φ10
  7
SIMPLEX
 72
     2
 11
1903.852185405396
 21
790.9412850859284
 31
0.0
100
AcDbText
  0
LINE
  5
27C
330
20
100
AcDbEntity
  8
0
100
AcDbLine
 10
1896.009909598211
 20
820.1332402909253
 30
0.0
 11
1925.365128369751
 21
820.1332402909253
 31
0.0
  0
LINE
  5
27D
330
20
100
AcDbEntity
  8
0
100
AcDbLine
 10
1889.529909598211
 20
870.6056303201227
 30
0.0
 11
1960.030400615202
 21
870.6056303201227
 31
0.0
  0
LINE
  5
27F
330
20
100
AcDbEntity
  8
0
100
AcDbLine
 10
1928.876252292809
 20
1085.853565708206
 30
0.0
 11
1894.449368175138
 21
1044.825202879147
 31
0.0
  0
LINE
  5
280
330
20
100
AcDbEntity
  8
0
100
AcDbLine
 10
1931.174385622166
 20
1083.925202879147
 30
0.0
 11
1898.365590043134
 21
1044.825202879147
 31
0.0
  0
LINE
  5
283
330
20
100
AcDbEntity
  8
0
100
AcDbLine
 10
1890.673904265059
 20
1042.825693896137
 30
0.0
 11
1900.746040227545
 21
1042.825693896137
 31
0.0
  0
ARC
  5
284
330
20
100
AcDbEntity
  8
0
100
AcDbCircle
 10
1899.673904265059
 20
1036.825202879147
 30
0.0
 40
10.0
100
AcDbArc
 50
180.0
 51
270.0000000000011
  0
LINE
  5
285
330
20
100
AcDbEntity
  8
0
100
AcDbLine
 10
1889.673904265059
 20
1043.825202879147
 30
0.0
 11
1901.584727846547
 21
1043.825202879147
 31
0.0
  0
ARC
  5
288
330
20
100
AcDbEntity
  8
0
100
AcDbCircle
 10
1939.673904265059
 20
1067.325202879147
 30
0.0
 40
50.0
100
AcDbArc
 50
89.99999999999992
 51
180.0
  0
TEXT
  5
290
330
20
100
AcDbEntity
  8
0
100
AcDbText
 10
1875.465128369751
 20
833.3118117194967
 30
0.0
 40
3.0
  1
35.5
 50
90.0
  7
SIMPLEX
 72
     1
 11
1875.465128369751
 21
837.8832402909253
 31
0.0
100
AcDbText
  0
LINE
  5
291
330
20
100
AcDbEntity
  8
0
100
AcDbLine
 10
1876.365128369751
 20
855.6332402909253
 30
0.0
 11
1876.365128369751
 21
820.1332402909253
 31
0.0
  0
LINE
  5
292
330
20
100
AcDbEntity
  8
0
100
AcDbLine
 10
1826.993800678964
 20
754.517472832726
 30
0.0
 11
1854.688301466919
 21
754.517472832726
 31
0.0
  0
INSERT
  5
296
330
20
100
AcDbEntity
  8
0
100
AcDbBlockReference
  2
SUG-AR01
 10
1887.955158471894
 20
816.4562634226047
 30
0.0
 41
0.5
 42
0.5
 43
0.5
 50
246.8158405399897
  0
LINE
  5
298
330
20
100
AcDbEntity
  8
0
100
AcDbLine
 10
1883.049909598211
 20
820.1332402909253
 30
0.0
 11
1875.365128369751
 21
820.1332402909253
 31
0.0
  0
INSERT
  5
299
330
20
100
AcDbEntity
  8
0
100
AcDbBlockReference
  2
SUG-AR01
 10
1876.365128369751
 20
820.1332402909253
 30
0.0
 41
0.5
 42
0.5
 43
0.5
 50
90.0
  0
CIRCLE
  5
29A
330
20
100
AcDbEntity
  8
0
100
AcDbCircle
 10
1889.529909598211
 20
820.1332402909253
 30
0.0
 40
4.0
  0
LINE
  5
29B
330
20
100
AcDbEntity
  8
0
100
AcDbLine
 10
1884.549909598211
 20
820.1332402909253
 30
0.0
 11
1894.509909598211
 21
820.1332402909253
 31
0.0
  0
LINE
  5
29C
330
20
100
AcDbEntity
  8
0
100
AcDbLine
 10
1889.529909598211
 20
810.2952127077893
 30
0.0
 11
1889.529909598211
 21
830.2617165639599
 31
0.0
  0
LINE
  5
29D
330
20
100
AcDbEntity
  8
0
100
AcDbLine
 10
1883.229909598211
 20
855.6332402909253
 30
0.0
 11
1875.365128369751
 21
855.6332402909253
 31
0.0
  0
INSERT
  5
29E
330
20
100
AcDbEntity
  8
0
100
AcDbBlockReference
  2
SUG-AR01
 10
1876.365128369751
 20
855.6332402909253
 30
0.0
 41
0.5
 42
0.5
 43
0.5
 50
270.0
  0
LINE
  5
2A0
330
20
100
AcDbEntity
  8
0
100
AcDbLine
 10
1889.529909598211
 20
862.5332402909249
 30
0.0
 11
1889.529909598211
 21
871.6056303201227
 31
0.0
  0
CIRCLE
  5
2A1
330
20
100
AcDbEntity
  8
0
100
AcDbCircle
 10
1889.529909598211
 20
855.6332402909253
 30
0.0
 40
4.0
  0
LINE
  5
2A2
330
20
100
AcDbEntity
  8
0
100
AcDbLine
 10
1884.729909598211
 20
855.6332402909253
 30
0.0
 11
1894.329909598211
 21
855.6332402909253
 31
0.0
  0
INSERT
  5
2A3
330
20
100
AcDbEntity
  8
0
100
AcDbBlockReference
  2
SUG-AR01
 10
1889.529909598211
 20
870.6056303201227
 30
0.0
 41
0.5
 42
0.5
 43
0.5
  0
LINE
  5
2A5
330
20
100
AcDbEntity
  8
0
100
AcDbLine
 10
1889.529909598211
 20
861.0332402909248
 30
0.0
 11
1889.529909598211
 21
850.2332402909248
 31
0.0
  0
LINE
  5
2B4
330
20
100
AcDbEntity
  8
0
100
AcDbLine
 10
1887.673904265059
 20
1048.425439612072
 30
0.0
 11
1887.673904265059
 21
1061.425439612072
 31
0.0
  0
LINE
  5
2B5
330
20
100
AcDbEntity
  8
0
100
AcDbLine
 10
1889.673904265059
 20
1041.325202879147
 30
0.0
 11
1889.673904265058
 21
1067.825202879147
 31
0.0
  0
LINE
  5
2B6
330
20
100
AcDbEntity
  8
0
100
AcDbLine
 10
1874.455817422763
 20
1059.42543961207
 30
0.0
 11
1875.455817422763
 21
1060.42543961207
 31
0.0
  0
LINE
  5
2B7
330
20
100
AcDbEntity
  8
0
100
AcDbLine
 10
1881.322111586184
 20
1060.425439612073
 30
0.0
 11
1875.455817422763
 21
1060.42543961207
 31
0.0
  0
LINE
  5
2B8
330
20
100
AcDbEntity
  8
0
100
AcDbLine
 10
1887.67390426506
 20
1060.425439612072
 30
0.0
 11
1882.855604036311
 21
1060.425439612073
 31
0.0
  0
LINE
  5
2BB
330
20
100
AcDbEntity
  8
0
100
AcDbLine
 10
1889.673904265059
 20
1041.825693896137
 30
0.0
 11
1889.673904265059
 21
1036.825202879147
 31
0.0
  0
ARC
  5
2BC
330
20
100
AcDbEntity
  8
0
100
AcDbCircle
 10
1890.673904265059
 20
1041.825693896137
 30
0.0
 40
1.0
100
AcDbArc
 50
90.0
 51
180.0
  0
LINE
  5
2BD
330
20
100
AcDbEntity
  8
0
100
AcDbLine
 10
1887.673904265059
 20
1048.425439612072
 30
0.0
 11
1889.673904265059
 21
1048.425439612072
 31
0.0
  0
LINE
  5
2BF
330
20
100
AcDbEntity
  8
0
100
AcDbLine
 10
1874.455817422763
 20
1050.425439612072
 30
0.0
 11
1875.455817422763
 21
1049.425439612072
 31
0.0
  0
LINE
  5
2C0
330
20
100
AcDbEntity
  8
0
100
AcDbLine
 10
1881.175669076434
 20
1049.425439612072
 30
0.0
 11
1875.455817422763
 21
1049.425439612072
 31
0.0
  0
LINE
  5
2C1
330
20
100
AcDbEntity
  8
0
100
AcDbLine
 10
1887.673904265061
 20
1049.425439612072
 30
0.0
 11
1882.70916152656
 21
1049.425439612072
 31
0.0
  0
LWPOLYLINE
  5
2C3
330
20
100
AcDbEntity
  8
0
100
AcDbPolyline
 90
        3
 70
     0
 43
0.0
 10
1881.322111586184
 20
1060.425439612073
 42
-0.1238421924403745
 10
1881.521387272797
 20
1052.947880387193
 42
0.061051758053738
 10
1881.175669076434
 20
1049.425439612072
 42
0.8012539660419875
  0
LWPOLYLINE
  5
2C8
330
20
100
AcDbEntity
  8
0
100
AcDbPolyline
 90
        3
 70
     0
 43
0.0
 10
1882.855604036311
 20
1060.425439612073
 42
-0.1238421924403745
 10
1883.054879722923
 20
1052.947880387193
 42
0.061051758053738
 10
1882.70916152656
 20
1049.425439612072
 42
0.8012539660419875
  0
LINE
  5
2CD
330
20
100
AcDbEntity
  8
0
100
AcDbLine
 10
1875.455817422763
 20
1060.42543961207
 30
0.0
 11
1875.455817422763
 21
1049.425439612072
 31
0.0
  0
LINE
  5
2CE
330
20
100
AcDbEntity
  8
0
100
AcDbLine
 10
1874.455817422763
 20
1059.42543961207
 30
0.0
 11
1874.455817422763
 21
1050.425439612072
 31
0.0
  0
LINE
  5
2D0
330
20
100
AcDbEntity
  8
0
100
AcDbLine
 10
1887.673904265059
 20
1061.425439612072
 30
0.0
 11
1889.673904265059
 21
1061.425439612072
 31
0.0
  0
LINE
  5
2DD
330
20
100
AcDbEntity
  8
0
100
AcDbLine
 10
2386.910117467023
 20
1105.642542960806
 30
0.0
 11
2386.910117467023
 21
1097.642542960806
 31
0.0
  0
LINE
  5
2DE
330
20
100
AcDbEntity
  8
0
100
AcDbLine
 10
2388.160117467023
 20
1104.392542960805
 30
0.0
 11
2386.910117467023
 21
1105.642542960806
 31
0.0
  0
LINE
  5
2DF
330
20
100
AcDbEntity
  8
0
100
AcDbLine
 10
2338.55069492413
 20
1105.642542960806
 30
0.0
 11
2338.55069492413
 21
1097.642542960806
 31
0.0
  0
LINE
  5
2E0
330
20
100
AcDbEntity
  8
0
100
AcDbLine
 10
2338.160117467023
 20
1104.966042960806
 30
0.0
 11
2338.55069492413
 21
1105.642542960806
 31
0.0
  0
LINE
  5
2E1
330
20
100
AcDbEntity
  8
T
100
AcDbLine
 10
2327.201858388193
 20
1106.397804425232
 30
0.0
 11
2327.201858388193
 21
1096.789477297593
 31
0.0
  0
LINE
  5
2E2
330
20
100
AcDbEntity
  8
0
100
AcDbLine
 10
2273.805657982312
 20
1107.183439433226
 30
0.0
 11
2267.305657982312
 21
1103.430662683493
 31
0.0
  0
LINE
  5
2E3
330
20
100
AcDbEntity
  8
0
100
AcDbLine
 10
2273.805657982312
 20
1107.183439433226
 30
0.0
 11
2280.305657982312
 21
1103.430662683493
 31
0.0
  0
CIRCLE
  5
2E4
330
20
100
AcDbEntity
  8
0
100
AcDbCircle
 10
2273.805657982312
 20
1099.708439433226
 30
0.0
 40
6.5
  0
LINE
  5
2E5
330
20
100
AcDbEntity
  8
T
100
AcDbLine
 10
2273.805657982312
 20
1089.86169164303
 30
0.0
 11
2273.805657982312
 21
1109.468365099487
 31
0.0
  0
LINE
  5
2E6
330
20
100
AcDbEntity
  8
0
100
AcDbLine
 10
2295.087682142402
 20
1093.208439433225
 30
0.0
 11
2295.087682142402
 21
1106.208439433225
 31
0.0
  0
LINE
  5
2E7
330
20
100
AcDbEntity
  8
0
100
AcDbLine
 10
2288.587682142402
 20
1093.208439433225
 30
0.0
 11
2288.587682142402
 21
1106.208439433225
 31
0.0
  0
LINE
  5
2E8
330
20
100
AcDbEntity
  8
0
100
AcDbLine
 10
2174.570068587826
 20
1114.325238586804
 30
0.0
 11
2174.570068587826
 21
1101.325238586804
 31
0.0
  0
CIRCLE
  5
2E9
330
20
100
AcDbEntity
  8
0
100
AcDbCircle
 10
2181.570068587825
 20
1107.325238586803
 30
0.0
 40
3.625
  0
CIRCLE
  5
2EA
330
20
100
AcDbEntity
  8
0
100
AcDbCircle
 10
2181.570068587825
 20
1107.325238586803
 30
0.0
 40
4.0
  0
LINE
  5
2EB
330
20
100
AcDbEntity
  8
0
100
AcDbLine
 10
2181.570068587825
 20
1103.025238586804
 30
0.0
 11
2181.570068587825
 21
1112.625238586804
 31
0.0
  0
LINE
  5
2EC
330
20
100
AcDbEntity
  8
0
100
AcDbLine
 10
2181.570068587825
 20
1113.558025002438
 30
0.0
 11
2181.570068587825
 21
1103.000403860387
 31
0.0
  0
LINE
  5
2ED
330
20
100
AcDbEntity
  8
T
100
AcDbLine
 10
2181.570068587825
 20
1102.425238586803
 30
0.0
 11
2181.570068587825
 21
1113.225238586804
 31
0.0
  0
CIRCLE
  5
2EE
330
20
100
AcDbEntity
  8
0
100
AcDbCircle
 10
2146.070068587826
 20
1107.325238586803
 30
0.0
 40
3.625
  0
CIRCLE
  5
2EF
330
20
100
AcDbEntity
  8
0
100
AcDbCircle
 10
2146.070068587826
 20
1107.325238586803
 30
0.0
 40
4.0
  0
LINE
  5
2F0
330
20
100
AcDbEntity
  8
0
100
AcDbLine
 10
2146.070068587826
 20
1103.025238586804
 30
0.0
 11
2146.070068587826
 21
1112.625238586804
 31
0.0
  0
LINE
  5
2F1
330
20
100
AcDbEntity
  8
0
100
AcDbLine
 10
2146.070068587826
 20
1103.025238586804
 30
0.0
 11
2146.070068587826
 21
1112.625238586804
 31
0.0
  0
LINE
  5
2F2
330
20
100
AcDbEntity
  8
T
100
AcDbLine
 10
2146.070068587826
 20
1112.206603229623
 30
0.0
 11
2146.070068587826
 21
1102.840973929644
 31
0.0
  0
LINE
  5
2F3
330
20
100
AcDbEntity
  8
0
100
AcDbLine
 10
2153.070068587826
 20
1114.325238586804
 30
0.0
 11
2153.070068587825
 21
1101.325238586804
 31
0.0
  0
LINE
  5
2F4
330
20
100
AcDbEntity
  8
0
100
AcDbLine
 10
2136.069587230717
 20
1091.325001853889
 30
0.0
 11
2136.069587230717
 21
1107.325238586803
 31
0.0
  0
ARC
  5
2F5
330
20
100
AcDbEntity
  8
0
100
AcDbCircle
 10
2172.570068587825
 20
1067.325238586803
 30
0.0
 40
50.00000000000003
100
AcDbArc
 50
359.9999999999993
 51
89.99999999999998
  0
LINE
  5
2F8
330
20
100
AcDbEntity
  8
0
100
AcDbLine
 10
2074.139039871518
 20
1117.325238586805
 30
0.0
 11
2074.13903987152
 21
1101.325238586805
 31
0.0
  0
ARC
  5
2F9
330
20
100
AcDbEntity
  8
0
100
AcDbCircle
 10
2056.159450160192
 20
1097.325238586804
 30
0.0
 40
20.0
100
AcDbArc
 50
90.00000000000197
 51
168.4630409671871
  0
LINE
  5
302
330
20
100
AcDbEntity
  8
0
100
AcDbLine
 10
1976.174385622166
 20
1091.325202879148
 30
0.0
 11
1976.174385622166
 21
1107.825202879147
 31
0.0
  0
CIRCLE
  5
304
330
20
100
AcDbEntity
  8
0
100
AcDbCircle
 10
2327.201858388193
 20
1101.642542960806
 30
0.0
 40
4.0
  0
CIRCLE
  5
30B
330
20
100
AcDbEntity
  8
0
100
AcDbCircle
 10
2327.201858388193
 20
1053.263013730079
 30
0.0
 40
4.0
  0
CIRCLE
  5
30D
330
20
100
AcDbEntity
  8
0
100
AcDbCircle
 10
2327.201858388193
 20
1077.141981788644
 30
0.0
 40
4.0
  0
LINE
  5
30E
330
20
100
AcDbEntity
  8
T
100
AcDbLine
 10
2331.961429865799
 20
1077.141981788644
 30
0.0
 11
2322.168168918184
 21
1077.141981788644
 31
0.0
  0
LINE
  5
30F
330
20
100
AcDbEntity
  8
T
100
AcDbLine
 10
2331.961429865799
 20
1053.263013730079
 30
0.0
 11
2322.168168918184
 21
1053.263013730079
 31
0.0
  0
LINE
  5
310
330
20
100
AcDbEntity
  8
T
100
AcDbLine
 10
2331.961429865799
 20
1101.642542960806
 30
0.0
 11
2322.168168918184
 21
1101.642542960806
 31
0.0
  0
TEXT
  5
331
330
20
100
AcDbEntity
  8
0
100
AcDbText
 10
2315.088301466919
 20
771.2174728327259
 30
0.0
 40
4.0
  1
チェーンレスハードロック
 41
0.7
  7
SIMPLEX
100
AcDbText
  0
TEXT
  5
338
330
20
100
AcDbEntity
  8
0
100
AcDbText
 10
2315.088301466919
 20
762.217472832726
 30
0.0
 40
4.0
  1
SH410L-49
  7
SIMPLEX
100
AcDbText
  0
LINE
  5
339
330
20
100
AcDbEntity
  8
0
100
AcDbLine
 10
2258.549907358515
 20
923.0241204829395
 30
0.0
 11
2258.549907358515
 21
939.6246114999295
 31
0.0
  0
LINE
  5
33A
330
20
100
AcDbEntity
  8
0
100
AcDbLine
 10
2260.549907358515
 20
939.6246114999289
 30
0.0
 11
2260.549907358515
 21
923.0241204829395
 31
0.0
  0
LINE
  5
33B
330
20
100
AcDbEntity
  8
0
100
AcDbLine
 10
2249.448857521583
 20
928.0405283440771
 30
0.0
 11
2249.448857521583
 21
923.5241204829391
 31
0.0
  0
CIRCLE
  5
33C
330
20
100
AcDbEntity
  8
0
100
AcDbCircle
 10
2200.948857521583
 20
929.6246114999304
 30
0.0
 40
4.15
  0
LINE
  5
33D
330
20
100
AcDbEntity
  8
T
100
AcDbLine
 10
2200.948857521583
 20
934.42461149993
 30
0.0
 11
2200.948857521583
 21
924.8246114999302
 31
0.0
  0
LINE
  5
33F
330
20
100
AcDbEntity
  8
0
100
AcDbLine
 10
2165.448857521584
 20
926.4323949839781
 30
0.0
 11
2165.448857521584
 21
934.435750807585
 31
0.0
  0
LINE
  5
340
330
20
100
AcDbEntity
  8
0
100
AcDbLine
 10
2165.448857521584
 20
934.42461149993
 30
0.0
 11
2165.448857521584
 21
924.8246114999302
 31
0.0
  0
LINE
  5
341
330
20
100
AcDbEntity
  8
T
100
AcDbLine
 10
2165.448857521584
 20
934.42461149993
 30
0.0
 11
2165.448857521584
 21
924.8246114999302
 31
0.0
  0
CIRCLE
  5
342
330
20
100
AcDbEntity
  8
0
100
AcDbCircle
 10
2165.448857521584
 20
929.6246114999304
 30
0.0
 40
4.15
  0
LINE
  5
344
330
20
100
AcDbEntity
  8
0
100
AcDbLine
 10
2152.448857521584
 20
929.6241204790781
 30
0.0
 11
2152.448857521584
 21
923.5241204829391
 31
0.0
  0
LINE
  5
345
330
20
100
AcDbEntity
  8
0
100
AcDbLine
 10
2124.233200204969
 20
932.5737648669447
 30
0.0
 11
2124.233200204969
 21
916.4737648669442
 31
0.0
  0
LINE
  5
346
330
20
100
AcDbEntity
  8
0
100
AcDbLine
 10
2123.233200204968
 20
916.4737648669442
 30
0.0
 11
2123.233200204968
 21
932.5737648669447
 31
0.0
  0
LINE
  5
347
330
20
100
AcDbEntity
  8
0
100
AcDbLine
 10
2055.975331490571
 20
927.9551295097634
 30
0.0
 11
2055.975331490571
 21
918.589500209784
 31
0.0
  0
LINE
  5
348
330
20
100
AcDbEntity
  8
0
100
AcDbLine
 10
2055.975331490571
 20
918.2737648669444
 30
0.0
 11
2055.975331490571
 21
927.8737648669448
 31
0.0
  0
LINE
  5
349
330
20
100
AcDbEntity
  8
T
100
AcDbLine
 10
2055.975331490571
 20
918.2737648669444
 30
0.0
 11
2055.975331490571
 21
927.8737648669448
 31
0.0
  0
ARC
  5
34C
330
20
100
AcDbEntity
  8
0
100
AcDbCircle
 10
2055.974850133463
 20
923.0737648669446
 30
0.0
 40
9.5
100
AcDbArc
 50
90.0
 51
180.0
  0
LINE
  5
34D
330
20
100
AcDbEntity
  8
0
100
AcDbLine
 10
2091.47533149057
 20
917.673764866944
 30
0.0
 11
2091.47533149057
 21
928.4737648669443
 31
0.0
  0
LINE
  5
34E
330
20
100
AcDbEntity
  8
0
100
AcDbLine
 10
2091.47533149057
 20
928.8065512825783
 30
0.0
 11
2091.47533149057
 21
918.248930140527
 31
0.0
  0
LINE
  5
34F
330
20
100
AcDbEntity
  8
T
100
AcDbLine
 10
2091.47533149057
 20
918.2737648669444
 30
0.0
 11
2091.47533149057
 21
927.8737648669448
 31
0.0
  0
LINE
  5
350
330
20
100
AcDbEntity
  8
T
100
AcDbLine
 10
1928.341444746188
 20
928.2420341780136
 30
0.0
 11
1928.341444746188
 21
914.340707692861
 31
0.0
  0
LINE
  5
351
330
20
100
AcDbEntity
  8
0
100
AcDbLine
 10
1985.341444746188
 20
958.5696585833439
 30
0.0
 11
1985.341444746188
 21
918.5696585833438
 31
0.0
  0
ARC
  5
352
330
20
100
AcDbEntity
  8
0
100
AcDbCircle
 10
2082.474850133464
 20
883.0737648669446
 30
0.0
 40
49.5
100
AcDbArc
 50
48.1896851042245
 51
90.0
  0
LINE
  5
355
330
20
100
AcDbEntity
  8
0
100
AcDbLine
 10
1905.341444746188
 20
967.5696585833438
 30
0.0
 11
1905.341444746188
 21
909.5696585833438
 31
0.0
  0
LINE
  5
356
330
20
100
AcDbEntity
  8
0
100
AcDbLine
 10
2002.436771623111
 20
968.5696585833438
 30
0.0
 11
2002.436771623111
 21
908.5696585833439
 31
0.0
  0
LINE
  5
357
330
20
100
AcDbEntity
  8
0
100
AcDbLine
 10
2004.43677162311
 20
968.5696585833438
 30
0.0
 11
2004.43677162311
 21
908.5696585833439
 31
0.0
  0
LINE
  5
35A
330
20
100
AcDbEntity
  8
0
100
AcDbLine
 10
2046.474850133463
 20
916.4737648669442
 30
0.0
 11
2115.474850133463
 21
916.4737648669442
 31
0.0
  0
LINE
  5
35C
330
20
100
AcDbEntity
  8
0
100
AcDbLine
 10
2046.625886192876
 20
878.1151036160421
 30
0.0
 11
2115.625886192876
 21
878.1151036160421
 31
0.0
  0
ARC
  5
367
330
20
100
AcDbEntity
  8
0
100
AcDbCircle
 10
2082.625886192877
 20
844.7151036160425
 30
0.0
 40
50.0
100
AcDbArc
 50
48.18968510421485
 51
90.0
  0
LINE
  5
36D
330
20
100
AcDbEntity
  8
0
100
AcDbLine
 10
1960.030400615202
 20
834.5332402909258
 30
0.0
 11
1960.030400615202
 21
871.6056303201227
 31
0.0
  0
INSERT
  5
371
330
20
100
AcDbEntity
  8
0
100
AcDbBlockReference
  2
SUG-AR01
 10
1975.365128369751
 20
792.1332402909261
 30
0.0
 41
0.5
 42
0.5
 43
0.5
 50
90.0
  0
CIRCLE
  5
372
330
20
100
AcDbEntity
  8
0
100
AcDbCircle
 10
1960.030400615202
 20
792.1332402909261
 30
0.0
 40
4.0
  0
LINE
  5
373
330
20
100
AcDbEntity
  8
0
100
AcDbLine
 10
1960.030400615202
 20
796.9332402909263
 30
0.0
 11
1960.030400615202
 21
787.333240290926
 31
0.0
  0
LINE
  5
374
330
20
100
AcDbEntity
  8
0
100
AcDbLine
 10
1975.365128369751
 20
827.6332402909261
 30
0.0
 11
1975.365128369751
 21
792.1332402909261
 31
0.0
  0
TEXT
  5
375
330
20
100
AcDbEntity
  8
0
100
AcDbText
 10
1915.905136806917
 20
772.4560805042711
 30
0.0
 40
3.0
  1
%%U取付穴参考寸法
  7
SIMPLEX
100
AcDbText
  0
LINE
  5
376
330
20
100
AcDbEntity
  8
0
100
AcDbLine
 10
1955.230400615201
 20
792.1332402909261
 30
0.0
 11
1964.830400615202
 21
792.1332402909261
 31
0.0
  0
LINE
  5
377
330
20
100
AcDbEntity
  8
0
100
AcDbLine
 10
1965.530400615202
 20
792.1332402909261
 30
0.0
 11
1976.365128369751
 21
792.1332402909261
 31
0.0
  0
LINE
  5
378
330
20
100
AcDbEntity
  8
0
100
AcDbLine
 10
1956.730400615202
 20
827.6332402909261
 30
0.0
 11
1923.357211696714
 21
827.6332402909261
 31
0.0
  0
INSERT
  5
379
330
20
100
AcDbEntity
  8
0
100
AcDbBlockReference
  2
SUG-AR01
 10
1924.365128369751
 20
820.1332402909253
 30
0.0
 41
0.5
 42
0.5
 43
0.5
 50
270.0
  0
TEXT
  5
37A
330
20
100
AcDbEntity
  8
0
100
AcDbText
 10
1923.465128369751
 20
820.5202254799662
 30
0.0
 40
3.0
  1
7.5
 50
90.0
  7
SIMPLEX
 72
     1
 11
1923.465128369751
 21
823.6630826228234
 31
0.0
100
AcDbText
  0
LINE
  5
37B
330
20
100
AcDbEntity
  8
0
100
AcDbLine
 10
1924.365128369751
 20
813.1332402909253
 30
0.0
 11
1924.365128369751
 21
833.4056303201226
 31
0.0
  0
INSERT
  5
37C
330
20
100
AcDbEntity
  8
0
100
AcDbBlockReference
  2
SUG-AR01
 10
1924.365128369751
 20
827.6332402909261
 30
0.0
 41
0.5
 42
0.5
 43
0.5
 50
90.0
  0
LINE
  5
37D
330
20
100
AcDbEntity
  8
0
100
AcDbLine
 10
1955.230400615202
 20
827.6332402909261
 30
0.0
 11
1964.830400615202
 21
827.6332402909261
 31
0.0
  0
CIRCLE
  5
37E
330
20
100
AcDbEntity
  8
0
100
AcDbCircle
 10
1960.030400615202
 20
827.6332402909261
 30
0.0
 40
4.0
  0
LINE
  5
37F
330
20
100
AcDbEntity
  8
0
100
AcDbLine
 10
1960.030400615202
 20
833.0332402909258
 30
0.0
 11
1960.030400615202
 21
822.2332402909255
 31
0.0
  0
INSERT
  5
380
330
20
100
AcDbEntity
  8
0
100
AcDbBlockReference
  2
SUG-AR01
 10
1975.365128369751
 20
827.6332402909261
 30
0.0
 41
0.5
 42
0.5
 43
0.5
 50
270.0
  0
LINE
  5
381
330
20
100
AcDbEntity
  8
0
100
AcDbLine
 10
1966.330400615202
 20
827.6332402909261
 30
0.0
 11
1976.365128369751
 21
827.6332402909261
 31
0.0
  0
TEXT
  5
382
330
20
100
AcDbEntity
  8
0
100
AcDbText
 10
1974.465128369751
 20
805.3118117194976
 30
0.0
 40
3.0
  1
35.5
 50
90.0
  7
SIMPLEX
 72
     1
 11
1974.465128369751
 21
809.8832402909263
 31
0.0
100
AcDbText
  0
TEXT
  5
39B
330
20
100
AcDbEntity
  8
0
100
AcDbText
 10
1920.208726535278
 20
871.5056303201226
 30
0.0
 40
3.0
  1
70.5
  7
SIMPLEX
 72
     1
 11
1924.780155106706
 21
871.5056303201226
 31
0.0
100
AcDbText
  0
INSERT
  5
39C
330
20
100
AcDbEntity
  8
0
100
AcDbBlockReference
  2
SUG-AR01
 10
1960.030400615202
 20
870.6056303201227
 30
0.0
 41
0.5
 42
0.5
 43
0.5
 50
180.0
  0
LINE
  5
3A0
330
20
100
AcDbEntity
  8
0
100
AcDbLine
 10
1906.341444746187
 20
908.5696585833439
 30
0.0
 11
1975.341444746188
 21
908.5696585833439
 31
0.0
  0
ARC
  5
3A4
330
20
100
AcDbEntity
  8
0
100
AcDbCircle
 10
1906.341444746187
 20
909.5696585833438
 30
0.0
 40
1.0
100
AcDbArc
 50
180.0
 51
270.0
  0
LINE
  5
3A5
330
20
100
AcDbEntity
  8
T
100
AcDbLine
 10
1921.916566826798
 20
920.8196585833439
 30
0.0
 11
1934.154647791109
 21
920.8196585833439
 31
0.0
  0
CIRCLE
  5
3A7
330
20
100
AcDbEntity
  8
0
100
AcDbCircle
 10
1928.341444746188
 20
920.8196585833439
 30
0.0
 40
4.5
  0
LINE
  5
3AD
330
20
100
AcDbEntity
  8
0
100
AcDbLine
 10
2002.436771623111
 20
908.5696585833439
 30
0.0
 11
2004.43677162311
 21
908.5696585833439
 31
0.0
  0
ARC
  5
3AF
330
20
100
AcDbEntity
  8
0
100
AcDbCircle
 10
1975.341444746188
 20
918.5696585833438
 30
0.0
 40
10.0
100
AcDbArc
 50
270.0
 51
0.0
  0
CIRCLE
  5
3B1
330
20
100
AcDbEntity
  8
0
100
AcDbCircle
 10
2056.126367549984
 20
884.7151036160425
 30
0.0
 40
4.15
  0
LINE
  5
3B2
330
20
100
AcDbEntity
  8
0
100
AcDbLine
 10
2056.126367549984
 20
889.5964682588614
 30
0.0
 11
2056.126367549984
 21
880.2308389588819
 31
0.0
  0
LINE
  5
3B3
330
20
100
AcDbEntity
  8
0
100
AcDbLine
 10
2056.126367549984
 20
879.9151036160424
 30
0.0
 11
2056.126367549984
 21
889.5151036160427
 31
0.0
  0
LINE
  5
3B4
330
20
100
AcDbEntity
  8
T
100
AcDbLine
 10
2056.126367549984
 20
879.9151036160424
 30
0.0
 11
2056.126367549984
 21
889.5151036160427
 31
0.0
  0
LINE
  5
3B5
330
20
100
AcDbEntity
  8
0
100
AcDbLine
 10
2046.125886192877
 20
878.6151036160422
 30
0.0
 11
2046.125886192877
 21
884.7151036160425
 31
0.0
  0
LINE
  5
3B7
330
20
100
AcDbEntity
  8
0
100
AcDbLine
 10
2091.626367549984
 20
890.4478900316762
 30
0.0
 11
2091.626367549984
 21
879.890268889625
 31
0.0
  0
LINE
  5
3B8
330
20
100
AcDbEntity
  8
0
100
AcDbLine
 10
2091.626367549984
 20
879.9151036160424
 30
0.0
 11
2091.626367549984
 21
889.5151036160427
 31
0.0
  0
LINE
  5
3B9
330
20
100
AcDbEntity
  8
T
100
AcDbLine
 10
2091.626367549984
 20
879.315103616042
 30
0.0
 11
2091.626367549984
 21
890.1151036160422
 31
0.0
  0
CIRCLE
  5
3BA
330
20
100
AcDbEntity
  8
0
100
AcDbCircle
 10
2091.626367549984
 20
884.7151036160425
 30
0.0
 40
4.15
  0
ARC
  5
3BE
330
20
100
AcDbEntity
  8
0
100
AcDbCircle
 10
2046.625886192876
 20
878.6151036160422
 30
0.0
 40
0.5
100
AcDbArc
 50
180.0
 51
270.0
  0
LINE
  5
3C9
330
20
100
AcDbEntity
  8
0
100
AcDbLine
 10
2056.125886192877
 20
894.7151036160425
 30
0.0
 11
2082.625886192877
 21
894.7151036160425
 31
0.0
  0
LINE
  5
3CB
330
20
100
AcDbEntity
  8
0
100
AcDbLine
 10
2060.775331490571
 20
923.0737648669446
 30
0.0
 11
2051.17533149057
 21
923.0737648669446
 31
0.0
  0
LINE
  5
3CC
330
20
100
AcDbEntity
  8
T
100
AcDbLine
 10
2060.775331490571
 20
923.0737648669446
 30
0.0
 11
2051.17533149057
 21
923.0737648669446
 31
0.0
  0
LINE
  5
3CD
330
20
100
AcDbEntity
  8
0
100
AcDbLine
 10
2046.474850133463
 20
916.4737648669442
 30
0.0
 11
2046.474850133463
 21
923.0737648669446
 31
0.0
  0
LINE
  5
3D5
330
20
100
AcDbEntity
  8
0
100
AcDbLine
 10
2060.926367549984
 20
884.7151036160425
 30
0.0
 11
2051.326367549984
 21
884.7151036160425
 31
0.0
  0
LINE
  5
3D6
330
20
100
AcDbEntity
  8
T
100
AcDbLine
 10
2060.926367549984
 20
884.7151036160425
 30
0.0
 11
2051.326367549984
 21
884.7151036160425
 31
0.0
  0
ARC
  5
3D8
330
20
100
AcDbEntity
  8
0
100
AcDbCircle
 10
2056.125886192877
 20
884.7151036160425
 30
0.0
 40
10.0
100
AcDbArc
 50
89.9999999999992
 51
180.0
  0
CIRCLE
  5
3D9
330
20
100
AcDbEntity
  8
0
100
AcDbCircle
 10
2055.975331490571
 20
923.0737648669446
 30
0.0
 40
4.15
  0
LINE
  5
3DA
330
20
100
AcDbEntity
  8
T
100
AcDbLine
 10
2096.275331490571
 20
923.0737648669446
 30
0.0
 11
2086.675331490571
 21
923.0737648669446
 31
0.0
  0
LINE
  5
3DB
330
20
100
AcDbEntity
  8
T
100
AcDbLine
 10
2096.875331490571
 20
923.0737648669446
 30
0.0
 11
2086.075331490571
 21
923.0737648669446
 31
0.0
  0
LINE
  5
3DD
330
20
100
AcDbEntity
  8
0
100
AcDbLine
 10
2096.426367549984
 20
884.7151036160425
 30
0.0
 11
2086.826367549984
 21
884.7151036160425
 31
0.0
  0
LINE
  5
3DE
330
20
100
AcDbEntity
  8
T
100
AcDbLine
 10
2097.026367549985
 20
884.7151036160425
 30
0.0
 11
2086.226367549985
 21
884.7151036160425
 31
0.0
  0
CIRCLE
  5
3DF
330
20
100
AcDbEntity
  8
0
100
AcDbCircle
 10
2091.47533149057
 20
923.0737648669446
 30
0.0
 40
4.15
  0
LINE
  5
433
330
20
100
AcDbEntity
  8
0
100
AcDbLine
 10
2152.948857521584
 20
923.024120482939
 30
0.0
 11
2248.948857521583
 21
923.024120482939
 31
0.0
  0
ARC
  5
435
330
20
100
AcDbEntity
  8
0
100
AcDbCircle
 10
2224.470577252631
 20
886.4556056682769
 30
0.0
 40
5.0
100
AcDbArc
 50
228.5903778907293
 51
270.0000000000007
  0
ARC
  5
438
330
20
100
AcDbEntity
  8
0
100
AcDbCircle
 10
2224.470577252631
 20
866.4556056682769
 30
0.0
 40
5.0
100
AcDbArc
 50
90.00000000000063
 51
131.4096221092707
  0
ARC
  5
43A
330
20
100
AcDbEntity
  8
0
100
AcDbCircle
 10
2186.241820697308
 20
871.4556056682768
 30
0.0
 40
15.0
100
AcDbArc
 50
60.0
 51
131.4096221092707
  0
LINE
  5
43B
330
20
100
AcDbEntity
  8
0
100
AcDbLine
 10
2212.607005256983
 20
881.5247783595399
 30
0.0
 11
2212.607005256983
 21
885.3888849347677
 31
0.0
  0
LINE
  5
43C
330
20
100
AcDbEntity
  8
0
100
AcDbLine
 10
2213.307005256984
 20
880.956394291805
 30
0.0
 11
2213.307005256984
 21
885.3024469230353
 31
0.0
  0
LINE
  5
43D
330
20
100
AcDbEntity
  8
0
100
AcDbLine
 10
2190.541820697308
 20
884.7126792518393
 30
0.0
 11
2190.541820697308
 21
882.780160988613
 31
0.0
  0
LINE
  5
43E
330
20
100
AcDbEntity
  8
0
100
AcDbLine
 10
2191.041820697308
 20
884.5323024988985
 30
0.0
 11
2191.041820697308
 21
882.6650806875878
 31
0.0
  0
ARC
  5
43F
330
20
100
AcDbEntity
  8
0
100
AcDbCircle
 10
2189.241820697308
 20
876.4556056682764
 30
0.0
 40
6.5
100
AcDbArc
 50
75.52248781407108
 51
104.4775121859291
  0
LINE
  5
440
330
20
100
AcDbEntity
  8
0
100
AcDbLine
 10
2187.541820697308
 20
885.3750165753513
 30
0.0
 11
2187.541820697308
 21
882.780160988613
 31
0.0
  0
LINE
  5
441
330
20
100
AcDbEntity
  8
0
100
AcDbLine
 10
2181.541820697308
 20
884.6430997441045
 30
0.0
 11
2181.541820697308
 21
882.6481694504087
 31
0.0
  0
LINE
  5
442
330
20
100
AcDbEntity
  8
0
100
AcDbLine
 10
2182.041820697308
 20
884.8107544881138
 30
0.0
 11
2182.041820697308
 21
882.5451350523854
 31
0.0
  0
LINE
  5
443
330
20
100
AcDbEntity
  8
0
100
AcDbLine
 10
2182.541820697307
 20
884.9578277076298
 30
0.0
 11
2182.541820697307
 21
882.3235029135231
 31
0.0
  0
LINE
  5
444
330
20
100
AcDbEntity
  8
0
100
AcDbLine
 10
2180.541820697308
 20
884.2427085457854
 30
0.0
 11
2180.541820697308
 21
882.5741045686646
 31
0.0
  0
LINE
  5
445
330
20
100
AcDbEntity
  8
0
100
AcDbLine
 10
2180.041820697308
 20
884.007896295887
 30
0.0
 11
2180.041820697308
 21
882.3808741390585
 31
0.0
  0
LINE
  5
446
330
20
100
AcDbEntity
  8
0
100
AcDbLine
 10
2179.541820697308
 20
883.7479165577297
 30
0.0
 11
2179.541820697308
 21
882.016175027663
 31
0.0
  0
LINE
  5
447
330
20
100
AcDbEntity
  8
0
100
AcDbLine
 10
2181.041820697308
 20
884.4540671156943
 30
0.0
 11
2181.041820697308
 21
882.657496201503
 31
0.0
  0
LINE
  5
449
330
20
100
AcDbEntity
  8
0
100
AcDbLine
 10
2211.907005256983
 20
882.0931624272748
 30
0.0
 11
2211.907005256983
 21
885.4397942218387
 31
0.0
  0
LINE
  5
44A
330
20
100
AcDbEntity
  8
0
100
AcDbLine
 10
2209.807005256983
 20
882.764345423106
 30
0.0
 11
2209.807005256983
 21
885.3818867458729
 31
0.0
  0
LINE
  5
44B
330
20
100
AcDbEntity
  8
0
100
AcDbLine
 10
2206.307005256983
 20
882.5119319238755
 30
0.0
 11
2206.307005256983
 21
884.5570405732761
 31
0.0
  0
LINE
  5
44C
330
20
100
AcDbEntity
  8
0
100
AcDbLine
 10
2207.007005256983
 20
882.8372379695254
 30
0.0
 11
2207.007005256983
 21
884.7997556294544
 31
0.0
  0
ARC
  5
44D
330
20
100
AcDbEntity
  8
0
100
AcDbCircle
 10
2211.241820697308
 20
871.4556056682768
 30
0.0
 40
15.0
100
AcDbArc
 50
48.59037789072931
 51
120.0
  0
LINE
  5
453
330
20
100
AcDbEntity
  8
0
100
AcDbLine
 10
2216.341820697308
 20
878.4921932278093
 30
0.0
 11
2216.341820697308
 21
882.9556056682768
 31
0.0
  0
LINE
  5
454
330
20
100
AcDbEntity
  8
0
100
AcDbLine
 10
2215.407005256983
 20
879.2512420886
 30
0.0
 11
2215.407005256983
 21
884.8216536101276
 31
0.0
  0
LINE
  5
455
330
20
100
AcDbEntity
  8
0
100
AcDbLine
 10
2216.107005256983
 20
878.6828580208647
 30
0.0
 11
2216.107005256983
 21
884.5830570279391
 31
0.0
  0
LINE
  5
456
330
20
100
AcDbEntity
  8
0
100
AcDbLine
 10
2214.007005256983
 20
880.3880102240698
 30
0.0
 11
2214.007005256983
 21
885.1798089001929
 31
0.0
  0
LINE
  5
457
330
20
100
AcDbEntity
  8
0
100
AcDbLine
 10
2214.707005256983
 20
879.8196261563349
 30
0.0
 11
2214.707005256983
 21
885.0199890293955
 31
0.0
  0
LINE
  5
458
330
20
100
AcDbEntity
  8
0
100
AcDbLine
 10
2191.541820697308
 20
884.3299988578602
 30
0.0
 11
2191.541820697308
 21
875.0640519594821
 31
0.0
  0
LINE
  5
459
330
20
100
AcDbEntity
  8
0
100
AcDbLine
 10
2192.041820697308
 20
884.1047163089502
 30
0.0
 11
2192.041820697308
 21
874.7077936927476
 31
0.0
  0
LINE
  5
45A
330
20
100
AcDbEntity
  8
0
100
AcDbLine
 10
2192.541820697308
 20
883.8552024359138
 30
0.0
 11
2192.541820697308
 21
874.4204353051166
 31
0.0
  0
LINE
  5
45B
330
20
100
AcDbEntity
  8
0
100
AcDbLine
 10
2193.041820697308
 20
883.0900373260757
 30
0.0
 11
2193.041820697308
 21
874.1869669859786
 31
0.0
  0
LINE
  5
45C
330
20
100
AcDbEntity
  8
0
100
AcDbLine
 10
2204.441820697308
 20
873.4869669859785
 30
0.0
 11
2204.441820697308
 21
883.0900373260762
 31
0.0
  0
LINE
  5
45D
330
20
100
AcDbEntity
  8
0
100
AcDbLine
 10
2194.241820697308
 20
873.7486011153954
 30
0.0
 11
2194.241820697308
 21
883.5799613212589
 31
0.0
  0
LINE
  5
45E
330
20
100
AcDbEntity
  8
0
100
AcDbLine
 10
2204.907005256983
 20
873.7026966900906
 30
0.0
 11
2204.907005256983
 21
883.9350062277473
 31
0.0
  0
LINE
  5
45F
330
20
100
AcDbEntity
  8
0
100
AcDbLine
 10
2205.607005256983
 20
874.1172102580119
 30
0.0
 11
2205.607005256983
 21
884.2715666136559
 31
0.0
  0
LINE
  5
460
330
20
100
AcDbEntity
  8
0
100
AcDbLine
 10
2203.241820697308
 20
873.0486011153955
 30
0.0
 11
2203.241820697308
 21
883.5799613212589
 31
0.0
  0
LINE
  5
461
330
20
100
AcDbEntity
  8
0
100
AcDbLine
 10
2179.041820697308
 20
882.8818911539453
 30
0.0
 11
2179.041820697308
 21
878.909136013709
 31
0.0
  0
LINE
  5
462
330
20
100
AcDbEntity
  8
0
100
AcDbLine
 10
2187.041820697308
 20
885.4198457120451
 30
0.0
 11
2187.041820697308
 21
867.4913656245077
 31
0.0
  0
LINE
  5
463
330
20
100
AcDbEntity
  8
0
100
AcDbLine
 10
2186.541820697308
 20
885.4466742479095
 30
0.0
 11
2186.541820697308
 21
867.4645370886434
 31
0.0
  0
TEXT
  5
464
330
20
100
AcDbEntity
  8
0
100
AcDbText
 10
2183.541820697308
 20
884.7413199539914
 30
0.0
 40
2.5
  1
A20000
 50
270.0
 41
1.199999999999999
  7
SIMPLEX
 72
     1
 11
2183.541820697308
 21
876.4556056682771
 31
0.0
100
AcDbText
  0
TEXT
  5
465
330
20
100
AcDbEntity
  8
0
100
AcDbText
 10
2183.541820697308
 20
884.7413199539914
 30
0.0
 40
2.5
  1
A20000
 50
270.0
 41
1.199999999999999
  7
SIMPLEX
 72
     1
 11
2183.541820697308
 21
876.4556056682771
 31
0.0
100
AcDbText
  0
LINE
  5
466
330
20
100
AcDbEntity
  8
0
100
AcDbLine
 10
2218.441820697308
 20
882.8818911539455
 30
0.0
 11
2218.441820697308
 21
870.0293201826088
 31
0.0
  0
LINE
  5
467
330
20
100
AcDbEntity
  8
0
100
AcDbLine
 10
2218.207005256983
 20
869.3855091935503
 30
0.0
 11
2218.207005256983
 21
883.525702143004
 31
0.0
  0
LWPOLYLINE
  5
468
330
20
100
AcDbEntity
  8
0
100
AcDbPolyline
 90
        8
 70
     0
 43
0.0
 10
2216.341820697308
 20
882.9556056682768
 10
2217.441820697308
 20
882.9556056682768
 10
2217.441820697308
 20
875.4902034553404
 10
2215.621819934677
 20
873.9630414866743
 10
2217.441820697308
 20
872.4389029064315
 10
2217.441820697308
 20
869.9556056682769
 10
2214.143882299159
 20
872.7229045618088
 10
2211.441820697308
 20
870.4556056682768
  0
LWPOLYLINE
  5
472
330
20
100
AcDbEntity
  8
0
100
AcDbPolyline
 90
        6
 70
     0
 43
0.0
 10
2210.241820697308
 20
870.6461306489657
 10
2210.241820697308
 20
882.2650806875886
 42
0.3419987131195985
 10
2209.866820697308
 20
882.7492036058647
 42
0.127016653792374
 10
2206.616820697308
 20
882.7492036058639
 42
0.341998713120648
 10
2206.241820697308
 20
882.2650806875886
 10
2206.241820697308
 20
874.6174924373304
 42
0.3419987131196601
  0
LINE
  5
47A
330
20
100
AcDbEntity
  8
0
100
AcDbLine
 10
2211.207005256984
 20
867.4556489581613
 30
0.0
 11
2211.207005256984
 21
885.4555623783925
 31
0.0
  0
LINE
  5
47B
330
20
100
AcDbEntity
  8
0
100
AcDbLine
 10
2210.507005256983
 20
867.4749030296876
 30
0.0
 11
2210.507005256983
 21
885.4363083068664
 31
0.0
  0
LINE
  5
47C
330
20
100
AcDbEntity
  8
0
100
AcDbLine
 10
2217.507005256983
 20
868.9357229837948
 30
0.0
 11
2217.507005256983
 21
883.9754883527595
 31
0.0
  0
LINE
  5
47D
330
20
100
AcDbEntity
  8
0
100
AcDbLine
 10
2123.361232615434
 20
878.1151036160421
 30
0.0
 11
2123.361232615434
 21
894.7151036160425
 31
0.0
  0
LINE
  5
47E
330
20
100
AcDbEntity
  8
0
100
AcDbLine
 10
2125.361232615434
 20
894.7151036160425
 30
0.0
 11
2125.361232615434
 21
878.1151036160421
 31
0.0
  0
LINE
  5
480
330
20
100
AcDbEntity
  8
0
100
AcDbLine
 10
2172.041820697308
 20
873.655605668277
 30
0.0
 11
2152.100778309868
 21
873.655605668277
 31
0.0
  0
LINE
  5
481
330
20
100
AcDbEntity
  8
0
100
AcDbLine
 10
2172.041820697308
 20
879.2556056682768
 30
0.0
 11
2152.100778309868
 21
879.2556056682768
 31
0.0
  0
ARC
  5
482
330
20
100
AcDbEntity
  8
0
100
AcDbCircle
 10
2115.625886192876
 20
881.61022524478
 30
0.0
 40
0.5
100
AcDbArc
 50
0.0
 51
48.18968510423019
  0
LINE
  5
483
330
20
100
AcDbEntity
  8
0
100
AcDbLine
 10
2123.361232615434
 20
881.5335929534935
 30
0.0
 11
2125.361232615434
 21
881.5335929534935
 31
0.0
  0
ARC
  5
486
330
20
100
AcDbEntity
  8
0
100
AcDbCircle
 10
2115.625886192876
 20
878.6151036160422
 30
0.0
 40
0.5
100
AcDbArc
 50
270.0
 51
0.0
  0
LWPOLYLINE
  5
488
330
20
100
AcDbEntity
  8
0
100
AcDbPolyline
 90
        6
 70
     0
 43
0.0
 10
2152.100778309868
 20
879.2556056682768
 10
2150.030511566438
 20
878.2902244313914
 42
0.2914734195860857
 10
2149.741820697308
 20
877.8370705378732
 10
2149.741820697308
 20
875.0741407986808
 42
0.2914734195860855
 10
2150.030511566438
 20
874.6209869051623
 10
2152.100778309868
 20
873.655605668277
  0
ARC
  5
490
330
20
100
AcDbEntity
  8
0
100
AcDbCircle
 10
2150.241820697308
 20
877.9370705378731
 30
0.0
 40
0.5
100
AcDbArc
 50
180.0
 51
180.0
  0
ARC
  5
491
330
20
100
AcDbEntity
  8
0
100
AcDbCircle
 10
2150.241820697308
 20
874.9741407986807
 30
0.0
 40
0.5
100
AcDbArc
 50
180.0
 51
180.0
  0
LINE
  5
492
330
20
100
AcDbEntity
  8
0
100
AcDbLine
 10
2125.361232615434
 20
878.1151036160421
 30
0.0
 11
2123.361232615434
 21
878.1151036160421
 31
0.0
  0
LINE
  5
497
330
20
100
AcDbEntity
  8
0
100
AcDbLine
 10
2116.125886192877
 20
878.6151036160422
 30
0.0
 11
2116.125886192877
 21
881.61022524478
 31
0.0
  0
ARC
  5
498
330
20
100
AcDbEntity
  8
0
100
AcDbCircle
 10
2172.741820697308
 20
880.9556056682769
 30
0.0
 40
0.5
100
AcDbArc
 50
90.0
 51
180.0
  0
LINE
  5
499
330
20
100
AcDbEntity
  8
0
100
AcDbLine
 10
2173.013064141985
 20
881.455605668277
 30
0.0
 11
2172.741820697308
 21
881.455605668277
 31
0.0
  0
ARC
  5
49A
330
20
100
AcDbEntity
  8
0
100
AcDbCircle
 10
2173.013064141985
 20
886.4556056682769
 30
0.0
 40
5.0
100
AcDbArc
 50
269.9999999999993
 51
311.4096221092708
  0
ARC
  5
49B
330
20
100
AcDbEntity
  8
0
100
AcDbCircle
 10
2190.741820697308
 20
882.2650806875877
 30
0.0
 40
0.5
100
AcDbArc
 50
0.0
 51
75.52248781407185
  0
ARC
  5
49C
330
20
100
AcDbEntity
  8
0
100
AcDbCircle
 10
2187.741820697308
 20
882.2650806875877
 30
0.0
 40
0.5
100
AcDbArc
 50
104.4775121859281
 51
180.0
  0
ARC
  5
49D
330
20
100
AcDbEntity
  8
0
100
AcDbCircle
 10
2186.241820697308
 20
881.455605668277
 30
0.0
 40
15.0
100
AcDbArc
 50
228.590377890729
 51
300.0000000000007
  0
ARC
  5
49F
330
20
100
AcDbEntity
  8
0
100
AcDbCircle
 10
2172.041820697308
 20
873.455605668277
 30
0.0
 40
0.2
100
AcDbArc
 50
0.0000000000004905
 51
90.0
  0
ARC
  5
4A0
330
20
100
AcDbEntity
  8
0
100
AcDbCircle
 10
2172.041820697308
 20
879.4556056682768
 30
0.0
 40
0.2
100
AcDbArc
 50
270.0000000000002
 51
359.9999999999996
  0
ARC
  5
4A1
330
20
100
AcDbEntity
  8
0
100
AcDbCircle
 10
2172.741820697308
 20
871.9556056682769
 30
0.0
 40
0.5
100
AcDbArc
 50
180.0
 51
270.0000000000001
  0
LINE
  5
4A2
330
20
100
AcDbEntity
  8
0
100
AcDbLine
 10
2173.013064141985
 20
871.4556056682768
 30
0.0
 11
2172.741820697308
 21
871.4556056682768
 31
0.0
  0
ARC
  5
4A3
330
20
100
AcDbEntity
  8
0
100
AcDbCircle
 10
2173.013064141985
 20
866.4556056682769
 30
0.0
 40
5.0
100
AcDbArc
 50
48.59037789072933
 51
89.99999999999936
  0
LINE
  5
4A4
330
20
100
AcDbEntity
  8
0
100
AcDbLine
 10
2172.241820697308
 20
871.9556056682769
 30
0.0
 11
2172.241820697308
 21
873.455605668277
 31
0.0
  0
LINE
  5
4A5
330
20
100
AcDbEntity
  8
0
100
AcDbLine
 10
2212.641820697308
 20
878.9832838979279
 30
0.0
 11
2216.267618175872
 21
875.9408785709414
 31
0.0
  0
LINE
  5
4A6
330
20
100
AcDbEntity
  8
0
100
AcDbLine
 10
2212.641820697308
 20
876.4635577476591
 30
0.0
 11
2212.641820697308
 21
878.9832838979279
 31
0.0
  0
LINE
  5
4A7
330
20
100
AcDbEntity
  8
0
100
AcDbLine
 10
2213.307005256984
 20
875.9054016289709
 30
0.0
 11
2213.307005256984
 21
878.4251277792394
 31
0.0
  0
LINE
  5
4A8
330
20
100
AcDbEntity
  8
0
100
AcDbLine
 10
2216.267618175872
 20
875.9408785709414
 30
0.0
 11
2214.766171829904
 21
874.6810154958071
 31
0.0
  0
LINE
  5
4A9
330
20
100
AcDbEntity
  8
0
100
AcDbLine
 10
2214.766171829904
 20
874.6810154958071
 30
0.0
 11
2212.641820697308
 21
876.4635577476591
 31
0.0
  0
LINE
  5
4AA
330
20
100
AcDbEntity
  8
0
100
AcDbLine
 10
2214.007005256983
 20
875.3180318871468
 30
0.0
 11
2214.007005256983
 21
877.8377580374154
 31
0.0
  0
LINE
  5
4AB
330
20
100
AcDbEntity
  8
0
100
AcDbLine
 10
2214.707005256983
 20
874.7306621453228
 30
0.0
 11
2214.707005256983
 21
877.2503882955914
 31
0.0
  0
LINE
  5
4AC
330
20
100
AcDbEntity
  8
0
100
AcDbLine
 10
2216.807005256983
 20
872.9705217517633
 30
0.0
 11
2216.807005256983
 21
874.9575300534985
 31
0.0
  0
LINE
  5
4AD
330
20
100
AcDbEntity
  8
0
100
AcDbLine
 10
2216.107005256983
 20
873.5567286523734
 30
0.0
 11
2216.107005256983
 21
874.3701603116743
 31
0.0
  0
LINE
  5
4AE
330
20
100
AcDbEntity
  8
0
100
AcDbLine
 10
2216.107005256983
 20
875.8061083299397
 30
0.0
 11
2216.107005256983
 21
876.0756488119431
 31
0.0
  0
LINE
  5
4AF
330
20
100
AcDbEntity
  8
0
100
AcDbLine
 10
2215.407005256983
 20
875.2187385881157
 30
0.0
 11
2215.407005256983
 21
876.6630185537673
 31
0.0
  0
LINE
  5
4B0
330
20
100
AcDbEntity
  8
0
100
AcDbLine
 10
2182.215306948684
 20
878.9665689840672
 30
0.0
 11
2182.215306948684
 21
878.0608095832977
 31
0.0
  0
ARC
  5
4B1
330
20
100
AcDbEntity
  8
0
100
AcDbCircle
 10
2182.184945497413
 20
878.2545047601857
 30
0.0
 40
0.5550403530777647
100
AcDbArc
 50
329.8223364312201
 51
0.0000000000527718
  0
ARC
  5
4B2
330
20
100
AcDbEntity
  8
0
100
AcDbCircle
 10
2180.859017016607
 20
878.2545047601862
 30
0.0
 40
0.555040353077021
100
AcDbArc
 50
179.9999999999823
 51
210.1776635685292
  0
TEXT
  5
4B3
330
20
100
AcDbEntity
  8
0
100
AcDbText
 10
2177.541820697308
 20
878.380649938842
 30
0.0
 40
1.5
  1
ZC6
 50
270.0
  7
SIMPLEX
100
AcDbText
  0
ARC
  5
4B4
330
20
100
AcDbEntity
  8
0
100
AcDbCircle
 10
2181.238309310316
 20
878.3294588890159
 30
0.0
 40
0.4471308093934255
100
AcDbArc
 50
179.9999999999782
 51
210.2705950120549
  0
ARC
  5
4B5
330
20
100
AcDbEntity
  8
0
100
AcDbCircle
 10
2192.538770153092
 20
876.8056056682775
 30
0.0
 40
1.973970333864925
100
AcDbArc
 50
131.0734366083234
 51
228.9265633916762
  0
ARC
  5
4B6
330
20
100
AcDbEntity
  8
0
100
AcDbCircle
 10
2192.610793346655
 20
876.805605668277
 30
0.0
 40
2.581070635628329
100
AcDbArc
 50
122.0317725513872
 51
237.968227448613
  0
ARC
  5
4B7
330
20
100
AcDbEntity
  8
0
100
AcDbCircle
 10
2181.374520574322
 20
878.4089605771924
 30
0.0
 40
0.6048458272745721
100
AcDbArc
 50
210.2705950120753
 51
234.6375381128985
  0
ARC
  5
4B8
330
20
100
AcDbEntity
  8
0
100
AcDbCircle
 10
2181.52198125701
 20
878.732948256925
 30
0.0
 40
0.9656453341307807
100
AcDbArc
 50
270.0000000000183
 51
315.8889498246916
  0
ARC
  5
4B9
330
20
100
AcDbEntity
  8
0
100
AcDbCircle
 10
2181.521981257011
 20
879.1938927992065
 30
0.0
 40
1.763883456145275
100
AcDbArc
 50
269.9999999999723
 51
286.4390233223255
  0
ARC
  5
4BA
330
20
100
AcDbEntity
  8
0
100
AcDbCircle
 10
2181.866563916864
 20
878.439641139286
 30
0.0
 40
0.9233368500733448
100
AcDbArc
 50
305.4633642414984
 51
329.8223364312145
  0
ARC
  5
4BB
330
20
100
AcDbEntity
  8
0
100
AcDbCircle
 10
2181.65823542702
 20
878.7321022884899
 30
0.0
 40
1.282411053371532
100
AcDbArc
 50
286.4390233223255
 51
305.4633642415063
  0
LINE
  5
4BC
330
20
100
AcDbEntity
  8
0
100
AcDbLine
 10
2182.215306948684
 20
876.6429909903505
 30
0.0
 11
2182.215306948684
 21
875.631110251151
 31
0.0
  0
LINE
  5
4BD
330
20
100
AcDbEntity
  8
0
100
AcDbLine
 10
2182.739985850491
 20
877.0177616344987
 30
0.0
 11
2182.73998585049
 21
875.631110251151
 31
0.0
  0
LINE
  5
4BE
330
20
100
AcDbEntity
  8
0
100
AcDbLine
 10
2182.215306948684
 20
877.0177616344982
 30
0.0
 11
2182.739985850491
 21
877.0177616344987
 31
0.0
  0
ARC
  5
4BF
330
20
100
AcDbEntity
  8
0
100
AcDbCircle
 10
2181.177398597156
 20
878.4396411392851
 30
0.0
 40
0.9233368500721038
100
AcDbArc
 50
210.1776635685246
 51
234.5366357585195
  0
ARC
  5
4C0
330
20
100
AcDbEntity
  8
0
100
AcDbCircle
 10
2181.463668948345
 20
878.5345787405887
 30
0.0
 40
0.7588826915834856
100
AcDbArc
 50
234.6375381129099
 51
253.6188782267279
  0
ARC
  5
4C1
330
20
100
AcDbEntity
  8
0
100
AcDbCircle
 10
2181.385727087001
 20
878.7321022884905
 30
0.0
 40
1.282411053372409
100
AcDbArc
 50
234.5366357585242
 51
253.5609766775903
  0
LINE
  5
4C2
330
20
100
AcDbEntity
  8
0
100
AcDbLine
 10
2179.741820697307
 20
877.0177616344982
 30
0.0
 11
2179.741820697307
 21
876.6429909903505
 31
0.0
  0
LINE
  5
4C3
330
20
100
AcDbEntity
  8
0
100
AcDbLine
 10
2179.741820697307
 20
876.6429909903505
 30
0.0
 11
2182.215306948684
 21
876.6429909903505
 31
0.0
  0
LINE
  5
4C4
330
20
100
AcDbEntity
  8
0
100
AcDbLine
 10
2179.741820697307
 20
877.0177616344982
 30
0.0
 11
2182.215306948684
 21
877.0177616344987
 31
0.0
  0
LINE
  5
4C5
330
20
100
AcDbEntity
  8
0
100
AcDbLine
 10
2179.741820697307
 20
875.631110251151
 30
0.0
 11
2182.215306948684
 21
875.631110251151
 31
0.0
  0
ARC
  5
4C6
330
20
100
AcDbEntity
  8
0
100
AcDbCircle
 10
2181.52198125701
 20
878.732948256925
 30
0.0
 40
0.9656453341310376
100
AcDbArc
 50
253.6188782267025
 51
269.9999999999877
  0
ARC
  5
4C7
330
20
100
AcDbEntity
  8
0
100
AcDbCircle
 10
2181.52198125701
 20
879.1938927992056
 30
0.0
 40
1.76388345614468
100
AcDbArc
 50
253.5609766775962
 51
269.99999999999
  0
LINE
  5
4C8
330
20
100
AcDbEntity
  8
0
100
AcDbLine
 10
2183.459386622936
 20
876.4556056682764
 30
0.0
 11
2179.095001851472
 21
876.4556056682764
 31
0.0
  0
LINE
  5
4C9
330
20
100
AcDbEntity
  8
0
100
AcDbLine
 10
2182.73998585049
 20
874.7316607051958
 30
0.0
 11
2182.73998585049
 21
874.3568900610481
 31
0.0
  0
LWPOLYLINE
  5
4CA
330
20
100
AcDbEntity
  8
0
100
AcDbPolyline
 90
        5
 70
     0
 43
0.0
 10
2180.341453727944
 20
874.7316607051958
 42
0.0706700048674347
 10
2180.086036123076
 20
874.6953787774346
 42
0.0823139390329339
 10
2179.897414741088
 20
874.6050844406378
 42
0.1068415809705633
 10
2179.772989961819
 20
874.4707701333297
 42
0.1343800092877643
 10
2179.741820697307
 20
874.3568900610481
 42
0.1343800092877643
  0
LINE
  5
4D1
330
20
100
AcDbEntity
  8
0
100
AcDbLine
 10
2180.341453727944
 20
874.7316607051958
 30
0.0
 11
2182.73998585049
 21
874.7316607051958
 31
0.0
  0
LINE
  5
4D2
330
20
100
AcDbEntity
  8
0
100
AcDbLine
 10
2179.741820697307
 20
875.2563396070032
 30
0.0
 11
2182.140352819854
 21
875.2563396070032
 31
0.0
  0
LINE
  5
4D3
330
20
100
AcDbEntity
  8
0
100
AcDbLine
 10
2182.73998585049
 20
873.3824863862638
 30
0.0
 11
2182.73998585049
 21
873.0077157421156
 31
0.0
  0
LINE
  5
4D4
330
20
100
AcDbEntity
  8
0
100
AcDbLine
 10
2179.741820697307
 20
873.0077157421156
 30
0.0
 11
2180.266499599115
 21
873.0077157421161
 31
0.0
  0
LINE
  5
4D5
330
20
100
AcDbEntity
  8
0
100
AcDbLine
 10
2180.266499599115
 20
873.3824863862635
 30
0.0
 11
2182.73998585049
 21
873.3824863862638
 31
0.0
  0
LINE
  5
4D6
330
20
100
AcDbEntity
  8
0
100
AcDbLine
 10
2180.266499599115
 20
873.0077157421156
 30
0.0
 11
2182.73998585049
 21
873.0077157421156
 31
0.0
  0
LINE
  5
4D7
330
20
100
AcDbEntity
  8
0
100
AcDbLine
 10
2180.266499599115
 20
874.3568900610481
 30
0.0
 11
2182.73998585049
 21
874.3568900610481
 31
0.0
  0
LINE
  5
4D8
330
20
100
AcDbEntity
  8
0
100
AcDbLine
 10
2180.266499599115
 20
874.3568900610481
 30
0.0
 11
2180.266499599115
 21
873.3824863862635
 31
0.0
  0
LINE
  5
4D9
330
20
100
AcDbEntity
  8
0
100
AcDbLine
 10
2179.741820697307
 20
874.3568900610481
 30
0.0
 11
2179.741820697307
 21
873.0077157421156
 31
0.0
  0
LWPOLYLINE
  5
4DA
330
20
100
AcDbEntity
  8
0
100
AcDbPolyline
 90
        5
 70
     0
 43
0.0
 10
2182.140352819854
 20
875.2563396070032
 42
0.0706700048673327
 10
2182.395770424722
 20
875.2926215347644
 42
0.0823139390333952
 10
2182.58439180671
 20
875.3829158715612
 42
0.1068415809722693
 10
2182.70881658598
 20
875.5172301788721
 42
0.134380009285371
 10
2182.73998585049
 20
875.6311102511514
 42
0.134380009285371
  0
LINE
  5
4E1
330
20
100
AcDbEntity
  8
0
100
AcDbLine
 10
2179.741820697307
 20
875.631110251151
 30
0.0
 11
2179.741820697307
 21
875.2563396070032
 31
0.0
  0
ARC
  5
4E2
330
20
100
AcDbEntity
  8
0
100
AcDbCircle
 10
2192.343874423604
 20
875.7556056682773
 30
0.0
 40
2.143171170351632
100
AcDbArc
 50
120.9450912751989
 51
145.8232751902696
  0
ARC
  5
4E3
330
20
100
AcDbEntity
  8
0
100
AcDbCircle
 10
2192.343874423604
 20
875.7556056682773
 30
0.0
 40
2.143171170351632
100
AcDbArc
 50
176.8491455706358
 51
239.0549087248008
  0
LWPOLYLINE
  5
4E4
330
20
100
AcDbEntity
  8
0
100
AcDbPolyline
 90
        4
 70
     0
 43
0.0
 10
2191.241820697308
 20
875.3174924373295
 42
0.0735732784180301
 10
2192.731413057222
 20
874.3271785435309
 42
0.0619120471428732
 10
2195.295390546979
 20
873.4883702824037
 42
0.0160454922619853
 10
2196.436403545856
 20
873.3037403052263
 42
0.0481647152345752
  0
LINE
  5
4EA
330
20
100
AcDbEntity
  8
0
100
AcDbLine
 10
2182.215306948684
 20
879.3413396282154
 30
0.0
 11
2182.739985850491
 21
879.3413396282154
 31
0.0
  0
LINE
  5
4EB
330
20
100
AcDbEntity
  8
0
100
AcDbLine
 10
2182.739985850491
 20
879.3413396282154
 30
0.0
 11
2182.73998585049
 21
878.2545047601862
 31
0.0
  0
LINE
  5
4EC
330
20
100
AcDbEntity
  8
0
100
AcDbLine
 10
2180.303976663529
 20
878.9665689840672
 30
0.0
 11
2180.303976663529
 21
878.2545047601862
 31
0.0
  0
LINE
  5
4ED
330
20
100
AcDbEntity
  8
0
100
AcDbLine
 10
2179.741820697307
 20
878.9665689840672
 30
0.0
 11
2180.303976663529
 21
878.9665689840672
 31
0.0
  0
LINE
  5
4EE
330
20
100
AcDbEntity
  8
0
100
AcDbLine
 10
2180.791178500922
 20
878.9665689840672
 30
0.0
 11
2180.791178500921
 21
878.3294588890163
 31
0.0
  0
LINE
  5
4EF
330
20
100
AcDbEntity
  8
0
100
AcDbLine
 10
2179.741820697307
 20
879.3413396282154
 30
0.0
 11
2179.741820697307
 21
878.9665689840672
 31
0.0
  0
LINE
  5
4F0
330
20
100
AcDbEntity
  8
0
100
AcDbLine
 10
2180.791178500922
 20
878.9665689840672
 30
0.0
 11
2182.215306948684
 21
878.9665689840672
 31
0.0
  0
LINE
  5
4F1
330
20
100
AcDbEntity
  8
0
100
AcDbLine
 10
2179.741820697307
 20
879.3413396282154
 30
0.0
 11
2182.215306948684
 21
879.3413396282149
 31
0.0
  0
ARC
  5
4F2
330
20
100
AcDbEntity
  8
0
100
AcDbCircle
 10
2196.436403545856
 20
879.9545107134305
 30
0.0
 40
0.35
100
AcDbArc
 50
270.0
 51
90.0
  0
LWPOLYLINE
  5
4F3
330
20
100
AcDbEntity
  8
0
100
AcDbPolyline
 90
        3
 70
     0
 43
0.0
 10
2196.436403545856
 20
879.6074710313277
 42
0.0160454922619853
 10
2195.295390546979
 20
879.4228410541503
 42
0.0248262161446195
 10
2194.241820697308
 20
879.1626102211585
 42
0.0735732784180331
  0
LWPOLYLINE
  5
4F8
330
20
100
AcDbEntity
  8
0
100
AcDbPolyline
 90
        3
 70
     0
 43
0.0
 10
2196.436403545856
 20
879.6074710313277
 42
0.0160454922619853
 10
2195.295390546979
 20
879.4228410541503
 42
0.0248262161446195
 10
2194.241820697308
 20
879.1626102211585
 42
0.0735732784180344
  0
LWPOLYLINE
  5
4FD
330
20
100
AcDbEntity
  8
0
100
AcDbPolyline
 90
        5
 70
     0
 43
0.0
 10
2203.241820697308
 20
879.8626102211587
 42
0.0248262161446173
 10
2202.188250847637
 20
880.1228410541504
 42
0.0481647152345745
 10
2198.741820697308
 20
880.4556056682772
 42
0.0481647152345737
 10
2195.295390546979
 20
880.1228410541504
 42
0.0248262161446186
 10
2194.241820697308
 20
879.8626102211587
 42
0.07357327841803
  0
LWPOLYLINE
  5
504
330
20
100
AcDbEntity
  8
0
100
AcDbPolyline
 90
        2
 70
     0
 43
0.0
 10
2206.588267562453
 20
877.9556056682771
 42
0.0198119158173504
 10
2206.241820697308
 20
878.2937188992232
 42
0.0619120471428751
  0
ARC
  5
508
330
20
100
AcDbEntity
  8
0
100
AcDbCircle
 10
2201.545887447847
 20
872.9647105574516
 30
0.0
 40
7.723040432382684
100
AcDbArc
 50
40.25829666232989
 51
52.5519361330333
  0
ARC
  5
509
330
20
100
AcDbEntity
  8
0
100
AcDbCircle
 10
2204.819122574867
 20
876.4556056682767
 30
0.0
 40
2.319455536779795
100
AcDbArc
 50
319.7064819183506
 51
40.29351808167965
  0
ARC
  5
50A
330
20
100
AcDbEntity
  8
0
100
AcDbCircle
 10
2204.819122574867
 20
876.4556056682767
 30
0.0
 40
3.019455536779795
100
AcDbArc
 50
330.2129177867004
 51
29.7870822133285
  0
LINE
  5
50B
330
20
100
AcDbEntity
  8
0
100
AcDbLine
 10
2213.288234194386
 20
873.4408785709414
 30
0.0
 11
2211.441820697308
 21
874.9902034553405
 31
0.0
  0
LINE
  5
50C
330
20
100
AcDbEntity
  8
0
100
AcDbLine
 10
2212.607005256983
 20
867.5223264017862
 30
0.0
 11
2212.607005256983
 21
871.4333116025537
 31
0.0
  0
LINE
  5
50D
330
20
100
AcDbEntity
  8
0
100
AcDbLine
 10
2213.307005256984
 20
867.6087644135185
 30
0.0
 11
2213.307005256984
 21
872.0206813443779
 31
0.0
  0
LINE
  5
50E
330
20
100
AcDbEntity
  8
0
100
AcDbLine
 10
2214.707005256983
 20
867.8912223071584
 30
0.0
 11
2214.707005256983
 21
872.2503882955912
 31
0.0
  0
LINE
  5
50F
330
20
100
AcDbEntity
  8
0
100
AcDbLine
 10
2216.807005256983
 20
868.6092551819815
 30
0.0
 11
2216.807005256983
 21
870.4882790701191
 31
0.0
  0
LINE
  5
510
330
20
100
AcDbEntity
  8
0
100
AcDbLine
 10
2216.107005256983
 20
868.3281543086149
 30
0.0
 11
2216.107005256983
 21
871.0756488119431
 31
0.0
  0
LINE
  5
511
330
20
100
AcDbEntity
  8
0
100
AcDbLine
 10
2215.407005256983
 20
868.0895577264267
 30
0.0
 11
2215.407005256983
 21
871.6630185537672
 31
0.0
  0
LINE
  5
512
330
20
100
AcDbEntity
  8
0
100
AcDbLine
 10
2214.007005256983
 20
867.731402436361
 30
0.0
 11
2214.007005256983
 21
872.6080510862018
 31
0.0
  0
ARC
  5
513
330
20
100
AcDbEntity
  8
0
100
AcDbCircle
 10
2217.441820697306
 20
870.0293201826092
 30
0.0
 40
1.000000000001648
100
AcDbArc
 50
298.4846353952459
 51
359.9999999999699
  0
LINE
  5
516
330
20
100
AcDbEntity
  8
0
100
AcDbLine
 10
2193.041820697308
 20
872.7869669859783
 30
0.0
 11
2193.041820697308
 21
869.8211740104776
 31
0.0
  0
LINE
  5
517
330
20
100
AcDbEntity
  8
0
100
AcDbLine
 10
2191.041820697308
 20
870.2461306489654
 30
0.0
 11
2191.041820697308
 21
868.378908837654
 31
0.0
  0
ARC
  5
518
330
20
100
AcDbEntity
  8
0
100
AcDbCircle
 10
2189.241820697308
 20
876.4556056682764
 30
0.0
 40
6.5
100
AcDbArc
 50
255.5224878140701
 51
284.4775121859299
  0
ARC
  5
519
330
20
100
AcDbEntity
  8
0
100
AcDbCircle
 10
2190.741820697308
 20
870.6461306489652
 30
0.0
 40
0.5
100
AcDbArc
 50
284.4775121859295
 51
0.0
  0
LINE
  5
51A
330
20
100
AcDbEntity
  8
0
100
AcDbLine
 10
2190.541820697308
 20
870.1310503479396
 30
0.0
 11
2190.541820697308
 21
868.1985320847134
 31
0.0
  0
LINE
  5
51B
330
20
100
AcDbEntity
  8
0
100
AcDbLine
 10
2190.041820697308
 20
870.0329893789437
 30
0.0
 11
2190.041820697308
 21
868.0391978032776
 31
0.0
  0
LINE
  5
51C
330
20
100
AcDbEntity
  8
0
100
AcDbLine
 10
2189.541820697308
 20
869.9748649698687
 30
0.0
 11
2189.541820697308
 21
867.9001639565505
 31
0.0
  0
ARC
  5
51D
330
20
100
AcDbEntity
  8
0
100
AcDbCircle
 10
2192.041820697308
 20
869.8211740104776
 30
0.0
 40
1.0
100
AcDbArc
 50
296.4971851675124
 51
0.0
  0
ARC
  5
51E
330
20
100
AcDbEntity
  8
0
100
AcDbCircle
 10
2186.241820697308
 20
881.4556056682764
 30
0.0
 40
14.0
100
AcDbArc
 50
241.5153646048223
 51
296.4971851676601
  0
LINE
  5
51F
330
20
100
AcDbEntity
  8
0
100
AcDbLine
 10
2188.541820697308
 20
869.9748649698682
 30
0.0
 11
2188.541820697308
 21
867.6806283543207
 31
0.0
  0
LINE
  5
520
330
20
100
AcDbEntity
  8
0
100
AcDbLine
 10
2188.041820697308
 20
870.0329893789437
 30
0.0
 11
2188.041820697308
 21
867.5991992077253
 31
0.0
  0
LINE
  5
521
330
20
100
AcDbEntity
  8
0
100
AcDbLine
 10
2187.541820697308
 20
870.1310503479396
 30
0.0
 11
2187.541820697308
 21
867.5361947612016
 31
0.0
  0
LINE
  5
522
330
20
100
AcDbEntity
  8
0
100
AcDbLine
 10
2189.041820697308
 20
869.9556056682764
 30
0.0
 11
2189.041820697308
 21
867.7808113370989
 31
0.0
  0
ARC
  5
523
330
20
100
AcDbEntity
  8
0
100
AcDbCircle
 10
2187.741820697308
 20
870.6461306489652
 30
0.0
 40
0.5
100
AcDbArc
 50
180.0
 51
255.5224878140706
  0
LINE
  5
524
330
20
100
AcDbEntity
  8
0
100
AcDbLine
 10
2181.541820697308
 20
870.7231471716806
 30
0.0
 11
2181.541820697308
 21
868.2681115924484
 31
0.0
  0
LINE
  5
525
330
20
100
AcDbEntity
  8
0
100
AcDbLine
 10
2182.041820697308
 20
871.1770153772201
 30
0.0
 11
2182.041820697308
 21
868.1004568484391
 31
0.0
  0
LINE
  5
526
330
20
100
AcDbEntity
  8
0
100
AcDbLine
 10
2182.541820697307
 20
870.8086331655241
 30
0.0
 11
2182.541820697307
 21
867.9533836289234
 31
0.0
  0
LINE
  5
527
330
20
100
AcDbEntity
  8
0
100
AcDbLine
 10
2180.541820697308
 20
870.2491903254392
 30
0.0
 11
2180.541820697308
 21
868.6685027907671
 31
0.0
  0
LINE
  5
528
330
20
100
AcDbEntity
  8
0
100
AcDbLine
 10
2180.041820697308
 20
870.3477994646542
 30
0.0
 11
2180.041820697308
 21
868.9033150406659
 31
0.0
  0
LINE
  5
529
330
20
100
AcDbEntity
  8
0
100
AcDbLine
 10
2181.041820697308
 20
870.3266449081075
 30
0.0
 11
2181.041820697308
 21
868.4571442208591
 31
0.0
  0
ARC
  5
52A
330
20
100
AcDbEntity
  8
0
100
AcDbCircle
 10
2182.096755038557
 20
871.516233497685
 30
0.0
 40
0.9608998298130892
100
AcDbArc
 50
82.9130225520374
 51
120.0434690248099
  0
ARC
  5
52B
330
20
100
AcDbEntity
  8
0
100
AcDbCircle
 10
2181.926408272701
 20
871.8926770152389
 30
0.0
 40
0.551275229829199
100
AcDbArc
 50
124.3096129107865
 51
141.1286274958458
  0
LINE
  5
52C
330
20
100
AcDbEntity
  8
0
100
AcDbLine
 10
2182.215306948684
 20
871.8668463380378
 30
0.0
 11
2182.215306948684
 21
871.5086331655244
 31
0.0
  0
LINE
  5
52D
330
20
100
AcDbEntity
  8
0
100
AcDbLine
 10
2182.73998585049
 20
871.9583579385012
 30
0.0
 11
2182.739985850491
 21
871.5086331655244
 31
0.0
  0
ARC
  5
52E
330
20
100
AcDbEntity
  8
0
100
AcDbCircle
 10
2182.065398691024
 20
871.6280620626314
 30
0.0
 40
0.8549747776775021
100
AcDbArc
 50
71.2783772158282
 51
79.9017609511947
  0
ARC
  5
52F
330
20
100
AcDbEntity
  8
0
100
AcDbCircle
 10
2182.120208464301
 20
871.7897895601801
 30
0.0
 40
0.6842120923213382
100
AcDbArc
 50
50.71059313758208
 51
71.27837721584045
  0
ARC
  5
530
330
20
100
AcDbEntity
  8
0
100
AcDbCircle
 10
2182.204389109349
 20
871.8926770152386
 30
0.0
 40
0.5512752298299287
100
AcDbArc
 50
26.85131591379482
 51
50.71059313755769
  0
ARC
  5
531
330
20
100
AcDbEntity
  8
0
100
AcDbCircle
 10
2182.3341263804
 20
871.9583579385021
 30
0.0
 40
0.4058594700898474
100
AcDbArc
 50
359.9999999999639
 51
26.85131591379488
  0
LINE
  5
532
330
20
100
AcDbEntity
  8
0
100
AcDbLine
 10
2182.215306948684
 20
871.5086331655244
 30
0.0
 11
2182.739985850491
 21
871.5086331655244
 31
0.0
  0
ARC
  5
533
330
20
100
AcDbEntity
  8
0
100
AcDbCircle
 10
2180.041820697308
 20
870.0293201826081
 30
0.0
 40
1.0
100
AcDbArc
 50
180.0
 51
241.5153646048219
  0
ARC
  5
534
330
20
100
AcDbEntity
  8
0
100
AcDbCircle
 10
2181.982623869323
 20
870.9969751757258
 30
0.0
 40
0.8510917451476068
100
AcDbArc
 50
129.2894068625242
 51
141.1216012888278
  0
LWPOLYLINE
  5
535
330
20
100
AcDbEntity
  8
0
100
AcDbPolyline
 90
        7
 70
     0
 43
0.0
 10
2180.266499599115
 20
871.8834038096721
 42
0.0754446162288198
 10
2180.291187145218
 20
871.720721377637
 42
0.0857828071081956
 10
2180.362341918814
 20
871.581456563984
 42
0.1060700219652435
 10
2180.486290215967
 20
871.4736314931966
 42
0.1268223572472497
 10
2180.641270243263
 20
871.4336790366948
 42
0.126822357249983
 10
2180.796250270561
 20
871.4736314931984
 42
0.0965127511265071
 10
2180.911086234003
 20
871.5697739667691
 42
0.0965127511265071
  0
LWPOLYLINE
  5
53E
330
20
100
AcDbEntity
  8
0
100
AcDbPolyline
 90
        5
 70
     0
 43
0.0
 10
2179.741820697307
 20
871.6585414231833
 42
0.117295982938376
 10
2179.802109144795
 20
871.4050844139125
 42
0.1043956093345458
 10
2179.99441490546
 20
871.1648728827528
 42
0.0901710756146071
 10
2180.279210833491
 20
871.0063855908598
 42
0.0821741584486471
 10
2180.641270243263
 20
870.9464771993022
 42
0.0821741584486471
  0
LINE
  5
545
330
20
100
AcDbEntity
  8
0
100
AcDbLine
 10
2179.741820697307
 20
872.4830368403088
 30
0.0
 11
2179.741820697307
 21
871.6585414231833
 31
0.0
  0
LINE
  5
546
330
20
100
AcDbEntity
  8
0
100
AcDbLine
 10
2179.741820697307
 20
872.4830368403088
 30
0.0
 11
2180.266499599115
 21
872.4830368403088
 31
0.0
  0
LINE
  5
547
330
20
100
AcDbEntity
  8
0
100
AcDbLine
 10
2180.266499599115
 20
872.4830368403088
 30
0.0
 11
2180.266499599115
 21
871.8834038096721
 31
0.0
  0
LINE
  5
548
330
20
100
AcDbEntity
  8
0
100
AcDbLine
 10
2180.907899788787
 20
871.0616461127935
 30
0.0
 11
2181.32393536813
 21
871.5372497779522
 31
0.0
  0
LWPOLYLINE
  5
549
330
20
100
AcDbEntity
  8
0
100
AcDbPolyline
 90
        3
 70
     0
 43
0.0
 10
2180.641270243263
 20
870.9464771993022
 42
0.1268223572475736
 10
2180.80600233196
 20
870.9889436494833
 42
0.0576258872680318
 10
2180.907899788857
 20
871.0616461128717
 42
0.0081535545860314
  0
LINE
  5
54E
330
20
100
AcDbEntity
  8
0
100
AcDbLine
 10
2179.541820697308
 20
870.6308148417443
 30
0.0
 11
2179.541820697308
 21
869.1632947788235
 31
0.0
  0
ARC
  5
54F
330
20
100
AcDbEntity
  8
0
100
AcDbCircle
 10
2182.066804514371
 20
870.8940877206666
 30
0.0
 40
0.9840286076396395
100
AcDbArc
 50
81.32017625485335
 51
129.2894068625102
  0
LINE
  5
550
330
20
100
AcDbEntity
  8
0
100
AcDbLine
 10
2180.895597367982
 20
871.5519086369074
 30
0.0
 11
2181.493328324956
 21
872.2352220582735
 31
0.0
  0
LINE
  5
551
330
20
100
AcDbEntity
  8
0
100
AcDbLine
 10
2203.241820697308
 20
869.331250015295
 30
0.0
 11
2203.241820697308
 21
872.3486011153953
 31
0.0
  0
ARC
  5
552
330
20
100
AcDbEntity
  8
0
100
AcDbCircle
 10
2205.441820697308
 20
869.8211740104781
 30
0.0
 40
1.0
100
AcDbArc
 50
179.9999999999992
 51
243.5028148323156
  0
ARC
  5
553
330
20
100
AcDbEntity
  8
0
100
AcDbCircle
 10
2204.241820697308
 20
869.331250015295
 30
0.0
 40
1.0
100
AcDbArc
 50
180.0
 51
239.9999999999989
  0
ARC
  5
554
330
20
100
AcDbEntity
  8
0
100
AcDbCircle
 10
2198.741820697307
 20
889.7692594051292
 30
0.0
 40
18.01365373685211
100
AcDbArc
 50
258.9699844021212
 51
270.0000000000018
  0
LINE
  5
555
330
20
100
AcDbEntity
  8
0
100
AcDbLine
 10
2194.241820697308
 20
869.331250015295
 30
0.0
 11
2194.241820697308
 21
872.348601115395
 31
0.0
  0
ARC
  5
556
330
20
100
AcDbEntity
  8
0
100
AcDbCircle
 10
2193.241820697308
 20
869.331250015295
 30
0.0
 40
1.0
100
AcDbArc
 50
300.0000000000011
 51
0.000000000000007
  0
ARC
  5
557
330
20
100
AcDbEntity
  8
0
100
AcDbCircle
 10
2198.741820697309
 20
889.7692594051283
 30
0.0
 40
18.01365373685121
100
AcDbArc
 50
269.9999999999985
 51
281.030015597879
  0
ARC
  5
558
330
20
100
AcDbEntity
  8
0
100
AcDbCircle
 10
2200.096126385086
 20
882.8213951921851
 30
0.0
 40
10.93502667947331
100
AcDbArc
 50
281.0300155978803
 51
293.4163952040109
  0
LWPOLYLINE
  5
559
330
20
100
AcDbEntity
  8
0
100
AcDbPolyline
 90
        2
 70
     0
 43
0.0
 10
2204.441820697308
 20
869.8211740104781
 10
2204.441820697308
 20
872.7869669859781
 42
-0.284399089359825
  0
ARC
  5
55D
330
20
100
AcDbEntity
  8
0
100
AcDbCircle
 10
2197.38751500953
 20
882.8213951921842
 30
0.0
 40
10.93502667947244
100
AcDbArc
 50
244.7988763545231
 51
258.9699844021183
  0
LINE
  5
55E
330
20
100
AcDbEntity
  8
0
100
AcDbLine
 10
2211.907005256983
 20
867.4714171147151
 30
0.0
 11
2211.907005256983
 21
870.8459418607297
 31
0.0
  0
LINE
  5
55F
330
20
100
AcDbEntity
  8
0
100
AcDbLine
 10
2211.441820697308
 20
870.4556056682768
 30
0.0
 11
2211.441820697308
 21
871.8915536865424
 31
0.0
  0
ARC
  5
560
330
20
100
AcDbEntity
  8
0
100
AcDbCircle
 10
2209.741820697308
 20
870.6461306489657
 30
0.0
 40
0.4999999999999812
100
AcDbArc
 50
284.4775121859271
 51
0.0
  0
LINE
  5
561
330
20
100
AcDbEntity
  8
0
100
AcDbLine
 10
2209.807005256983
 20
867.5293245906811
 30
0.0
 11
2209.807005256983
 21
870.1468659134484
 31
0.0
  0
LINE
  5
562
330
20
100
AcDbEntity
  8
0
100
AcDbLine
 10
2209.107005256983
 20
867.6193286026876
 30
0.0
 11
2209.107005256983
 21
870.0134433234037
 31
0.0
  0
LINE
  5
563
330
20
100
AcDbEntity
  8
0
100
AcDbLine
 10
2208.407005256983
 20
867.7456158280437
 30
0.0
 11
2208.407005256983
 21
869.9577049256337
 31
0.0
  0
LINE
  5
564
330
20
100
AcDbEntity
  8
0
100
AcDbLine
 10
2207.707005256983
 20
867.9092009864863
 30
0.0
 11
2207.707005256983
 21
869.977645152436
 31
0.0
  0
ARC
  5
565
330
20
100
AcDbEntity
  8
0
100
AcDbCircle
 10
2206.741820697308
 20
870.6461306489657
 30
0.0
 40
0.4999999999999716
100
AcDbArc
 50
180.0
 51
255.5224878140729
  0
LINE
  5
566
330
20
100
AcDbEntity
  8
0
100
AcDbLine
 10
2207.007005256983
 20
868.1114557070999
 30
0.0
 11
2207.007005256983
 21
870.0739733670287
 31
0.0
  0
LINE
  5
567
330
20
100
AcDbEntity
  8
0
100
AcDbLine
 10
2206.307005256983
 20
868.3541707632778
 30
0.0
 11
2206.307005256983
 21
870.3992794126794
 31
0.0
  0
ARC
  5
568
330
20
100
AcDbEntity
  8
0
100
AcDbCircle
 10
2208.241820697308
 20
876.4556056682764
 30
0.0
 40
6.49999999999949
100
AcDbArc
 50
255.5224878140689
 51
284.4775121859311
  0
ARC
  5
569
330
20
100
AcDbEntity
  8
0
100
AcDbCircle
 10
2211.241820697308
 20
881.4556056682739
 30
0.0
 40
13.99999999999711
100
AcDbArc
 50
243.5028148323128
 51
298.4846353951839
  0
ARC
  5
56A
330
20
100
AcDbEntity
  8
0
100
AcDbCircle
 10
2211.241820697308
 20
881.455605668277
 30
0.0
 40
15.0
100
AcDbArc
 50
239.9999999999993
 51
311.409622109271
  0
ARC
  5
56B
330
20
100
AcDbEntity
  8
0
100
AcDbCircle
 10
2200.68966537154
 20
881.1301000182746
 30
0.0
 40
9.148034673266606
100
AcDbArc
 50
294.2148684572233
 51
317.5494918425052
  0
LWPOLYLINE
  5
56C
330
20
100
AcDbEntity
  8
0
100
AcDbPolyline
 90
        7
 70
     0
 43
0.0
 10
2191.241820697308
 20
874.6174924373294
 42
0.0735732784180264
 10
2192.731413057222
 20
873.627178543531
 42
0.0619120471428774
 10
2195.29539054698
 20
872.7883702824037
 42
0.048164715234573
 10
2198.741820697308
 20
872.4556056682772
 42
0.0481647152345715
 10
2202.188250847637
 20
872.7883702824037
 42
0.0619120471428726
 10
2204.752228337394
 20
873.627178543531
 42
0.0935215137749404
 10
2206.588267562453
 20
874.9556056682772
 42
0.1824266424712656
  0
LINE
  5
575
330
20
100
AcDbEntity
  8
0
100
AcDbLine
 10
2191.241820697308
 20
873.9174924373301
 30
0.0
 11
2191.241820697308
 21
870.6461306489652
 31
0.0
  0
LINE
  5
576
330
20
100
AcDbEntity
  8
0
100
AcDbLine
 10
2191.541820697308
 20
873.6640519594821
 30
0.0
 11
2191.541820697308
 21
868.5812124786922
 31
0.0
  0
LINE
  5
577
330
20
100
AcDbEntity
  8
0
100
AcDbLine
 10
2192.041820697308
 20
873.3077936927479
 30
0.0
 11
2192.041820697308
 21
868.8064950276022
 31
0.0
  0
LINE
  5
578
330
20
100
AcDbEntity
  8
0
100
AcDbLine
 10
2192.541820697308
 20
873.0204353051167
 30
0.0
 11
2192.541820697308
 21
869.0570176698207
 31
0.0
  0
LINE
  5
579
330
20
100
AcDbEntity
  8
0
100
AcDbLine
 10
2179.041820697308
 20
874.0544815008503
 30
0.0
 11
2179.041820697308
 21
870.0293201826081
 31
0.0
  0
CIRCLE
  5
57A
330
20
100
AcDbEntity
  8
0
100
AcDbCircle
 10
2196.436403545856
 20
872.9567006231235
 30
0.0
 40
0.35
  0
ARC
  5
57B
330
20
100
AcDbEntity
  8
0
100
AcDbCircle
 10
2195.333461407092
 20
878.4565312870027
 30
0.0
 40
6.111006249121361
100
AcDbArc
 50
227.9674489460636
 51
244.7988763545199
  0
LINE
  5
57C
330
20
100
AcDbEntity
  8
0
100
AcDbLine
 10
2204.907005256983
 20
868.9762051088067
 30
0.0
 11
2204.907005256983
 21
873.0121826330126
 31
0.0
  0
LINE
  5
57D
330
20
100
AcDbEntity
  8
0
100
AcDbLine
 10
2205.607005256983
 20
868.6396447228984
 30
0.0
 11
2205.607005256983
 21
873.4160669074878
 31
0.0
  0
LINE
  5
57E
330
20
100
AcDbEntity
  8
0
100
AcDbLine
 10
2212.607005256983
 20
872.8692596208192
 30
0.0
 11
2212.607005256983
 21
874.0124975210637
 31
0.0
  0
LINE
  5
57F
330
20
100
AcDbEntity
  8
0
100
AcDbLine
 10
2211.907005256983
 20
872.2818898789952
 30
0.0
 11
2211.907005256983
 21
874.5998672628878
 31
0.0
  0
LINE
  5
580
330
20
100
AcDbEntity
  8
0
100
AcDbLine
 10
2206.241820697308
 20
873.8596041877396
 30
0.0
 11
2206.241820697308
 21
870.6461306489657
 31
0.0
  0
LINE
  5
581
330
20
100
AcDbEntity
  8
0
100
AcDbLine
 10
2211.441820697308
 20
871.8915536865424
 30
0.0
 11
2213.288234194386
 21
873.4408785709414
 31
0.0
  0
LINE
  5
582
330
20
100
AcDbEntity
  8
0
100
AcDbLine
 10
2191.241820697308
 20
882.2650806875877
 30
0.0
 11
2191.241820697308
 21
875.3174924373301
 31
0.0
  0
LWPOLYLINE
  5
583
330
20
100
AcDbEntity
  8
0
100
AcDbPolyline
 90
       16
 70
     1
 43
0.0
 10
2181.240903273899
 20
881.6461790897248
 42
0.0754446162297015
 10
2180.871355852019
 20
881.5900991620939
 42
0.0857828071084749
 10
2180.567952018795
 20
881.4350806007265
 42
0.1060700219618438
 10
2180.343673497347
 20
881.1772654134207
 42
0.1268223572487845
 10
2180.266499599115
 20
880.877899269222
 42
0.1268223572497303
 10
2180.343673497347
 20
880.5785331250204
 42
0.1060700219617812
 10
2180.567952018797
 20
880.3207179377146
 42
0.0857828071078646
 10
2180.871355852019
 20
880.1656993763492
 42
0.0754446162295888
 10
2181.240903273899
 20
880.1096194487183
 42
0.0754446162292506
 10
2181.610450695778
 20
880.1656993763483
 42
0.0857828071080708
 10
2181.913854529001
 20
880.3207179377137
 42
0.1060700219655342
 10
2182.138133050455
 20
880.5785331250291
 42
0.1268223572458728
 10
2182.215306948684
 20
880.877899269222
 42
0.1268223572467848
 10
2182.138133050454
 20
881.1772654134157
 42
0.1060700219632698
 10
2181.913854529005
 20
881.4350806007261
 42
0.0857828071094354
 10
2181.610450695777
 20
881.5900991620948
 42
0.0754446162292444
  0
LWPOLYLINE
  5
595
330
20
100
AcDbEntity
  8
0
100
AcDbPolyline
 90
       16
 70
     1
 43
0.0
 10
2181.240903273899
 20
881.9647341372503
 42
0.0754446162291282
 10
2180.635230029378
 20
881.8728214091153
 42
0.0857828071091157
 10
2180.164835627478
 20
881.6324821138515
 42
0.1060700219624788
 10
2179.840119310082
 20
881.2592105332711
 42
0.1268223572482705
 10
2179.741820697307
 20
880.8778992692214
 42
0.1268223572472494
 10
2179.84011931008
 20
880.4965880051751
 42
0.1060700219643898
 10
2180.164835627483
 20
880.1233164245878
 42
0.0857828071075098
 10
2180.635230029374
 20
879.8829771293291
 42
0.0754446162296784
 10
2181.240903273899
 20
879.7910644011928
 42
0.0754446162294961
 10
2181.846576518423
 20
879.8829771293291
 42
0.0857828071084069
 10
2182.316970920319
 20
880.1233164245905
 42
0.1060700219622037
 10
2182.641687237715
 20
880.4965880051701
 42
0.1268223572488178
 10
2182.73998585049
 20
880.877899269222
 42
0.1268223572488321
 10
2182.641687237715
 20
881.2592105332734
 42
0.1060700219625793
 10
2182.316970920317
 20
881.6324821138538
 42
0.0857828071078009
 10
2181.846576518425
 20
881.8728214091139
 42
0.0754446162297125
  0
LINE
  5
5A7
330
20
100
AcDbEntity
  8
0
100
AcDbLine
 10
2172.241820697308
 20
879.4556056682768
 30
0.0
 11
2172.241820697308
 21
880.9556056682769
 31
0.0
  0
LWPOLYLINE
  5
5A8
330
20
100
AcDbEntity
  8
0
100
AcDbPolyline
 90
        5
 70
     0
 43
0.0
 10
2203.241820697308
 20
880.5626102211588
 42
0.0248262161446186
 10
2202.188250847637
 20
880.8228410541504
 42
0.0481647152345725
 10
2198.741820697308
 20
881.1556056682769
 42
0.0481647152345724
 10
2195.29539054698
 20
880.8228410541504
 42
0.0248262161446206
 10
2194.241820697308
 20
880.5626102211586
 42
0.0735732784180258
  0
LINE
  5
5AF
330
20
100
AcDbEntity
  8
0
100
AcDbLine
 10
2211.441820697308
 20
874.9902034553405
 30
0.0
 11
2211.441820697308
 21
882.4708817019544
 31
0.0
  0
LINE
  5
5B0
330
20
100
AcDbEntity
  8
0
100
AcDbLine
 10
2211.441820697308
 20
882.4708817019544
 30
0.0
 11
2216.341820697308
 21
878.4921932278095
 31
0.0
  0
LINE
  5
5B1
330
20
100
AcDbEntity
  8
0
100
AcDbLine
 10
2187.241820697308
 20
882.2650806875877
 30
0.0
 11
2187.241820697308
 21
870.6461306489652
 31
0.0
  0
INSERT
  5
5B2
330
20
100
AcDbEntity
  8
0
100
AcDbBlockReference
  2
*X2
 10
2056.403800760607
 20
514.5523710220442
 30
0.0
 50
270.0
1001
ACAD
1000
HATCH
1002
{
1070
    16
1000
E01
1040
0.2
1040
0.0
1002
}
  0
LINE
  5
5B3
330
20
100
AcDbEntity
  8
0
100
AcDbLine
 10
2124.233200204969
 20
916.4737648669442
 30
0.0
 11
2123.233200204968
 21
916.4737648669442
 31
0.0
  0
LINE
  5
5B4
330
20
100
AcDbEntity
  8
0
100
AcDbLine
 10
2123.233200204968
 20
919.8922542043955
 30
0.0
 11
2124.233200204969
 21
919.8922542043955
 31
0.0
  0
LINE
  5
5B6
330
20
100
AcDbEntity
  8
0
100
AcDbLine
 10
2115.474850133463
 20
916.4737648669438
 30
0.0
 11
2115.474850133463
 21
919.9688864956947
 31
0.0
  0
ARC
  5
5BD
330
20
100
AcDbEntity
  8
0
100
AcDbCircle
 10
2152.948857521584
 20
923.5241204829391
 30
0.0
 40
0.5
100
AcDbArc
 50
180.0000000000041
 51
270.0
  0
LINE
  5
5BE
330
20
100
AcDbEntity
  8
0
100
AcDbLine
 10
2123.361232615434
 20
894.7151036160425
 30
0.0
 11
2125.361232615434
 21
894.7151036160425
 31
0.0
  0
LINE
  5
5CC
330
20
100
AcDbEntity
  8
0
100
AcDbLine
 10
2216.807005256983
 20
882.9556056682768
 30
0.0
 11
2216.807005256983
 21
884.3019561545728
 31
0.0
  0
ARC
  5
5CD
330
20
100
AcDbEntity
  8
0
100
AcDbCircle
 10
2217.441820697308
 20
882.8818911539453
 30
0.0
 40
1.000000000000059
100
AcDbArc
 50
0.0000000000016284
 51
61.51536460482141
  0
LINE
  5
5CE
330
20
100
AcDbEntity
  8
0
100
AcDbLine
 10
2189.541820697308
 20
885.0110473800024
 30
0.0
 11
2189.541820697308
 21
882.9363463666842
 31
0.0
  0
LINE
  5
5CF
330
20
100
AcDbEntity
  8
0
100
AcDbLine
 10
2190.041820697308
 20
884.8720135332747
 30
0.0
 11
2190.041820697308
 21
882.8782219576092
 31
0.0
  0
ARC
  5
5D0
330
20
100
AcDbEntity
  8
0
100
AcDbCircle
 10
2192.041820697308
 20
883.0900373260757
 30
0.0
 40
1.0
100
AcDbArc
 50
0.0
 51
63.50281483249052
  0
ARC
  5
5D1
330
20
100
AcDbEntity
  8
0
100
AcDbCircle
 10
2186.241820697308
 20
871.4556056682765
 30
0.0
 40
14.0
100
AcDbArc
 50
63.50281483234184
 51
118.4846353951764
  0
LINE
  5
5D2
330
20
100
AcDbEntity
  8
0
100
AcDbLine
 10
2188.041820697308
 20
885.3120121288275
 30
0.0
 11
2188.041820697308
 21
882.8782219576092
 31
0.0
  0
LINE
  5
5D3
330
20
100
AcDbEntity
  8
0
100
AcDbLine
 10
2188.541820697308
 20
885.2305829822322
 30
0.0
 11
2188.541820697308
 21
882.9363463666842
 31
0.0
  0
LINE
  5
5D4
330
20
100
AcDbEntity
  8
0
100
AcDbLine
 10
2189.041820697308
 20
885.130399999454
 30
0.0
 11
2189.041820697308
 21
882.9556056682765
 31
0.0
  0
ARC
  5
5D5
330
20
100
AcDbEntity
  8
0
100
AcDbCircle
 10
2180.041820697308
 20
882.8818911539453
 30
0.0
 40
1.0
100
AcDbArc
 50
118.4846353951762
 51
180.0
  0
ARC
  5
5D7
330
20
100
AcDbEntity
  8
0
100
AcDbCircle
 10
2204.241820697308
 20
883.5799613212589
 30
0.0
 40
1.0
100
AcDbArc
 50
119.9999999999998
 51
180.0
  0
ARC
  5
5D8
330
20
100
AcDbEntity
  8
0
100
AcDbCircle
 10
2205.441820697308
 20
883.0900373260762
 30
0.0
 40
0.9999999999998578
100
AcDbArc
 50
116.4971851676756
 51
180.0000000000024
  0
ARC
  5
5D9
330
20
100
AcDbEntity
  8
0
100
AcDbCircle
 10
2193.241820697308
 20
883.5799613212589
 30
0.0
 40
1.0
100
AcDbArc
 50
0.000000000000007
 51
60.00000000000016
  0
LINE
  5
5DA
330
20
100
AcDbEntity
  8
0
100
AcDbLine
 10
2209.107005256983
 20
882.8977680131503
 30
0.0
 11
2209.107005256983
 21
885.2918827338664
 31
0.0
  0
LINE
  5
5DB
330
20
100
AcDbEntity
  8
0
100
AcDbLine
 10
2208.407005256983
 20
882.9535064109203
 30
0.0
 11
2208.407005256983
 21
885.1655955085101
 31
0.0
  0
LINE
  5
5DC
330
20
100
AcDbEntity
  8
0
100
AcDbLine
 10
2207.707005256983
 20
882.9335661841177
 30
0.0
 11
2207.707005256983
 21
885.0020103500677
 31
0.0
  0
ARC
  5
5DD
330
20
100
AcDbEntity
  8
0
100
AcDbCircle
 10
2211.241820697308
 20
871.4556056682773
 30
0.0
 40
13.99999999999965
100
AcDbArc
 50
61.51536460482174
 51
116.4971851676818
  0
LINE
  5
5EC
330
20
100
AcDbEntity
  8
0
100
AcDbLine
 10
2224.470577252631
 20
881.455605668277
 30
0.0
 11
2224.741820697308
 21
881.455605668277
 31
0.0
  0
ARC
  5
5ED
330
20
100
AcDbEntity
  8
0
100
AcDbCircle
 10
2224.741820697308
 20
880.9556056682769
 30
0.0
 40
0.5
100
AcDbArc
 50
0.0
 51
90.0
  0
LINE
  5
5EE
330
20
100
AcDbEntity
  8
0
100
AcDbLine
 10
2225.441820697308
 20
873.655605668277
 30
0.0
 11
2245.382863084747
 21
873.655605668277
 31
0.0
  0
LINE
  5
5EF
330
20
100
AcDbEntity
  8
0
100
AcDbLine
 10
2225.441820697308
 20
879.2556056682768
 30
0.0
 11
2245.382863084747
 21
879.2556056682768
 31
0.0
  0
ARC
  5
5F0
330
20
100
AcDbEntity
  8
0
100
AcDbCircle
 10
2225.441820697308
 20
873.455605668277
 30
0.0
 40
0.2
100
AcDbArc
 50
90.0
 51
179.9999999999995
  0
ARC
  5
5F1
330
20
100
AcDbEntity
  8
0
100
AcDbCircle
 10
2225.441820697308
 20
879.4556056682768
 30
0.0
 40
0.2
100
AcDbArc
 50
180.0000000000005
 51
269.9999999999999
  0
LINE
  5
5F2
330
20
100
AcDbEntity
  8
0
100
AcDbLine
 10
2224.470577252631
 20
871.4556056682768
 30
0.0
 11
2224.741820697308
 21
871.4556056682768
 31
0.0
  0
ARC
  5
5F3
330
20
100
AcDbEntity
  8
0
100
AcDbCircle
 10
2224.741820697308
 20
871.9556056682769
 30
0.0
 40
0.5
100
AcDbArc
 50
270.0
 51
0.0
  0
LINE
  5
5F4
330
20
100
AcDbEntity
  8
0
100
AcDbLine
 10
2225.241820697308
 20
871.9556056682769
 30
0.0
 11
2225.241820697308
 21
873.455605668277
 31
0.0
  0
LWPOLYLINE
  5
5F5
330
20
100
AcDbEntity
  8
0
100
AcDbPolyline
 90
        6
 70
     0
 43
0.0
 10
2245.382863084747
 20
879.2556056682768
 10
2247.453129828178
 20
878.2902244313914
 42
-0.2914734195860857
 10
2247.741820697308
 20
877.8370705378732
 10
2247.741820697308
 20
875.0741407986808
 42
-0.2914734195860855
 10
2247.453129828178
 20
874.6209869051623
 10
2245.382863084747
 20
873.655605668277
  0
ARC
  5
5FD
330
20
100
AcDbEntity
  8
0
100
AcDbCircle
 10
2247.241820697308
 20
877.9370705378731
 30
0.0
 40
0.5
100
AcDbArc
 50
0.0
 51
0.0
  0
ARC
  5
5FE
330
20
100
AcDbEntity
  8
0
100
AcDbCircle
 10
2247.241820697308
 20
874.9741407986807
 30
0.0
 40
0.5
100
AcDbArc
 50
0.0
 51
0.0
  0
LINE
  5
603
330
20
100
AcDbEntity
  8
0
100
AcDbLine
 10
2225.241820697308
 20
879.4556056682768
 30
0.0
 11
2225.241820697308
 21
880.9556056682769
 31
0.0
  0
LINE
  5
615
330
20
100
AcDbEntity
  8
0
100
AcDbLine
 10
2258.549907358515
 20
925.9048787597466
 30
0.0
 11
2260.549907358515
 21
925.9048787597466
 31
0.0
  0
LINE
  5
61E
330
20
100
AcDbEntity
  8
0
100
AcDbLine
 10
2260.549907358515
 20
923.0241204829395
 30
0.0
 11
2258.549907358515
 21
923.0241204829395
 31
0.0
  0
ARC
  5
61F
330
20
100
AcDbEntity
  8
0
100
AcDbCircle
 10
2248.948857521583
 20
923.5241204829391
 30
0.0
 40
0.5
100
AcDbArc
 50
270.0
 51
0.000000000003893
  0
LINE
  5
622
330
20
100
AcDbEntity
  8
0
100
AcDbLine
 10
2114.543524150281
 20
979.6231789826274
 30
0.0
 11
2117.74352415028
 21
979.6231789826274
 31
0.0
  0
LINE
  5
62A
330
20
100
AcDbEntity
  8
0
100
AcDbLine
 10
2114.543524150281
 20
959.6231789826275
 30
0.0
 11
2117.74352415028
 21
959.6231789826275
 31
0.0
  0
LINE
  5
631
330
20
100
AcDbEntity
  8
0
100
AcDbLine
 10
1906.341444746187
 20
968.5696585833438
 30
0.0
 11
1975.341444746188
 21
968.5696585833438
 31
0.0
  0
ARC
  5
632
330
20
100
AcDbEntity
  8
0
100
AcDbCircle
 10
1906.341444746187
 20
967.5696585833438
 30
0.0
 40
1.0
100
AcDbArc
 50
89.99999999999998
 51
180.0
  0
LINE
  5
633
330
20
100
AcDbEntity
  8
T
100
AcDbLine
 10
1921.814582818762
 20
956.3196585833438
 30
0.0
 11
1934.256631799144
 21
956.3196585833438
 31
0.0
  0
CIRCLE
  5
634
330
20
100
AcDbEntity
  8
0
100
AcDbCircle
 10
1928.341444746188
 20
956.3196585833438
 30
0.0
 40
4.5
  0
LINE
  5
635
330
20
100
AcDbEntity
  8
T
100
AcDbLine
 10
1928.341444746188
 20
962.867932944388
 30
0.0
 11
1928.341444746188
 21
948.380645645383
 31
0.0
  0
LINE
  5
636
330
20
100
AcDbEntity
  8
0
100
AcDbLine
 10
2002.436771623111
 20
968.5696585833438
 30
0.0
 11
2004.43677162311
 21
968.5696585833438
 31
0.0
  0
ARC
  5
637
330
20
100
AcDbEntity
  8
0
100
AcDbCircle
 10
1975.341444746188
 20
958.5696585833439
 30
0.0
 40
10.0
100
AcDbArc
 50
0.0
 51
90.0
  0
LINE
  5
63A
330
20
100
AcDbEntity
  8
0
100
AcDbLine
 10
2114.543524150281
 20
979.6231789826274
 30
0.0
 11
2114.543524150281
 21
959.6231789826275
 31
0.0
  0
LINE
  5
63B
330
20
100
AcDbEntity
  8
0
100
AcDbLine
 10
2100.427457846544
 20
976.6231789826274
 30
0.0
 11
2100.427457846544
 21
962.6231789826274
 31
0.0
  0
LINE
  5
63C
330
20
100
AcDbEntity
  8
T
100
AcDbLine
 10
2052.927457846545
 20
978.6231789826274
 30
0.0
 11
2052.927457846545
 21
960.6231789826273
 31
0.0
  0
LINE
  5
63D
330
20
100
AcDbEntity
  8
T
100
AcDbLine
 10
2088.427457846544
 20
978.623178982627
 30
0.0
 11
2088.427457846544
 21
960.6231789826276
 31
0.0
  0
LINE
  5
63E
330
20
100
AcDbEntity
  8
0
100
AcDbLine
 10
2040.927457846544
 20
976.6231789826274
 30
0.0
 11
2040.927457846544
 21
962.6231789826274
 31
0.0
  0
CIRCLE
  5
63F
330
20
100
AcDbEntity
  8
0
100
AcDbCircle
 10
2052.927457846545
 20
969.6231789826274
 30
0.0
 40
4.5
  0
CIRCLE
  5
640
330
20
100
AcDbEntity
  8
0
100
AcDbCircle
 10
2088.427457846544
 20
969.6231789826274
 30
0.0
 40
4.5
  0
LINE
  5
641
330
20
100
AcDbEntity
  8
T
100
AcDbLine
 10
2061.927457846544
 20
969.6231789826274
 30
0.0
 11
2043.927457846544
 21
969.6231789826274
 31
0.0
  0
LINE
  5
642
330
20
100
AcDbEntity
  8
0
100
AcDbLine
 10
2043.927457846544
 20
959.6231789826275
 30
0.0
 11
2097.427457846544
 21
959.6231789826275
 31
0.0
  0
LINE
  5
643
330
20
100
AcDbEntity
  8
0
100
AcDbLine
 10
2055.974850133463
 20
932.5737648669447
 30
0.0
 11
2082.474850133464
 21
932.5737648669447
 31
0.0
  0
ARC
  5
64A
330
20
100
AcDbEntity
  8
0
100
AcDbCircle
 10
2043.927457846544
 20
962.6231789826274
 30
0.0
 40
3.0
100
AcDbArc
 50
180.0
 51
270.0
  0
LINE
  5
64C
330
20
100
AcDbEntity
  8
T
100
AcDbLine
 10
2097.427457846544
 20
969.6231789826274
 30
0.0
 11
2079.427457846545
 21
969.6231789826274
 31
0.0
  0
ARC
  5
653
330
20
100
AcDbEntity
  8
0
100
AcDbCircle
 10
2097.427457846544
 20
962.6231789826274
 30
0.0
 40
3.0
100
AcDbArc
 50
270.0
 51
0.0
  0
LINE
  5
656
330
20
100
AcDbEntity
  8
0
100
AcDbLine
 10
2043.927457846544
 20
979.6231789826274
 30
0.0
 11
2097.427457846544
 21
979.6231789826274
 31
0.0
  0
ARC
  5
659
330
20
100
AcDbEntity
  8
0
100
AcDbCircle
 10
2043.927457846544
 20
976.6231789826274
 30
0.0
 40
3.0
100
AcDbArc
 50
90.0
 51
180.0
  0
ARC
  5
65B
330
20
100
AcDbEntity
  8
0
100
AcDbCircle
 10
2097.427457846544
 20
976.6231789826274
 30
0.0
 40
3.0
100
AcDbArc
 50
0.0
 51
90.0
  0
LINE
  5
65D
330
20
100
AcDbEntity
  8
0
100
AcDbLine
 10
1956.362071489064
 20
1060.54144729949
 30
0.0
 11
1956.362071489064
 21
1063.666447299489
 31
0.0
  0
LINE
  5
65E
330
20
100
AcDbEntity
  8
0
100
AcDbLine
 10
1954.643321489064
 20
1060.85394729949
 30
0.0
 11
1954.643321489065
 21
1063.66644729949
 31
0.0
  0
LINE
  5
65F
330
20
100
AcDbEntity
  8
0
100
AcDbLine
 10
1976.974385622166
 20
1072.425693896138
 30
0.0
 11
1990.834678555016
 21
1060.223838913776
 31
0.0
  0
LINE
  5
660
330
20
100
AcDbEntity
  8
0
100
AcDbLine
 10
1948.705821489064
 20
1044.36957229949
 30
0.0
 11
1948.705821489065
 21
1067.96332229949
 31
0.0
  0
LINE
  5
661
330
20
100
AcDbEntity
  8
0
100
AcDbLine
 10
1957.143321489064
 20
1067.96332229949
 30
0.0
 11
1957.143321489064
 21
1044.36957229949
 31
0.0
  0
LINE
  5
662
330
20
100
AcDbEntity
  8
0
100
AcDbLine
 10
1933.674648837201
 20
1082.068481505824
 30
0.0
 11
1900.746040227545
 21
1042.825693896137
 31
0.0
  0
LINE
  5
663
330
20
100
AcDbEntity
  8
0
100
AcDbLine
 10
1956.362071489064
 20
1058.97894729949
 30
0.0
 11
1951.049571489065
 21
1058.97894729949
 31
0.0
  0
LINE
  5
664
330
20
100
AcDbEntity
  8
0
100
AcDbLine
 10
1956.362071489064
 20
1057.57269729949
 30
0.0
 11
1951.205821489064
 21
1057.57269729949
 31
0.0
  0
LINE
  5
665
330
20
100
AcDbEntity
  8
0
100
AcDbLine
 10
1956.362071489064
 20
1056.08832229949
 30
0.0
 11
1951.596446489064
 21
1056.08832229949
 31
0.0
  0
LINE
  5
666
330
20
100
AcDbEntity
  8
0
100
AcDbLine
 10
1956.362071489064
 20
1054.68207229949
 30
0.0
 11
1951.596446489064
 21
1054.682072299489
 31
0.0
  0
LINE
  5
667
330
20
100
AcDbEntity
  8
0
100
AcDbLine
 10
1954.643321489064
 20
1060.85394729949
 30
0.0
 11
1949.487071489065
 21
1060.85394729949
 31
0.0
  0
LINE
  5
668
330
20
100
AcDbEntity
  8
0
100
AcDbLine
 10
1954.799571489064
 20
1059.44769729949
 30
0.0
 11
1949.487071489065
 21
1059.44769729949
 31
0.0
  0
LINE
  5
669
330
20
100
AcDbEntity
  8
0
100
AcDbLine
 10
1899.673904265059
 20
1026.825202879147
 30
0.0
 11
1966.173904265059
 21
1026.825202879149
 31
0.0
  0
LINE
  5
66A
330
20
100
AcDbEntity
  8
0
100
AcDbLine
 10
1953.549571489064
 20
1051.24457229949
 30
0.0
 11
1951.596446489064
 21
1051.24457229949
 31
0.0
  0
LINE
  5
66B
330
20
100
AcDbEntity
  8
0
100
AcDbLine
 10
1956.362071489064
 20
1049.83832229949
 30
0.0
 11
1951.596446489064
 21
1049.83832229949
 31
0.0
  0
LINE
  5
66C
330
20
100
AcDbEntity
  8
0
100
AcDbLine
 10
1956.362071489064
 20
1043.58832229949
 30
0.0
 11
1949.487071489064
 21
1043.58832229949
 31
0.0
  0
LWPOLYLINE
  5
66D
330
20
100
AcDbEntity
  8
0
100
AcDbPolyline
 90
       12
 70
     0
 43
0.0
 10
1952.924571489065
 20
1045.65863479949
 42
0.0754446162298031
 10
1953.602222524908
 20
1045.761470372948
 42
0.0857828071075565
 10
1954.139911269229
 20
1046.036192464367
 42
0.106070021963608
 10
1954.521391004058
 20
1046.474715371747
 42
0.1268223572477123
 10
1954.643321489064
 20
1046.94769729949
 42
0.126822357247646
 10
1954.521391004058
 20
1047.420679227232
 42
0.1060700219634622
 10
1954.139911269229
 20
1047.859202134613
 42
0.0857828071074464
 10
1953.602222524908
 20
1048.133924226032
 42
0.0754446162297881
 10
1952.924571489064
 20
1048.23675979949
 42
0.0754446162298112
 10
1952.246920453221
 20
1048.133924226032
 42
0.0857828071075643
 10
1951.7092317089
 20
1047.859202134613
 42
0.0265540687188986
 10
1951.596446489064
 20
1047.7648587267
 42
0.126822357248024
  0
LWPOLYLINE
  5
67B
330
20
100
AcDbEntity
  8
0
100
AcDbPolyline
 90
       10
 70
     0
 43
0.0
 10
1952.924571489064
 20
1044.36957229949
 42
0.0754446162298111
 10
1954.279873560751
 20
1044.575243446405
 42
0.0857828071075875
 10
1955.355251049393
 20
1045.124687629243
 42
0.1060700219635767
 10
1956.11821051905
 20
1046.001733444004
 42
0.1268223572479102
 10
1956.362071489064
 20
1046.94769729949
 42
0.1268223572479303
 10
1956.11821051905
 20
1047.893661154975
 42
0.1060700219636211
 10
1955.355251049393
 20
1048.770706969736
 42
0.0857828071075752
 10
1954.279873560751
 20
1049.320151152574
 42
0.0754446162297991
 10
1952.924571489064
 20
1049.52582229949
 42
0.0738800655322404
 10
1951.596446489064
 20
1049.328501345544
 42
0.0857828071075875
  0
LWPOLYLINE
  5
687
330
20
100
AcDbEntity
  8
0
100
AcDbPolyline
 90
        7
 70
     0
 43
0.0
 10
1953.549571489064
 20
1052.260197299489
 42
0.1328538425877623
 10
1953.465092743833
 20
1052.572524295984
 42
0.1067232875209038
 10
1953.194896106907
 20
1052.867867189572
 42
0.0830116115266005
 10
1952.818215939125
 20
1053.050544131548
 42
0.0715980967399362
 10
1952.338633989064
 20
1053.11957229949
 42
0.0715980967398975
 10
1951.859052039004
 20
1053.050544131548
 42
0.0562866148919174
 10
1951.596446489064
 20
1052.940023876242
 42
0.1067232875208468
  0
LWPOLYLINE
  5
690
330
20
100
AcDbEntity
  8
0
100
AcDbPolyline
 90
        6
 70
     0
 43
0.0
 10
1955.190196489064
 20
1052.416447299489
 42
0.1324412179213031
 10
1954.991030726018
 20
1053.155160911295
 42
0.1066881118558797
 10
1954.354993169792
 20
1053.852757948774
 42
0.0832005337998968
 10
1953.467643338854
 20
1054.284612087838
 42
0.0718520396288232
 10
1952.338633989065
 20
1054.44769729949
 42
0.0468154260104154
 10
1951.596446489064
 20
1054.37805301323
 42
0.0832005337999331
  0
LINE
  5
698
330
20
100
AcDbEntity
  8
0
100
AcDbLine
 10
1951.596446489064
 20
1054.682072299489
 30
0.0
 11
1951.596446489064
 21
1056.08832229949
 31
0.0
  0
LINE
  5
699
330
20
100
AcDbEntity
  8
0
100
AcDbLine
 10
1951.205821489064
 20
1054.682072299489
 30
0.0
 11
1951.205821489064
 21
1057.57269729949
 31
0.0
  0
LINE
  5
69A
330
20
100
AcDbEntity
  8
0
100
AcDbLine
 10
1949.487071489064
 20
1054.68207229949
 30
0.0
 11
1949.487071489065
 21
1057.88519729949
 31
0.0
  0
LINE
  5
69B
330
20
100
AcDbEntity
  8
0
100
AcDbLine
 10
1949.487071489065
 20
1059.44769729949
 30
0.0
 11
1949.487071489065
 21
1060.853947299489
 31
0.0
  0
LWPOLYLINE
  5
69C
330
20
100
AcDbEntity
  8
0
100
AcDbPolyline
 90
        5
 70
     0
 43
0.0
 10
1951.049571489065
 20
1058.97894729949
 42
0.0706700048675362
 10
1950.430100919153
 20
1058.89095185188
 42
0.0823139390330781
 10
1949.944717143461
 20
1058.658595341412
 42
0.1068415809708999
 10
1949.59560483397
 20
1058.281734893695
 42
0.1343800092875898
 10
1949.487071489064
 20
1057.88519729949
 42
0.1343800092873367
  0
LINE
  5
6A3
330
20
100
AcDbEntity
  8
0
100
AcDbLine
 10
1951.205821489064
 20
1054.682072299489
 30
0.0
 11
1949.487071489065
 21
1054.682072299489
 31
0.0
  0
LINE
  5
6A5
330
20
100
AcDbEntity
  8
0
100
AcDbLine
 10
1951.596446489064
 20
1049.83832229949
 30
0.0
 11
1951.596446489064
 21
1051.24457229949
 31
0.0
  0
LINE
  5
6A6
330
20
100
AcDbEntity
  8
0
100
AcDbLine
 10
1951.596446489064
 20
1049.328501345544
 30
0.0
 11
1951.596446489064
 21
1047.764858726701
 31
0.0
  0
LINE
  5
6A7
330
20
100
AcDbEntity
  8
0
100
AcDbLine
 10
1949.487071489064
 20
1049.83832229949
 30
0.0
 11
1949.487071489065
 21
1052.41644729949
 31
0.0
  0
LINE
  5
6A8
330
20
100
AcDbEntity
  8
0
100
AcDbLine
 10
1951.205821489064
 20
1049.83832229949
 30
0.0
 11
1949.487071489065
 21
1049.83832229949
 31
0.0
  0
LWPOLYLINE
  5
6A9
330
20
100
AcDbEntity
  8
0
100
AcDbPolyline
 90
        5
 70
     0
 43
0.0
 10
1951.205821489064
 20
1046.94769729949
 42
0.1268223572482204
 10
1951.327751974073
 20
1046.474715371746
 42
0.1060700219636179
 10
1951.7092317089
 20
1046.036192464367
 42
0.0857828071076583
 10
1952.246920453223
 20
1045.761470372948
 42
0.07544461622981
 10
1952.924571489065
 20
1045.65863479949
 42
0.0754446162298031
  0
ARC
  5
6B0
330
20
100
AcDbEntity
  8
0
100
AcDbCircle
 10
1949.487071489064
 20
1044.36957229949
 30
0.0
 40
0.78125
100
AcDbArc
 50
180.0
 51
270.0
  0
LINE
  5
6B1
330
20
100
AcDbEntity
  8
0
100
AcDbLine
 10
1951.205821489064
 20
1049.18503852057
 30
0.0
 11
1951.205821489064
 21
1046.94769729949
 31
0.0
  0
LWPOLYLINE
  5
6B2
330
20
100
AcDbEntity
  8
0
100
AcDbPolyline
 90
        8
 70
     0
 43
0.0
 10
1951.205821489064
 20
1049.18503852057
 42
0.0582828962521839
 10
1950.493891928735
 20
1048.770706969736
 42
0.1060700219634277
 10
1949.730932459079
 20
1047.893661154976
 42
0.1268223572478424
 10
1949.487071489065
 20
1046.94769729949
 42
0.1268223572476431
 10
1949.730932459079
 20
1046.001733444005
 42
0.1060700219635432
 10
1950.493891928735
 20
1045.124687629243
 42
0.0857828071075834
 10
1951.569269417379
 20
1044.575243446407
 42
0.0754446162298071
 10
1952.924571489064
 20
1044.36957229949
 42
0.0754446162298111
  0
LINE
  5
6BC
330
20
100
AcDbEntity
  8
0
100
AcDbLine
 10
1951.596446489064
 20
1052.940023876242
 30
0.0
 11
1951.596446489064
 21
1054.3780530132
 31
0.0
  0
LINE
  5
6BD
330
20
100
AcDbEntity
  8
0
100
AcDbLine
 10
1951.205821489064
 20
1049.83832229949
 30
0.0
 11
1951.205821489064
 21
1054.283487198375
 31
0.0
  0
LWPOLYLINE
  5
6BE
330
20
100
AcDbEntity
  8
0
100
AcDbPolyline
 90
        4
 70
     0
 43
0.0
 10
1951.205821489064
 20
1054.283487198388
 42
0.0828661734288564
 10
1950.322274808337
 20
1053.852757948775
 42
0.1066881118558668
 10
1949.68623725211
 20
1053.155160911295
 42
0.1324412179211201
 10
1949.487071489065
 20
1052.416447299489
 42
0.1324412179211822
  0
LINE
  5
6C4
330
20
100
AcDbEntity
  8
0
100
AcDbLine
 10
1956.362071489064
 20
1057.57269729949
 30
0.0
 11
1956.362071489064
 21
1058.97894729949
 31
0.0
  0
LINE
  5
6C5
330
20
100
AcDbEntity
  8
0
100
AcDbLine
 10
1956.362071489064
 20
1054.68207229949
 30
0.0
 11
1956.362071489064
 21
1056.08832229949
 31
0.0
  0
LWPOLYLINE
  5
6C6
330
20
100
AcDbEntity
  8
0
100
AcDbPolyline
 90
        5
 70
     0
 43
0.0
 10
1954.799571489065
 20
1059.44769729949
 42
0.0706700048675007
 10
1955.419042058975
 20
1059.5356927471
 42
0.082313939032987
 10
1955.904425834669
 20
1059.768049257567
 42
0.1068415809705338
 10
1956.25353814416
 20
1060.144909705284
 42
0.1343800092875062
 10
1956.362071489064
 20
1060.54144729949
 42
0.1343800092872593
  0
ARC
  5
6CD
330
20
100
AcDbEntity
  8
0
100
AcDbCircle
 10
1990.173904265059
 20
1059.473254249843
 30
0.0
 40
1.0
100
AcDbArc
 50
0.0
 51
48.64104869185196
  0
LINE
  5
6CE
330
20
100
AcDbEntity
  8
0
100
AcDbLine
 10
1956.362071489064
 20
1049.83832229949
 30
0.0
 11
1956.362071489064
 21
1051.24457229949
 31
0.0
  0
LINE
  5
6CF
330
20
100
AcDbEntity
  8
0
100
AcDbLine
 10
1955.190196489064
 20
1051.24457229949
 30
0.0
 11
1955.190196489064
 21
1052.41644729949
 31
0.0
  0
LINE
  5
6D0
330
20
100
AcDbEntity
  8
0
100
AcDbLine
 10
1956.362071489064
 20
1051.24457229949
 30
0.0
 11
1955.190196489064
 21
1051.24457229949
 31
0.0
  0
LINE
  5
6D1
330
20
100
AcDbEntity
  8
0
100
AcDbLine
 10
1953.549571489064
 20
1051.24457229949
 30
0.0
 11
1953.549571489064
 21
1052.260197299489
 31
0.0
  0
ARC
  5
6D2
330
20
100
AcDbEntity
  8
0
100
AcDbCircle
 10
1956.362071489064
 20
1044.36957229949
 30
0.0
 40
0.78125
100
AcDbArc
 50
269.9999999999998
 51
0.0000000000007994
  0
ARC
  5
6D3
330
20
100
AcDbEntity
  8
0
100
AcDbCircle
 10
1966.173904265059
 20
1051.825202879149
 30
0.0
 40
25.0
100
AcDbArc
 50
270.0000000000012
 51
0.0
  0
LINE
  5
6D4
330
20
100
AcDbEntity
  8
0
100
AcDbLine
 10
1991.173904265059
 20
1059.473254249843
 30
0.0
 11
1991.173904265059
 21
1051.825202879149
 31
0.0
  0
LINE
  5
6D5
330
20
100
AcDbEntity
  8
0
100
AcDbLine
 10
1934.440693280321
 20
1082.425693896138
 30
0.0
 11
1975.974385622166
 21
1082.425693896138
 31
0.0
  0
LINE
  5
6D6
330
20
100
AcDbEntity
  8
0
100
AcDbLine
 10
1977.353362068863
 20
1086.925202879147
 30
0.0
 11
1931.174385622166
 21
1086.925202879147
 31
0.0
  0
LINE
  5
6D7
330
20
100
AcDbEntity
  8
0
100
AcDbLine
 10
1978.157209646157
 20
1083.925202879147
 30
0.0
 11
1931.174385622166
 21
1083.925202879147
 31
0.0
  0
LWPOLYLINE
  5
6D8
330
20
100
AcDbEntity
  8
0
100
AcDbPolyline
 90
        4
 70
     0
 43
0.0
 10
1954.174571489065
 20
1067.96332229949
 42
0.1268223572478286
 10
1953.680090382788
 20
1067.835849519709
 42
0.1060700219635992
 10
1953.221634615981
 20
1067.437029796934
 42
0.0057743164530331
 10
1953.196350073489
 20
1067.402493244286
 42
0.0754446162296929
  0
LINE
  5
6DE
330
20
100
AcDbEntity
  8
0
100
AcDbLine
 10
1953.854838452011
 20
1066.154669018684
 30
0.0
 11
1952.633573051565
 21
1064.758544174489
 31
0.0
  0
LINE
  5
6DF
330
20
100
AcDbEntity
  8
0
100
AcDbLine
 10
1954.018321489064
 20
1062.26019729949
 30
0.0
 11
1949.487071489065
 21
1062.26019729949
 31
0.0
  0
LINE
  5
6E0
330
20
100
AcDbEntity
  8
0
100
AcDbLine
 10
1954.018321489065
 20
1063.66644729949
 30
0.0
 11
1949.487071489065
 21
1063.66644729949
 31
0.0
  0
LINE
  5
6E1
330
20
100
AcDbEntity
  8
0
100
AcDbLine
 10
1949.487071489065
 20
1068.74457229949
 30
0.0
 11
1956.362071489064
 21
1068.74457229949
 31
0.0
  0
LINE
  5
6E2
330
20
100
AcDbEntity
  8
0
100
AcDbLine
 10
1953.196708989064
 20
1067.402903549489
 30
0.0
 11
1952.516273051564
 21
1066.625042611989
 31
0.0
  0
LWPOLYLINE
  5
6E3
330
20
100
AcDbEntity
  8
0
100
AcDbPolyline
 90
        3
 70
     0
 43
0.0
 10
1951.830821489064
 20
1066.1385598068
 42
0.0792288271524657
 10
1952.303973769229
 20
1066.414265888446
 42
0.0516736063679847
 10
1952.516273051564
 20
1066.628093576635
 42
0.1177000051911746
  0
LWPOLYLINE
  5
6E8
330
20
100
AcDbEntity
  8
0
100
AcDbPolyline
 90
        4
 70
     0
 43
0.0
 10
1951.830821489065
 20
1064.23060747753
 42
0.0059451780358123
 10
1951.878186351752
 20
1064.24603415296
 42
0.0899855981123524
 10
1952.421161269229
 20
1064.547078388446
 42
0.051704345889002
 10
1952.633573051565
 20
1064.761045624531
 42
0.1177000051911746
  0
LINE
  5
6EE
330
20
100
AcDbEntity
  8
0
100
AcDbLine
 10
1951.830821489064
 20
1064.23060747753
 30
0.0
 11
1951.830821489064
 21
1066.1385598068
 31
0.0
  0
LINE
  5
6EF
330
20
100
AcDbEntity
  8
0
100
AcDbLine
 10
1951.205821489064
 20
1064.13519729949
 30
0.0
 11
1951.205821489064
 21
1066.79144729949
 31
0.0
  0
ARC
  5
6F0
330
20
100
AcDbEntity
  8
0
100
AcDbCircle
 10
1934.440693280321
 20
1081.425693896138
 30
0.0
 40
1.0
100
AcDbArc
 50
90.0
 51
139.9999999999997
  0
LINE
  5
6F1
330
20
100
AcDbEntity
  8
0
100
AcDbLine
 10
1949.487071489065
 20
1062.26019729949
 30
0.0
 11
1949.487071489065
 21
1063.666447299489
 31
0.0
  0
LINE
  5
6F2
330
20
100
AcDbEntity
  8
0
100
AcDbLine
 10
1949.487071489065
 20
1065.54144729949
 30
0.0
 11
1949.487071489064
 21
1066.79144729949
 31
0.0
  0
ARC
  5
6F3
330
20
100
AcDbEntity
  8
0
100
AcDbCircle
 10
1949.487071489065
 20
1067.96332229949
 30
0.0
 40
0.78125
100
AcDbArc
 50
90.0
 51
179.9999999999991
  0
LINE
  5
6F4
330
20
100
AcDbEntity
  8
0
100
AcDbLine
 10
1951.205821489064
 20
1066.79144729949
 30
0.0
 11
1949.487071489064
 21
1066.79144729949
 31
0.0
  0
LWPOLYLINE
  5
6F5
330
20
100
AcDbEntity
  8
0
100
AcDbPolyline
 90
        5
 70
     0
 43
0.0
 10
1949.487071489065
 20
1065.541447299489
 42
0.1177000051909316
 10
1949.611985314919
 20
1065.018153532224
 42
0.1044834732993702
 10
1949.9904817089
 20
1064.547078388446
 42
0.0899855981122599
 10
1950.533456626376
 20
1064.24603415296
 42
0.0818706787250684
 10
1951.205821489064
 20
1064.13519729949
 42
0.0818706787250626
  0
ARC
  5
6FC
330
20
100
AcDbEntity
  8
0
100
AcDbCircle
 10
1931.174385622166
 20
1083.925202879147
 30
0.0
 40
3.0
100
AcDbArc
 50
90.0
 51
140.0
  0
LINE
  5
6FD
330
20
100
AcDbEntity
  8
0
100
AcDbLine
 10
1954.018321489064
 20
1062.26019729949
 30
0.0
 11
1954.018321489065
 21
1063.66644729949
 31
0.0
  0
LINE
  5
6FE
330
20
100
AcDbEntity
  8
0
100
AcDbLine
 10
1956.362071489065
 20
1064.13519729949
 30
0.0
 11
1956.362071489064
 21
1066.16644729949
 31
0.0
  0
ARC
  5
6FF
330
20
100
AcDbEntity
  8
0
100
AcDbCircle
 10
1956.362071489064
 20
1067.96332229949
 30
0.0
 40
0.78125
100
AcDbArc
 50
0.0000000000007994
 51
89.99999999999984
  0
LWPOLYLINE
  5
700
330
20
100
AcDbEntity
  8
0
100
AcDbPolyline
 90
        7
 70
     0
 43
0.0
 10
1954.643321489064
 20
1065.69769729949
 42
0.0754446162298549
 10
1954.60592673508
 20
1065.944115857979
 42
0.0857828071075482
 10
1954.506027792746
 20
1066.139639037731
 42
0.1060700219639336
 10
1954.346564917334
 20
1066.278358941305
 42
0.1268223572479166
 10
1954.174571489064
 20
1066.322697299489
 42
0.1268223572479166
 10
1954.002578060794
 20
1066.278358941305
 42
0.0965127511279588
 10
1953.854838452003
 20
1066.154669018674
 42
0.0857828071079652
  0
LINE
  5
709
330
20
100
AcDbEntity
  8
0
100
AcDbLine
 10
1954.643321489064
 20
1064.13519729949
 30
0.0
 11
1954.643321489064
 21
1065.69769729949
 31
0.0
  0
LWPOLYLINE
  5
70A
330
20
100
AcDbEntity
  8
0
100
AcDbPolyline
 90
        5
 70
     0
 43
0.0
 10
1956.362071489064
 20
1066.16644729949
 42
0.1172959829388765
 10
1956.202925101556
 20
1066.835510264198
 42
0.1043956093338737
 10
1955.721367572909
 20
1067.437029796934
 42
0.0901710756155552
 10
1955.029983608934
 20
1067.821780986554
 42
0.0821741584480373
 10
1954.174571489065
 20
1067.96332229949
 42
0.0821741584480756
  0
LINE
  5
711
330
20
100
AcDbEntity
  8
0
100
AcDbLine
 10
1956.362071489065
 20
1064.13519729949
 30
0.0
 11
1954.643321489064
 21
1064.13519729949
 31
0.0
  0
LINE
  5
712
330
20
100
AcDbEntity
  8
0
100
AcDbLine
 10
1956.362071489064
 20
1063.66644729949
 30
0.0
 11
1954.643321489065
 21
1063.666447299489
 31
0.0
  0
ARC
  5
713
330
20
100
AcDbEntity
  8
0
100
AcDbCircle
 10
1975.974385622166
 20
1081.425693896138
 30
0.0
 40
1.0
100
AcDbArc
 50
0.0
 51
90.0
  0
LINE
  5
714
330
20
100
AcDbEntity
  8
0
100
AcDbLine
 10
1976.974385622166
 20
1081.425693896138
 30
0.0
 11
1976.974385622166
 21
1072.425693896138
 31
0.0
  0
LINE
  5
715
330
20
100
AcDbEntity
  8
0
100
AcDbLine
 10
1976.174385622166
 20
1091.325202879148
 30
0.0
 11
1978.174385622166
 21
1083.86110126401
 31
0.0
  0
LINE
  5
716
330
20
100
AcDbEntity
  8
0
100
AcDbLine
 10
1978.174385622166
 20
1071.369278562798
 30
0.0
 11
1978.174385622166
 21
1083.86110126401
 31
0.0
  0
ARC
  5
717
330
20
100
AcDbEntity
  8
0
100
AcDbCircle
 10
2154.139039871521
 20
1066.825238586801
 30
0.0
 40
121.0
100
AcDbArc
 50
179.999999999998
 51
191.5369590328133
  0
LINE
  5
718
330
20
100
AcDbEntity
  8
0
100
AcDbLine
 10
2064.139039871521
 20
1061.17499307831
 30
0.0
 11
2064.13903987152
 21
1042.825238586805
 31
0.0
  0
ARC
  5
719
330
20
100
AcDbEntity
  8
0
100
AcDbCircle
 10
2154.13903987152
 20
1067.824747569812
 30
0.0
 40
123.0
100
AcDbArc
 50
180.0000000000013
 51
190.0786581077875
  0
LINE
  5
71A
330
20
100
AcDbEntity
  8
0
100
AcDbLine
 10
2065.13903987152
 20
1101.325238586804
 30
0.0
 11
2065.139039871523
 21
1042.825238586805
 31
0.0
  0
LINE
  5
71B
330
20
100
AcDbEntity
  8
0
100
AcDbLine
 10
2064.139039871521
 20
1059.924747569815
 30
0.0
 11
2033.335963653552
 21
1059.924747569815
 31
0.0
  0
LINE
  5
71C
330
20
100
AcDbEntity
  8
0
100
AcDbLine
 10
2074.13903987152
 20
1026.825238586805
 30
0.0
 11
2056.159450160191
 21
1026.825238586805
 31
0.0
  0
ARC
  5
71E
330
20
100
AcDbEntity
  8
0
100
AcDbCircle
 10
2055.143294421704
 20
1046.799407593678
 30
0.0
 40
20.0
100
AcDbArc
 50
192.0466748738361
 51
272.9123256695623
  0
ARC
  5
71F
330
20
100
AcDbEntity
  8
0
100
AcDbCircle
 10
2035.990827866429
 20
1046.824747569812
 30
0.0
 40
3.0
100
AcDbArc
 50
190.0786581077864
 51
257.2942524180381
  0
LINE
  5
724
330
20
100
AcDbEntity
  8
0
100
AcDbLine
 10
2074.13903987152
 20
1042.825238586805
 30
0.0
 11
2064.139039871521
 21
1042.825238586805
 31
0.0
  0
LINE
  5
726
330
20
100
AcDbEntity
  8
0
100
AcDbLine
 10
2074.13903987152
 20
1042.825238586805
 30
0.0
 11
2074.13903987152
 21
1026.825238586805
 31
0.0
  0
ARC
  5
72C
330
20
100
AcDbEntity
  8
0
100
AcDbCircle
 10
2059.139039871521
 20
1061.17499307831
 30
0.0
 40
5.0
100
AcDbArc
 50
359.9999999999984
 51
89.99999999999984
  0
LINE
  5
72D
330
20
100
AcDbEntity
  8
T
100
AcDbLine
 10
2064.839039871515
 20
1091.325238586804
 30
0.0
 11
2038.439039871514
 21
1091.325238586804
 31
0.0
  0
CIRCLE
  5
72E
330
20
100
AcDbEntity
  8
0
100
AcDbCircle
 10
2051.639039871514
 20
1091.325238586804
 30
0.0
 40
12.6
  0
CIRCLE
  5
72F
330
20
100
AcDbEntity
  8
0
100
AcDbCircle
 10
2051.639039871514
 20
1091.325238586804
 30
0.0
 40
11.1
  0
CIRCLE
  5
730
330
20
100
AcDbEntity
  8
0
100
AcDbCircle
 10
2051.639039871514
 20
1091.325238586804
 30
0.0
 40
11.0
  0
LINE
  5
732
330
20
100
AcDbEntity
  8
0
100
AcDbLine
 10
2039.039039871514
 20
1091.325238586803
 30
0.0
 11
2034.958504548002
 21
1091.325238586803
 31
0.0
  0
LINE
  5
733
330
20
100
AcDbEntity
  8
0
100
AcDbLine
 10
2059.139039871521
 20
1066.17499307831
 30
0.0
 11
2038.139039871522
 21
1066.17499307831
 31
0.0
  0
LINE
  5
734
330
20
100
AcDbEntity
  8
0
100
AcDbLine
 10
2033.139039871522
 20
1081.925238586805
 30
0.0
 11
2033.139039871522
 21
1066.825238586806
 31
0.0
  0
LINE
  5
735
330
20
100
AcDbEntity
  8
0
100
AcDbLine
 10
2036.139039871522
 20
1081.925238586805
 30
0.0
 11
2036.139039871522
 21
1068.17499307831
 31
0.0
  0
LINE
  5
736
330
20
100
AcDbEntity
  8
0
100
AcDbLine
 10
2035.639039871522
 20
1082.425238586805
 30
0.0
 11
2033.639039871522
 21
1082.425238586805
 31
0.0
  0
ARC
  5
737
330
20
100
AcDbEntity
  8
0
100
AcDbCircle
 10
2035.639039871522
 20
1081.925238586805
 30
0.0
 40
0.5
100
AcDbArc
 50
0.0
 51
90.0
  0
ARC
  5
738
330
20
100
AcDbEntity
  8
0
100
AcDbCircle
 10
2033.639039871522
 20
1081.925238586805
 30
0.0
 40
0.5
100
AcDbArc
 50
90.0
 51
180.0
  0
LINE
  5
739
330
20
100
AcDbEntity
  8
0
100
AcDbLine
 10
2036.139039871522
 20
1072.425238586805
 30
0.0
 11
2033.139039871522
 21
1072.425238586805
 31
0.0
  0
ARC
  5
73A
330
20
100
AcDbEntity
  8
0
100
AcDbCircle
 10
2038.139039871522
 20
1068.17499307831
 30
0.0
 40
2.0
100
AcDbArc
 50
180.0
 51
269.9999999999994
  0
LINE
  5
73B
330
20
100
AcDbEntity
  8
0
100
AcDbLine
 10
2037.139039871521
 20
1071.525729603796
 30
0.0
 11
2036.139039871522
 21
1071.525729603796
 31
0.0
  0
ARC
  5
73C
330
20
100
AcDbEntity
  8
0
100
AcDbCircle
 10
2032.876968307489
 20
1085.425238586804
 30
0.0
 40
1.5
100
AcDbArc
 50
90.0
 51
176.4137252096095
  0
LINE
  5
73D
330
20
100
AcDbEntity
  8
0
100
AcDbLine
 10
2032.876968307489
 20
1086.925238586804
 30
0.0
 11
2034.5236562455
 21
1086.925238586804
 31
0.0
  0
ARC
  5
73E
330
20
100
AcDbEntity
  8
0
100
AcDbCircle
 10
2036.772562545155
 20
1083.425238586804
 30
0.0
 40
0.5
100
AcDbArc
 50
357.2682727064079
 51
90.0
  0
LINE
  5
73F
330
20
100
AcDbEntity
  8
0
100
AcDbLine
 10
2031.290393155327
 20
1083.925238586804
 30
0.0
 11
2036.772562545155
 21
1083.925238586804
 31
0.0
  0
ARC
  5
740
330
20
100
AcDbEntity
  8
0
100
AcDbCircle
 10
2154.13903987152
 20
1077.825238586808
 30
0.0
 40
123.0
100
AcDbArc
 50
176.41372520961
 51
180.0000000000013
  0
LINE
  5
741
330
20
100
AcDbEntity
  8
0
100
AcDbLine
 10
2041.487823832098
 20
1083.861136971674
 30
0.0
 11
2037.017496409836
 21
1083.861136971674
 31
0.0
  0
ARC
  5
742
330
20
100
AcDbEntity
  8
0
100
AcDbCircle
 10
2154.13903987152
 20
1077.825238586808
 30
0.0
 40
117.0
100
AcDbArc
 50
177.268272706409
 51
180.0000000000025
  0
ARC
  5
743
330
20
100
AcDbEntity
  8
0
100
AcDbCircle
 10
2154.139039871521
 20
1067.824747569818
 30
0.0
 40
117.0
100
AcDbArc
 50
180.0000000000025
 51
180.6790065424642
  0
LINE
  5
744
330
20
100
AcDbEntity
  8
0
100
AcDbLine
 10
2037.139039871521
 20
1067.824747569813
 30
0.0
 11
2037.139039871521
 21
1077.825238586808
 31
0.0
  0
LINE
  5
745
330
20
100
AcDbEntity
  8
0
100
AcDbLine
 10
2031.13903987152
 20
1077.825238586804
 30
0.0
 11
2031.139039871521
 21
1067.824747569807
 31
0.0
  0
LINE
  5
746
330
20
100
AcDbEntity
  8
0
100
AcDbLine
 10
2037.13903987152
 20
1077.825238586803
 30
0.0
 11
2037.139039871521
 21
1067.824747569813
 31
0.0
  0
LINE
  5
747
330
20
100
AcDbEntity
  8
0
100
AcDbLine
 10
2053.618938858836
 20
1091.254527908686
 30
0.0
 11
2051.709750549633
 21
1089.345339599482
 31
0.0
  0
LINE
  5
748
330
20
100
AcDbEntity
  8
0
100
AcDbLine
 10
2050.366247665378
 20
1091.749502655517
 30
0.0
 11
2049.694496223251
 21
1092.421254097645
 31
0.0
  0
LINE
  5
749
330
20
100
AcDbEntity
  8
0
100
AcDbLine
 10
2050.366247665378
 20
1091.749502655517
 30
0.0
 11
2049.906628257606
 21
1091.289883247745
 31
0.0
  0
LINE
  5
74B
330
20
100
AcDbEntity
  8
0
100
AcDbLine
 10
2049.694496223251
 20
1092.421254097645
 30
0.0
 11
2049.234876815479
 21
1091.961634689873
 31
0.0
  0
LINE
  5
74C
330
20
100
AcDbEntity
  8
0
100
AcDbLine
 10
2049.376298171717
 20
1095.497168595805
 30
0.0
 11
2047.467109862514
 21
1093.587980286601
 31
0.0
  0
LINE
  5
74D
330
20
100
AcDbEntity
  8
0
100
AcDbLine
 10
2049.234876815479
 20
1091.961634689873
 30
0.0
 11
2047.537820540632
 21
1093.65869096472
 31
0.0
  0
LINE
  5
74E
330
20
100
AcDbEntity
  8
0
100
AcDbLine
 10
2051.780461227751
 20
1089.416050277601
 30
0.0
 11
2049.906628257606
 21
1091.289883247745
 31
0.0
  0
LINE
  5
74F
330
20
100
AcDbEntity
  8
0
100
AcDbLine
 10
2053.548228180718
 20
1091.183817230567
 30
0.0
 11
2049.305587493599
 21
1095.426457917686
 31
0.0
  0
LINE
  5
751
330
20
100
AcDbEntity
  8
0
100
AcDbLine
 10
2045.805408926725
 20
1095.24968122239
 30
0.0
 11
2053.230030129184
 21
1087.825060019931
 31
0.0
  0
LINE
  5
752
330
20
100
AcDbEntity
  8
0
100
AcDbLine
 10
2053.230030129184
 20
1087.825060019931
 30
0.0
 11
2055.139218438387
 21
1089.734248329135
 31
0.0
  0
ARC
  5
753
330
20
100
AcDbEntity
  8
0
100
AcDbCircle
 10
2154.13903987152
 20
1077.325238586809
 30
0.0
 40
120.0
100
AcDbArc
 50
168.463040967187
 51
175.4114342642161
  0
LINE
  5
754
330
20
100
AcDbEntity
  8
0
100
AcDbLine
 10
2047.714597235928
 20
1097.158869531593
 30
0.0
 11
2045.805408926725
 21
1095.24968122239
 31
0.0
  0
LINE
  5
755
330
20
100
AcDbEntity
  8
0
100
AcDbLine
 10
2055.139218438387
 20
1089.734248329135
 30
0.0
 11
2047.714597235928
 21
1097.158869531593
 31
0.0
  0
CIRCLE
  5
758
330
20
100
AcDbEntity
  8
0
100
AcDbCircle
 10
2051.639039871514
 20
1091.325238586804
 30
0.0
 40
9.599999999999999
  0
LINE
  5
75B
330
20
100
AcDbEntity
  8
T
100
AcDbLine
 10
2051.639039871514
 20
1104.525238586804
 30
0.0
 11
2051.639039871514
 21
1078.125238586804
 31
0.0
  0
LINE
  5
75C
330
20
100
AcDbEntity
  8
0
100
AcDbLine
 10
2074.13903987152
 20
1101.325238586805
 30
0.0
 11
2065.139039871521
 21
1101.325238586804
 31
0.0
  0
LINE
  5
75D
330
20
100
AcDbEntity
  8
0
100
AcDbLine
 10
2064.239039871515
 20
1091.325238586806
 30
0.0
 11
2065.13903987152
 21
1091.325238586806
 31
0.0
  0
LINE
  5
75E
330
20
100
AcDbEntity
  8
0
100
AcDbLine
 10
2065.13903987152
 20
1083.861136971674
 30
0.0
 11
2061.790255910942
 21
1083.861136971674
 31
0.0
  0
LINE
  5
768
330
20
100
AcDbEntity
  8
0
100
AcDbLine
 10
2161.953028011302
 20
977.0681365197985
 30
0.0
 11
2228.453028011302
 21
977.0681365197972
 31
0.0
  0
LINE
  5
76A
330
20
100
AcDbEntity
  8
0
100
AcDbLine
 10
2162.448857521584
 20
939.624120479079
 30
0.0
 11
2228.448857521584
 21
939.6241204790776
 31
0.0
  0
LINE
  5
76B
330
20
100
AcDbEntity
  8
0
100
AcDbLine
 10
2152.453028011302
 20
960.9681365236586
 30
0.0
 11
2248.453028011302
 21
960.9681365236591
 31
0.0
  0
ARC
  5
76C
330
20
100
AcDbEntity
  8
0
100
AcDbCircle
 10
2161.953028011301
 20
967.5681365197986
 30
0.0
 40
9.5
100
AcDbArc
 50
89.99999999999888
 51
180.0000000000041
  0
LINE
  5
76D
330
20
100
AcDbEntity
  8
T
100
AcDbLine
 10
2200.453028011302
 20
972.6634208843519
 30
0.0
 11
2200.453028011302
 21
962.5915241207513
 31
0.0
  0
LINE
  5
770
330
20
100
AcDbEntity
  8
0
100
AcDbLine
 10
2164.953028011302
 20
964.3764110246976
 30
0.0
 11
2164.953028011302
 21
972.3797668483046
 31
0.0
  0
LINE
  5
771
330
20
100
AcDbEntity
  8
0
100
AcDbLine
 10
2164.953028011302
 20
972.3686275406496
 30
0.0
 11
2164.953028011302
 21
962.7686275406498
 31
0.0
  0
LINE
  5
772
330
20
100
AcDbEntity
  8
T
100
AcDbLine
 10
2164.953028011302
 20
964.3764110246976
 30
0.0
 11
2164.953028011302
 21
972.3797668483046
 31
0.0
  0
LINE
  5
773
330
20
100
AcDbEntity
  8
0
100
AcDbLine
 10
2117.74352415028
 20
979.6231789826274
 30
0.0
 11
2117.74352415028
 21
959.6231789826275
 31
0.0
  0
LINE
  5
774
330
20
100
AcDbEntity
  8
T
100
AcDbLine
 10
2160.153028011302
 20
967.56862754065
 30
0.0
 11
2169.753028011301
 21
967.56862754065
 31
0.0
  0
LINE
  5
775
330
20
100
AcDbEntity
  8
T
100
AcDbLine
 10
2160.648857521583
 20
929.6246114999304
 30
0.0
 11
2170.248857521583
 21
929.6246114999304
 31
0.0
  0
LINE
  5
777
330
20
100
AcDbEntity
  8
0
100
AcDbLine
 10
2123.233200204968
 20
932.5737648669447
 30
0.0
 11
2124.233200204969
 21
932.5737648669447
 31
0.0
  0
ARC
  5
780
330
20
100
AcDbEntity
  8
0
100
AcDbCircle
 10
2162.448857521583
 20
929.624120479079
 30
0.0
 40
10.0
100
AcDbArc
 50
89.99999999999863
 51
180.0000000000052
  0
LINE
  5
783
330
20
100
AcDbEntity
  8
0
100
AcDbLine
 10
2152.453028011301
 20
967.5681365197977
 30
0.0
 11
2152.453028011302
 21
960.9681365236586
 31
0.0
  0
CIRCLE
  5
784
330
20
100
AcDbEntity
  8
0
100
AcDbCircle
 10
2164.953028011302
 20
967.56862754065
 30
0.0
 40
4.15
  0
LINE
  5
785
330
20
100
AcDbEntity
  8
T
100
AcDbLine
 10
2195.653028011302
 20
967.56862754065
 30
0.0
 11
2205.253028011302
 21
967.56862754065
 31
0.0
  0
LINE
  5
787
330
20
100
AcDbEntity
  8
T
100
AcDbLine
 10
2205.748857521584
 20
929.6246114999304
 30
0.0
 11
2196.148857521583
 21
929.6246114999304
 31
0.0
  0
CIRCLE
  5
788
330
20
100
AcDbEntity
  8
0
100
AcDbCircle
 10
2200.453028011302
 20
967.56862754065
 30
0.0
 40
4.15
  0
LINE
  5
78F
330
20
100
AcDbEntity
  8
0
100
AcDbLine
 10
2260.737029287245
 20
977.0681365197976
 30
0.0
 11
2260.737029287244
 21
960.9681365236591
 31
0.0
  0
LINE
  5
790
330
20
100
AcDbEntity
  8
0
100
AcDbLine
 10
2259.737029287244
 20
960.9681365236591
 30
0.0
 11
2259.737029287245
 21
977.0681365197976
 31
0.0
  0
ARC
  5
791
330
20
100
AcDbEntity
  8
0
100
AcDbCircle
 10
2228.453028011302
 20
952.5681365197971
 30
0.0
 40
24.5
100
AcDbArc
 50
35.28126182726614
 51
89.9999999999988
  0
ARC
  5
799
330
20
100
AcDbEntity
  8
0
100
AcDbCircle
 10
2228.448857521584
 20
914.6241204790776
 30
0.0
 40
25.0
100
AcDbArc
 50
33.20309919804185
 51
89.99999999999889
  0
LINE
  5
7A2
330
20
100
AcDbEntity
  8
0
100
AcDbLine
 10
2258.549907358515
 20
939.6246114999295
 30
0.0
 11
2260.549907358515
 21
939.6246114999289
 31
0.0
  0
ARC
  5
7A3
330
20
100
AcDbEntity
  8
0
100
AcDbCircle
 10
2248.948857521583
 20
928.0405283440769
 30
0.0
 40
0.5
100
AcDbArc
 50
0.000000000003664
 51
33.20309919804125
  0
LINE
  5
7A4
330
20
100
AcDbEntity
  8
0
100
AcDbLine
 10
2260.737029287244
 20
960.9681365236591
 30
0.0
 11
2259.737029287244
 21
960.9681365236591
 31
0.0
  0
LINE
  5
7A5
330
20
100
AcDbEntity
  8
0
100
AcDbLine
 10
2259.737029287244
 20
963.8488948004662
 30
0.0
 11
2260.737029287244
 21
963.8488948004662
 31
0.0
  0
LINE
  5
7A6
330
20
100
AcDbEntity
  8
0
100
AcDbLine
 10
2248.453028011302
 20
966.7191082178822
 30
0.0
 11
2248.453028011302
 21
960.9681365236591
 31
0.0
  0
LINE
  5
7B0
330
20
100
AcDbEntity
  8
0
100
AcDbLine
 10
2259.737029287245
 20
977.0681365197976
 30
0.0
 11
2260.737029287245
 21
977.0681365197976
 31
0.0
  0
LINE
  5
7B4
330
20
100
AcDbEntity
  8
0
100
AcDbLine
 10
2222.570068587825
 20
1061.425238586804
 30
0.0
 11
2224.570068587825
 21
1061.425238586804
 31
0.0
  0
LINE
  5
7B5
330
20
100
AcDbEntity
  8
0
100
AcDbLine
 10
2222.570068587824
 20
1048.425238586804
 30
0.0
 11
2224.570068587825
 21
1048.425238586804
 31
0.0
  0
ARC
  5
7B6
330
20
100
AcDbEntity
  8
0
100
AcDbCircle
 10
2212.570068587823
 20
1036.825238586803
 30
0.0
 40
10.0
100
AcDbArc
 50
269.9999999999989
 51
0.0
  0
LINE
  5
7B7
330
20
100
AcDbEntity
  8
0
100
AcDbLine
 10
2134.069587230717
 20
1071.369314270456
 30
0.0
 11
2121.070068587824
 21
1059.925238586804
 31
0.0
  0
ARC
  5
7B8
330
20
100
AcDbEntity
  8
0
100
AcDbCircle
 10
2137.769587230718
 20
1060.425238586803
 30
0.0
 40
0.5
100
AcDbArc
 50
90.00000000000843
 51
179.9999999999943
  0
LINE
  5
7B9
330
20
100
AcDbEntity
  8
0
100
AcDbLine
 10
2219.07019448418
 20
1046.924546544549
 30
0.0
 11
2219.07019448418
 21
1066.425238586804
 31
0.0
  0
LINE
  5
7BA
330
20
100
AcDbEntity
  8
0
100
AcDbLine
 10
2172.770445617828
 20
1101.325238586803
 30
0.0
 11
2172.770445617828
 21
1044.824546544549
 31
0.0
  0
LINE
  5
7BB
330
20
100
AcDbEntity
  8
0
100
AcDbLine
 10
2222.570068587824
 20
1041.325238586804
 30
0.0
 11
2222.570068587825
 21
1067.825238586803
 31
0.0
  0
LINE
  5
7BC
330
20
100
AcDbEntity
  8
0
100
AcDbLine
 10
2219.57019448418
 20
1046.425238586804
 30
0.0
 11
2219.57019448418
 21
1067.726046320091
 31
0.0
  0
LINE
  5
7BD
330
20
100
AcDbEntity
  8
0
100
AcDbLine
 10
2172.270445617827
 20
1101.325238586804
 30
0.0
 11
2172.270445617827
 21
1043.825238586803
 31
0.0
  0
LINE
  5
7BE
330
20
100
AcDbEntity
  8
0
100
AcDbLine
 10
2166.270063017746
 20
1042.825729603794
 30
0.0
 11
2166.270063017746
 21
1081.525238586802
 31
0.0
  0
LINE
  5
7BF
330
20
100
AcDbEntity
  8
0
100
AcDbLine
 10
2134.069587230717
 20
1050.096782185697
 30
0.0
 11
2134.069587230717
 21
1083.860900238752
 31
0.0
  0
LINE
  5
7C0
330
20
100
AcDbEntity
  8
0
100
AcDbLine
 10
2144.270063017746
 20
1041.325238586804
 30
0.0
 11
2144.270063017746
 21
1081.525238586802
 31
0.0
  0
LINE
  5
7C1
330
20
100
AcDbEntity
  8
0
100
AcDbLine
 10
2162.769587230716
 20
1071.526220620785
 30
0.0
 11
2162.769587230716
 21
1042.825729603794
 31
0.0
  0
LINE
  5
7C2
330
20
100
AcDbEntity
  8
0
100
AcDbLine
 10
2150.769587230716
 20
1071.526220620784
 30
0.0
 11
2150.769587230716
 21
1039.825729603796
 31
0.0
  0
LINE
  5
7C3
330
20
100
AcDbEntity
  8
0
100
AcDbLine
 10
2131.070068587823
 20
1047.767888933808
 30
0.0
 11
2131.070068587824
 21
1063.925238586804
 31
0.0
  0
LINE
  5
7C4
330
20
100
AcDbEntity
  8
0
100
AcDbLine
 10
2166.270063017746
 20
1043.825238586804
 30
0.0
 11
2222.570068587825
 21
1043.825238586804
 31
0.0
  0
LINE
  5
7C5
330
20
100
AcDbEntity
  8
0
100
AcDbLine
 10
2212.570068587823
 20
1026.825238586804
 30
0.0
 11
2146.070068587823
 21
1026.825238586805
 31
0.0
  0
LINE
  5
7C6
330
20
100
AcDbEntity
  8
0
100
AcDbLine
 10
2181.070068587824
 20
1042.825729603794
 30
0.0
 11
2144.270063017746
 21
1042.825729603794
 31
0.0
  0
LINE
  5
7C7
330
20
100
AcDbEntity
  8
0
100
AcDbLine
 10
2137.769587230718
 20
1060.925238586803
 30
0.0
 11
2144.270063017746
 21
1060.925238586804
 31
0.0
  0
LINE
  5
7C8
330
20
100
AcDbEntity
  8
0
100
AcDbLine
 10
2139.269572000756
 20
1042.825729603794
 30
0.0
 11
2122.746071544757
 21
1042.825729603794
 31
0.0
  0
ARC
  5
7C9
330
20
100
AcDbEntity
  8
0
100
AcDbCircle
 10
2146.070068587824
 20
1051.825238586805
 30
0.0
 40
25.0
100
AcDbArc
 50
180.0
 51
269.9999999999989
  0
ARC
  5
7CA
330
20
100
AcDbEntity
  8
0
100
AcDbCircle
 10
2137.769587230717
 20
1049.425238586803
 30
0.0
 40
0.5
100
AcDbArc
 50
179.9999999999928
 51
270.0000000000041
  0
ARC
  5
7CB
330
20
100
AcDbEntity
  8
0
100
AcDbCircle
 10
2139.069587230717
 20
1050.096782185697
 30
0.0
 40
5.0
100
AcDbArc
 50
180.0
 51
225.0000000000002
  0
LINE
  5
7CC
330
20
100
AcDbEntity
  8
0
100
AcDbLine
 10
2140.770063017746
 20
1041.325238586804
 30
0.0
 11
2135.534053324784
 21
1046.561248279765
 31
0.0
  0
LINE
  5
7CD
330
20
100
AcDbEntity
  8
0
100
AcDbLine
 10
2144.270063017746
 20
1041.325238586804
 30
0.0
 11
2140.770063017746
 21
1041.325238586804
 31
0.0
  0
LINE
  5
7CE
330
20
100
AcDbEntity
  8
0
100
AcDbLine
 10
2138.270063017746
 20
1043.825238586804
 30
0.0
 11
2144.270063017746
 21
1043.825238586804
 31
0.0
  0
LINE
  5
7CF
330
20
100
AcDbEntity
  8
0
100
AcDbLine
 10
2137.769587230717
 20
1048.925238586804
 30
0.0
 11
2144.270063017745
 21
1048.925238586804
 31
0.0
  0
LINE
  5
7D0
330
20
100
AcDbEntity
  8
0
100
AcDbLine
 10
2137.769587230716
 20
1039.825729603796
 30
0.0
 11
2150.769587230716
 21
1039.825729603796
 31
0.0
  0
LINE
  5
7D1
330
20
100
AcDbEntity
  8
0
100
AcDbLine
 10
2137.769587230716
 20
1039.825729603796
 30
0.0
 11
2131.948748244263
 21
1045.646568590249
 31
0.0
  0
ARC
  5
7D2
330
20
100
AcDbEntity
  8
0
100
AcDbCircle
 10
2134.070068587823
 20
1047.767888933808
 30
0.0
 40
3.0
100
AcDbArc
 50
179.9999999999984
 51
224.9999999999983
  0
LINE
  5
7D3
330
20
100
AcDbEntity
  8
0
100
AcDbLine
 10
2137.269587230717
 20
1049.425238586804
 30
0.0
 11
2137.269587230718
 21
1060.425238586803
 31
0.0
  0
LINE
  5
7D4
330
20
100
AcDbEntity
  8
0
100
AcDbLine
 10
2121.070068587824
 20
1051.825238586805
 30
0.0
 11
2121.070068587824
 21
1059.925238586804
 31
0.0
  0
LINE
  5
7D5
330
20
100
AcDbEntity
  8
0
100
AcDbLine
 10
2173.270445617828
 20
1044.324546544549
 30
0.0
 11
2211.570445617828
 21
1044.324546544549
 31
0.0
  0
LINE
  5
7D6
330
20
100
AcDbEntity
  8
T
100
AcDbLine
 10
2169.270068587824
 20
1036.825238586803
 30
0.0
 11
2178.870068587823
 21
1036.825238586803
 31
0.0
  0
CIRCLE
  5
7D7
330
20
100
AcDbEntity
  8
0
100
AcDbCircle
 10
2174.070068587824
 20
1036.825238586803
 30
0.0
 40
4.0
  0
ARC
  5
7D8
330
20
100
AcDbEntity
  8
0
100
AcDbCircle
 10
2173.270445617828
 20
1044.824546544549
 30
0.0
 40
0.5
100
AcDbArc
 50
180.0
 51
270.0000000000003
  0
LINE
  5
7D9
330
20
100
AcDbEntity
  8
T
100
AcDbLine
 10
2174.070068587824
 20
1031.525238586803
 30
0.0
 11
2174.070068587824
 21
1041.125238586803
 31
0.0
  0
ARC
  5
7DB
330
20
100
AcDbEntity
  8
0
100
AcDbCircle
 10
2218.57019448418
 20
1046.924546544549
 30
0.0
 40
0.5
100
AcDbArc
 50
270.0000000000009
 51
0.0
  0
LINE
  5
7DC
330
20
100
AcDbEntity
  8
0
100
AcDbLine
 10
2212.070445617829
 20
1046.424546544549
 30
0.0
 11
2218.57019448418
 21
1046.424546544549
 31
0.0
  0
ARC
  5
7DD
330
20
100
AcDbEntity
  8
0
100
AcDbCircle
 10
2211.570445617828
 20
1044.824546544549
 30
0.0
 40
0.5
100
AcDbArc
 50
270.0000000000002
 51
359.9999999999876
  0
LINE
  5
7DE
330
20
100
AcDbEntity
  8
0
100
AcDbLine
 10
2212.070445617829
 20
1046.424546544549
 30
0.0
 11
2212.070445617829
 21
1044.824546544549
 31
0.0
  0
ARC
  5
7DF
330
20
100
AcDbEntity
  8
0
100
AcDbCircle
 10
2219.07019448418
 20
1046.425238586804
 30
0.0
 40
0.5
100
AcDbArc
 50
270.0
 51
0.0
  0
LINE
  5
7E0
330
20
100
AcDbEntity
  8
0
100
AcDbLine
 10
2212.570194484181
 20
1043.825238586804
 30
0.0
 11
2212.570194484181
 21
1045.925238586804
 31
0.0
  0
LINE
  5
7E1
330
20
100
AcDbEntity
  8
0
100
AcDbLine
 10
2202.570068587824
 20
1041.325238586804
 30
0.0
 11
2181.070068587824
 21
1041.325238586804
 31
0.0
  0
LINE
  5
7E2
330
20
100
AcDbEntity
  8
0
100
AcDbLine
 10
2212.070445617829
 20
1045.925238586804
 30
0.0
 11
2219.07019448418
 21
1045.925238586804
 31
0.0
  0
LINE
  5
7E3
330
20
100
AcDbEntity
  8
0
100
AcDbLine
 10
2199.570068587824
 20
1029.825238586804
 30
0.0
 11
2184.070068587824
 21
1029.825238586804
 31
0.0
  0
ARC
  5
7E4
330
20
100
AcDbEntity
  8
0
100
AcDbCircle
 10
2199.570068587824
 20
1032.825238586804
 30
0.0
 40
3.0
100
AcDbArc
 50
269.9999999999997
 51
0.0000000000004796
  0
ARC
  5
7E5
330
20
100
AcDbEntity
  8
0
100
AcDbCircle
 10
2184.070068587824
 20
1032.825238586804
 30
0.0
 40
3.0
100
AcDbArc
 50
180.0
 51
269.9999999999997
  0
LINE
  5
7E6
330
20
100
AcDbEntity
  8
T
100
AcDbLine
 10
2214.370068587824
 20
1036.825238586803
 30
0.0
 11
2204.770068587824
 21
1036.825238586803
 31
0.0
  0
CIRCLE
  5
7E7
330
20
100
AcDbEntity
  8
0
100
AcDbCircle
 10
2209.570068587824
 20
1036.825238586803
 30
0.0
 40
4.0
  0
TEXT
  5
7E8
330
20
100
AcDbEntity
  8
0
100
AcDbText
 10
2196.666922133068
 20
1038.229014830815
 30
0.0
 40
3.0
  1
SH-41
 50
180.0
  7
SIMPLEX
100
AcDbText
  0
LINE
  5
7E9
330
20
100
AcDbEntity
  8
0
100
AcDbLine
 10
2202.570068587824
 20
1032.825238586804
 30
0.0
 11
2202.570068587824
 21
1042.825729603794
 31
0.0
  0
LINE
  5
7EA
330
20
100
AcDbEntity
  8
T
100
AcDbLine
 10
2209.570068587824
 20
1032.025238586803
 30
0.0
 11
2209.570068587824
 21
1041.625238586804
 31
0.0
  0
LINE
  5
7EB
330
20
100
AcDbEntity
  8
0
100
AcDbLine
 10
2181.070068587824
 20
1032.825238586804
 30
0.0
 11
2181.070068587824
 21
1042.825729603794
 31
0.0
  0
LINE
  5
7EC
330
20
100
AcDbEntity
  8
0
100
AcDbLine
 10
2222.570068587824
 20
1042.825729603794
 30
0.0
 11
2222.570068587824
 21
1036.825238586803
 31
0.0
  0
LINE
  5
7ED
330
20
100
AcDbEntity
  8
0
100
AcDbLine
 10
2222.570068587824
 20
1042.825729603794
 30
0.0
 11
2202.570068587824
 21
1042.825729603794
 31
0.0
  0
LINE
  5
7EE
330
20
100
AcDbEntity
  8
0
100
AcDbLine
 10
2136.069587230717
 20
1101.325238586804
 30
0.0
 11
2209.230674147475
 21
1101.325238586804
 31
0.0
  0
LINE
  5
7F1
330
20
100
AcDbEntity
  8
0
100
AcDbLine
 10
2157.769587230718
 20
1073.325238586803
 30
0.0
 11
2157.769587230718
 21
1076.525238586803
 31
0.0
  0
LINE
  5
7F2
330
20
100
AcDbEntity
  8
0
100
AcDbLine
 10
2154.269587230718
 20
1073.325238586803
 30
0.0
 11
2154.269587230718
 21
1076.525238586803
 31
0.0
  0
LINE
  5
7F3
330
20
100
AcDbEntity
  8
0
100
AcDbLine
 10
2164.269587230718
 20
1073.325238586803
 30
0.0
 11
2164.269587230718
 21
1076.525238586803
 31
0.0
  0
LINE
  5
7F4
330
20
100
AcDbEntity
  8
0
100
AcDbLine
 10
2163.269587230718
 20
1073.325238586803
 30
0.0
 11
2163.269587230718
 21
1076.525238586803
 31
0.0
  0
LINE
  5
7F5
330
20
100
AcDbEntity
  8
0
100
AcDbLine
 10
2144.869587230717
 20
1073.325238586803
 30
0.0
 11
2144.869587230717
 21
1076.525238586803
 31
0.0
  0
LINE
  5
7F6
330
20
100
AcDbEntity
  8
0
100
AcDbLine
 10
2144.869587230717
 20
1073.325238586803
 30
0.0
 11
2164.269587230718
 21
1073.325238586803
 31
0.0
  0
ARC
  5
7F7
330
20
100
AcDbEntity
  8
0
100
AcDbCircle
 10
2165.770063017746
 20
1076.025238586804
 30
0.0
 40
0.5
100
AcDbArc
 50
0.0
 51
90.0
  0
LINE
  5
7F8
330
20
100
AcDbEntity
  8
0
100
AcDbLine
 10
2136.069587230717
 20
1091.325001853889
 30
0.0
 11
2134.069587230717
 21
1083.860900238752
 31
0.0
  0
ARC
  5
7F9
330
20
100
AcDbEntity
  8
0
100
AcDbCircle
 10
2144.770063017746
 20
1076.025238586804
 30
0.0
 40
0.5
100
AcDbArc
 50
90.0
 51
180.0
  0
LINE
  5
7FA
330
20
100
AcDbEntity
  8
0
100
AcDbLine
 10
2144.270063017746
 20
1076.525238586803
 30
0.0
 11
2166.270063017746
 21
1076.525238586803
 31
0.0
  0
LINE
  5
7FB
330
20
100
AcDbEntity
  8
0
100
AcDbLine
 10
2162.769587230716
 20
1071.526220620785
 30
0.0
 11
2150.769587230716
 21
1071.526220620784
 31
0.0
  0
ARC
  5
7FC
330
20
100
AcDbEntity
  8
0
100
AcDbCircle
 10
2129.070068587824
 20
1063.925238586804
 30
0.0
 40
2.0
100
AcDbArc
 50
359.9999999999992
 51
90.000000000002
  0
LINE
  5
7FD
330
20
100
AcDbEntity
  8
0
100
AcDbLine
 10
2129.070068587824
 20
1065.925238586804
 30
0.0
 11
2127.88556981426
 21
1065.925238586804
 31
0.0
  0
LINE
  5
7FE
330
20
100
AcDbEntity
  8
0
100
AcDbLine
 10
2172.770445617828
 20
1101.325238586803
 30
0.0
 11
2188.670068587826
 21
1101.325238586804
 31
0.0
  0
ARC
  5
7FF
330
20
100
AcDbEntity
  8
0
100
AcDbCircle
 10
2204.616909305753
 20
1100.325238586804
 30
0.0
 40
1.0
100
AcDbArc
 50
45.83951957004337
 51
90.0
  0
ARC
  5
800
330
20
100
AcDbEntity
  8
0
100
AcDbCircle
 10
2191.170068587826
 20
1100.825238586804
 30
0.0
 40
0.5
100
AcDbArc
 50
90.0
 51
179.9999999999999
  0
LINE
  5
801
330
20
100
AcDbEntity
  8
0
100
AcDbLine
 10
2191.170068587826
 20
1076.425238586804
 30
0.0
 11
2188.670068587826
 21
1076.425238586804
 31
0.0
  0
LINE
  5
802
330
20
100
AcDbEntity
  8
0
100
AcDbLine
 10
2198.670068587826
 20
1068.925238586804
 30
0.0
 11
2198.670068587826
 21
1066.425238586804
 31
0.0
  0
ARC
  5
803
330
20
100
AcDbEntity
  8
0
100
AcDbCircle
 10
2191.170068587826
 20
1068.925238586804
 30
0.0
 40
7.5
100
AcDbArc
 50
0.0
 51
90.0
  0
ARC
  5
804
330
20
100
AcDbEntity
  8
0
100
AcDbCircle
 10
2192.270068587825
 20
1067.825238586804
 30
0.0
 40
0.5
100
AcDbArc
 50
90.0
 51
180.0
  0
LINE
  5
805
330
20
100
AcDbEntity
  8
0
100
AcDbLine
 10
2192.270068587825
 20
1069.525238586804
 30
0.0
 11
2193.670068587826
 21
1069.525238586804
 31
0.0
  0
LINE
  5
806
330
20
100
AcDbEntity
  8
0
100
AcDbLine
 10
2192.270068587825
 20
1068.325238586804
 30
0.0
 11
2193.670068587826
 21
1068.325238586804
 31
0.0
  0
ARC
  5
807
330
20
100
AcDbEntity
  8
0
100
AcDbCircle
 10
2192.270068587825
 20
1070.025238586804
 30
0.0
 40
0.5
100
AcDbArc
 50
180.0
 51
270.0
  0
LINE
  5
808
330
20
100
AcDbEntity
  8
0
100
AcDbLine
 10
2193.670068587826
 20
1069.525238586804
 30
0.0
 11
2193.670068587826
 21
1068.325238586804
 31
0.0
  0
ARC
  5
809
330
20
100
AcDbEntity
  8
0
100
AcDbCircle
 10
2190.070068587826
 20
1067.825238586804
 30
0.0
 40
0.5
100
AcDbArc
 50
0.0
 51
90.0
  0
LINE
  5
80A
330
20
100
AcDbEntity
  8
0
100
AcDbLine
 10
2190.570068587826
 20
1071.425238586804
 30
0.0
 11
2190.570068587826
 21
1070.025238586804
 31
0.0
  0
LINE
  5
80B
330
20
100
AcDbEntity
  8
0
100
AcDbLine
 10
2188.670068587826
 20
1068.325238586804
 30
0.0
 11
2190.070068587826
 21
1068.325238586804
 31
0.0
  0
LINE
  5
80C
330
20
100
AcDbEntity
  8
0
100
AcDbLine
 10
2188.670068587826
 20
1069.525238586804
 30
0.0
 11
2188.670068587826
 21
1068.325238586804
 31
0.0
  0
LINE
  5
80D
330
20
100
AcDbEntity
  8
0
100
AcDbLine
 10
2188.670068587826
 20
1069.525238586804
 30
0.0
 11
2190.070068587826
 21
1069.525238586804
 31
0.0
  0
ARC
  5
80E
330
20
100
AcDbEntity
  8
0
100
AcDbCircle
 10
2190.070068587826
 20
1070.025238586804
 30
0.0
 40
0.5
100
AcDbArc
 50
269.9999999999983
 51
0.0
  0
LINE
  5
80F
330
20
100
AcDbEntity
  8
0
100
AcDbLine
 10
2190.570068587826
 20
1071.425238586804
 30
0.0
 11
2191.770068587826
 21
1071.425238586804
 31
0.0
  0
LINE
  5
810
330
20
100
AcDbEntity
  8
0
100
AcDbLine
 10
2191.770068587826
 20
1071.425238586804
 30
0.0
 11
2191.770068587826
 21
1070.025238586804
 31
0.0
  0
LINE
  5
811
330
20
100
AcDbEntity
  8
0
100
AcDbLine
 10
2190.570068587826
 20
1066.425238586804
 30
0.0
 11
2191.770068587826
 21
1066.425238586804
 31
0.0
  0
LINE
  5
812
330
20
100
AcDbEntity
  8
0
100
AcDbLine
 10
2191.770068587826
 20
1067.825238586804
 30
0.0
 11
2191.770068587826
 21
1066.425238586804
 31
0.0
  0
LINE
  5
813
330
20
100
AcDbEntity
  8
0
100
AcDbLine
 10
2190.570068587826
 20
1067.825238586804
 30
0.0
 11
2190.570068587826
 21
1066.425238586804
 31
0.0
  0
CIRCLE
  5
814
330
20
100
AcDbEntity
  8
0
100
AcDbCircle
 10
2191.170068587826
 20
1068.925238586804
 30
0.0
 40
4.0
  0
CIRCLE
  5
815
330
20
100
AcDbEntity
  8
0
100
AcDbCircle
 10
2191.170068587826
 20
1068.925238586804
 30
0.0
 40
4.5
  0
LINE
  5
816
330
20
100
AcDbEntity
  8
0
100
AcDbLine
 10
2198.670068587826
 20
1066.425238586804
 30
0.0
 11
2219.07019448418
 21
1066.425238586804
 31
0.0
  0
LINE
  5
817
330
20
100
AcDbEntity
  8
0
100
AcDbLine
 10
2219.070194484181
 20
1062.925238586804
 30
0.0
 11
2219.570194484181
 21
1062.925238586804
 31
0.0
  0
ARC
  5
818
330
20
100
AcDbEntity
  8
0
100
AcDbCircle
 10
2219.07019448418
 20
1066.925238586804
 30
0.0
 40
0.5
100
AcDbArc
 50
270.0
 51
0.0
  0
ARC
  5
819
330
20
100
AcDbEntity
  8
0
100
AcDbCircle
 10
2199.670068587826
 20
1066.925238586804
 30
0.0
 40
0.5
100
AcDbArc
 50
180.0
 51
270.0
  0
LINE
  5
81A
330
20
100
AcDbEntity
  8
0
100
AcDbLine
 10
2199.170068587826
 20
1068.925238586804
 30
0.0
 11
2199.170068587826
 21
1066.925238586804
 31
0.0
  0
LINE
  5
81B
330
20
100
AcDbEntity
  8
0
100
AcDbLine
 10
2199.670068587826
 20
1066.425238586804
 30
0.0
 11
2219.07019448418
 21
1066.425238586804
 31
0.0
  0
ARC
  5
81C
330
20
100
AcDbEntity
  8
0
100
AcDbCircle
 10
2219.07019448418
 20
1063.425238586804
 30
0.0
 40
0.5
100
AcDbArc
 50
0.0000000000007633
 51
90.0
  0
ARC
  5
81D
330
20
100
AcDbEntity
  8
0
100
AcDbCircle
 10
2191.170068587826
 20
1077.425238586806
 30
0.0
 40
0.5
100
AcDbArc
 50
180.0
 51
270.0
  0
LINE
  5
81E
330
20
100
AcDbEntity
  8
0
100
AcDbLine
 10
2191.170068587826
 20
1073.725238586804
 30
0.0
 11
2191.170068587826
 21
1064.125238586804
 31
0.0
  0
LINE
  5
81F
330
20
100
AcDbEntity
  8
0
100
AcDbLine
 10
2193.570068587826
 20
1068.925238586804
 30
0.0
 11
2188.770068587825
 21
1068.925238586804
 31
0.0
  0
LINE
  5
820
330
20
100
AcDbEntity
  8
0
100
AcDbLine
 10
2191.170068587826
 20
1071.325238586804
 30
0.0
 11
2191.170068587826
 21
1066.525238586804
 31
0.0
  0
LINE
  5
821
330
20
100
AcDbEntity
  8
0
100
AcDbLine
 10
2195.970068587826
 20
1068.925238586804
 30
0.0
 11
2186.370068587825
 21
1068.925238586804
 31
0.0
  0
ARC
  5
822
330
20
100
AcDbEntity
  8
0
100
AcDbCircle
 10
2191.170068587826
 20
1068.925238586804
 30
0.0
 40
8.0
100
AcDbArc
 50
0.0
 51
90.0
  0
LINE
  5
823
330
20
100
AcDbEntity
  8
0
100
AcDbLine
 10
2188.670068587826
 20
1076.425238586804
 30
0.0
 11
2188.670068587826
 21
1101.325238586804
 31
0.0
  0
TEXT
  5
824
330
20
100
AcDbEntity
  8
0
100
AcDbText
 10
2194.162740891872
 20
1094.826219201075
 30
0.0
 40
3.0
  1
SH-41
  7
SIMPLEX
100
AcDbText
  0
LINE
  5
825
330
20
100
AcDbEntity
  8
0
100
AcDbLine
 10
2190.670068587826
 20
1100.825238586804
 30
0.0
 11
2190.670068587826
 21
1077.425238586806
 31
0.0
  0
ARC
  5
826
330
20
100
AcDbEntity
  8
0
100
AcDbCircle
 10
2172.570068587825
 20
1067.325238586803
 30
0.0
 40
47.0
100
AcDbArc
 50
359.8790786710223
 51
45.83951957004583
  0
LINE
  5
82D
330
20
100
AcDbEntity
  8
0
100
AcDbLine
 10
2224.570068587825
 20
1048.425238586804
 30
0.0
 11
2224.570068587825
 21
1061.425238586804
 31
0.0
  0
LINE
  5
82E
330
20
100
AcDbEntity
  8
0
100
AcDbLine
 10
2224.570068587825
 20
1060.425238586804
 30
0.0
 11
2254.07019448418
 21
1060.425238586804
 31
0.0
  0
LINE
  5
82F
330
20
100
AcDbEntity
  8
0
100
AcDbLine
 10
2254.07019448418
 20
1060.425238586804
 30
0.0
 11
2255.070194484181
 21
1059.425238586804
 31
0.0
  0
LINE
  5
831
330
20
100
AcDbEntity
  8
0
100
AcDbLine
 10
2224.570068587825
 20
1049.425238586804
 30
0.0
 11
2254.07019448418
 21
1049.425238586803
 31
0.0
  0
LINE
  5
837
330
20
100
AcDbEntity
  8
0
100
AcDbLine
 10
2255.070194484181
 20
1050.425238586804
 30
0.0
 11
2254.07019448418
 21
1049.425238586803
 31
0.0
  0
LINE
  5
83A
330
20
100
AcDbEntity
  8
0
100
AcDbLine
 10
2255.070194484181
 20
1050.425238586804
 30
0.0
 11
2255.070194484181
 21
1059.425238586804
 31
0.0
  0
LINE
  5
83B
330
20
100
AcDbEntity
  8
0
100
AcDbLine
 10
2254.07019448418
 20
1049.425238586803
 30
0.0
 11
2254.07019448418
 21
1060.425238586804
 31
0.0
  0
LINE
  5
83C
330
20
100
AcDbEntity
  8
0
100
AcDbLine
 10
2327.177669640875
 20
1055.613013730079
 30
0.0
 11
2325.201858388192
 21
1054.472278571475
 31
0.0
  0
LINE
  5
83D
330
20
100
AcDbEntity
  8
0
100
AcDbLine
 10
2327.201858388193
 20
1055.613013730079
 30
0.0
 11
2329.201858388192
 21
1054.4583131917
 31
0.0
  0
LINE
  5
83E
330
20
100
AcDbEntity
  8
0
100
AcDbLine
 10
2327.201858388192
 20
1055.61301373008
 30
0.0
 11
2327.177669640875
 21
1055.61301373008
 31
0.0
  0
LINE
  5
83F
330
20
100
AcDbEntity
  8
0
100
AcDbLine
 10
2327.201858388193
 20
1050.913013730079
 30
0.0
 11
2325.201858388192
 21
1052.067714268459
 31
0.0
  0
LINE
  5
840
330
20
100
AcDbEntity
  8
0
100
AcDbLine
 10
2327.201858388193
 20
1050.913013730079
 30
0.0
 11
2329.201858388192
 21
1052.067714268458
 31
0.0
  0
CIRCLE
  5
841
330
20
100
AcDbEntity
  8
0
100
AcDbCircle
 10
2327.201858388193
 20
1053.263013730079
 30
0.0
 40
3.323499999999967
  0
LINE
  5
842
330
20
100
AcDbEntity
  8
T
100
AcDbLine
 10
2327.201858388193
 20
1058.018275194505
 30
0.0
 11
2327.201858388193
 21
1048.409948066866
 31
0.0
  0
LINE
  5
843
330
20
100
AcDbEntity
  8
0
100
AcDbLine
 10
2329.201858388192
 20
1054.4583131917
 30
0.0
 11
2329.201858388192
 21
1052.067714268458
 31
0.0
  0
LINE
  5
844
330
20
100
AcDbEntity
  8
0
100
AcDbLine
 10
2325.201858388192
 20
1054.472278571475
 30
0.0
 11
2325.201858388192
 21
1052.067714268459
 31
0.0
  0
LINE
  5
845
330
20
100
AcDbEntity
  8
T
100
AcDbLine
 10
2264.041762314601
 20
1099.708439433226
 30
0.0
 11
2284.476403164495
 21
1099.708439433226
 31
0.0
  0
LINE
  5
846
330
20
100
AcDbEntity
  8
0
100
AcDbLine
 10
2273.805657982312
 20
1092.233439433226
 30
0.0
 11
2280.305657982311
 21
1095.986216182959
 31
0.0
  0
CIRCLE
  5
847
330
20
100
AcDbEntity
  8
0
100
AcDbCircle
 10
2273.805657982312
 20
1099.708439433226
 30
0.0
 40
4.15
  0
CIRCLE
  5
848
330
20
100
AcDbEntity
  8
0
100
AcDbCircle
 10
2273.805657982312
 20
1099.708439433226
 30
0.0
 40
4.25
  0
LINE
  5
84A
330
20
100
AcDbEntity
  8
0
100
AcDbLine
 10
2273.805657982312
 20
1092.233439433226
 30
0.0
 11
2267.305657982312
 21
1095.986216182958
 31
0.0
  0
LINE
  5
84B
330
20
100
AcDbEntity
  8
0
100
AcDbLine
 10
2267.305657982312
 20
1095.986216182958
 30
0.0
 11
2267.305657982312
 21
1103.430662683493
 31
0.0
  0
CIRCLE
  5
84C
330
20
100
AcDbEntity
  8
0
100
AcDbCircle
 10
2327.201858388193
 20
1101.642542960806
 30
0.0
 40
3.323499999999967
  0
LINE
  5
84D
330
20
100
AcDbEntity
  8
0
100
AcDbLine
 10
2325.201858388192
 20
1102.851807802201
 30
0.0
 11
2325.201858388192
 21
1100.447243499186
 31
0.0
  0
LINE
  5
84E
330
20
100
AcDbEntity
  8
0
100
AcDbLine
 10
2329.201858388192
 20
1102.837842422427
 30
0.0
 11
2329.201858388192
 21
1100.447243499185
 31
0.0
  0
LINE
  5
84F
330
20
100
AcDbEntity
  8
0
100
AcDbLine
 10
2327.201858388193
 20
1099.292542960806
 30
0.0
 11
2329.201858388192
 21
1100.447243499185
 31
0.0
  0
LINE
  5
850
330
20
100
AcDbEntity
  8
0
100
AcDbLine
 10
2327.201858388193
 20
1099.292542960806
 30
0.0
 11
2325.201858388192
 21
1100.447243499186
 31
0.0
  0
ARC
  5
851
330
20
100
AcDbEntity
  8
0
100
AcDbCircle
 10
2292.297467841803
 20
1105.307880241219
 30
0.0
 40
2.895045205056399
100
AcDbArc
 50
320.2953929040775
 51
344.5341458697182
  0
ARC
  5
852
330
20
100
AcDbEntity
  8
0
100
AcDbCircle
 10
2291.841845602355
 20
1101.624198411554
 30
0.0
 40
3.25
100
AcDbArc
 50
2.900477626559077
 51
34.3593770714415
  0
LINE
  5
853
330
20
100
AcDbEntity
  8
0
100
AcDbLine
 10
2327.201858388192
 20
1103.992542960806
 30
0.0
 11
2327.177669640875
 21
1103.992542960806
 31
0.0
  0
LINE
  5
854
330
20
100
AcDbEntity
  8
0
100
AcDbLine
 10
2327.201858388193
 20
1103.992542960806
 30
0.0
 11
2329.201858388192
 21
1102.837842422427
 31
0.0
  0
LINE
  5
855
330
20
100
AcDbEntity
  8
0
100
AcDbLine
 10
2327.177669640875
 20
1103.992542960806
 30
0.0
 11
2325.201858388192
 21
1102.851807802202
 31
0.0
  0
ARC
  5
856
330
20
100
AcDbEntity
  8
0
100
AcDbCircle
 10
2291.698866381635
 20
1105.475573933621
 30
0.0
 40
3.249999999999943
100
AcDbArc
 50
196.8063500978007
 51
218.3641111283988
  0
ARC
  5
857
330
20
100
AcDbEntity
  8
0
100
AcDbCircle
 10
2291.748405941981
 20
1101.652891514119
 30
0.0
 40
3.163638093902946
100
AcDbArc
 50
145.1996308882201
 51
177.5405144138108
  0
LINE
  5
858
330
20
100
AcDbEntity
  8
0
100
AcDbLine
 10
2294.524765629942
 20
1103.458439433226
 30
0.0
 11
2289.150598654862
 21
1103.458439433226
 31
0.0
  0
ARC
  5
859
330
20
100
AcDbEntity
  8
0
100
AcDbCircle
 10
2291.97649790317
 20
1093.941304932827
 30
0.0
 40
3.249999999999971
100
AcDbArc
 50
16.80635009787128
 51
38.36411112843159
  0
LINE
  5
85A
330
20
100
AcDbEntity
  8
0
100
AcDbLine
 10
2295.087682142402
 20
1093.208439433225
 30
0.0
 11
2294.524765629942
 21
1092.233439433226
 31
0.0
  0
ARC
  5
85B
330
20
100
AcDbEntity
  8
0
100
AcDbCircle
 10
2291.377896443
 20
1094.108998625232
 30
0.0
 40
2.895045205055748
100
AcDbArc
 50
140.2953929040543
 51
164.5341458696761
  0
LINE
  5
85C
330
20
100
AcDbEntity
  8
0
100
AcDbLine
 10
2288.587682142402
 20
1093.208439433225
 30
0.0
 11
2289.150598654862
 21
1092.233439433226
 31
0.0
  0
LINE
  5
85D
330
20
100
AcDbEntity
  8
0
100
AcDbLine
 10
2294.524765629942
 20
1095.958439433225
 30
0.0
 11
2289.150598654862
 21
1095.958439433225
 31
0.0
  0
LINE
  5
85E
330
20
100
AcDbEntity
  8
0
100
AcDbLine
 10
2289.150598654862
 20
1092.233439433226
 30
0.0
 11
2294.524765629942
 21
1092.233439433226
 31
0.0
  0
LINE
  5
85F
330
20
100
AcDbEntity
  8
T
100
AcDbLine
 10
2327.201858388193
 20
1081.89724325307
 30
0.0
 11
2327.201858388193
 21
1072.288916125431
 31
0.0
  0
CIRCLE
  5
860
330
20
100
AcDbEntity
  8
0
100
AcDbCircle
 10
2327.201858388193
 20
1077.141981788644
 30
0.0
 40
3.323499999999967
  0
LINE
  5
861
330
20
100
AcDbEntity
  8
0
100
AcDbLine
 10
2327.177669640875
 20
1079.491981788644
 30
0.0
 11
2325.201858388192
 21
1078.35124663004
 31
0.0
  0
LINE
  5
862
330
20
100
AcDbEntity
  8
0
100
AcDbLine
 10
2327.201858388193
 20
1079.491981788644
 30
0.0
 11
2329.201858388192
 21
1078.337281250265
 31
0.0
  0
LINE
  5
863
330
20
100
AcDbEntity
  8
0
100
AcDbLine
 10
2329.201858388192
 20
1078.337281250265
 30
0.0
 11
2329.201858388192
 21
1075.946682327023
 31
0.0
  0
LINE
  5
864
330
20
100
AcDbEntity
  8
0
100
AcDbLine
 10
2325.201858388192
 20
1078.35124663004
 30
0.0
 11
2325.201858388192
 21
1075.946682327024
 31
0.0
  0
LINE
  5
865
330
20
100
AcDbEntity
  8
0
100
AcDbLine
 10
2327.201858388193
 20
1074.791981788644
 30
0.0
 11
2325.201858388192
 21
1075.946682327024
 31
0.0
  0
LINE
  5
866
330
20
100
AcDbEntity
  8
0
100
AcDbLine
 10
2327.201858388193
 20
1074.791981788644
 30
0.0
 11
2329.201858388192
 21
1075.946682327023
 31
0.0
  0
LINE
  5
867
330
20
100
AcDbEntity
  8
0
100
AcDbLine
 10
2327.201858388192
 20
1079.491981788645
 30
0.0
 11
2327.177669640875
 21
1079.491981788645
 31
0.0
  0
LINE
  5
86B
330
20
100
AcDbEntity
  8
0
100
AcDbLine
 10
2280.305657982311
 20
1095.986216182959
 30
0.0
 11
2280.305657982312
 21
1103.430662683493
 31
0.0
  0
ARC
  5
86C
330
20
100
AcDbEntity
  8
0
100
AcDbCircle
 10
2291.926958342822
 20
1097.763987352331
 30
0.0
 40
3.163638093904615
100
AcDbArc
 50
325.1996308882631
 51
357.5405144138589
  0
ARC
  5
86D
330
20
100
AcDbEntity
  8
0
100
AcDbCircle
 10
2291.833518682449
 20
1097.792680454895
 30
0.0
 40
3.249999999999971
100
AcDbArc
 50
182.9004776264953
 51
214.3593770713988
  0
LINE
  5
88D
330
20
100
AcDbEntity
  8
T
100
AcDbLine
 10
2337.132195802682
 20
1053.263013730079
 30
0.0
 11
2389.513404100986
 21
1053.263013730079
 31
0.0
  0
LINE
  5
88E
330
20
100
AcDbEntity
  8
0
100
AcDbLine
 10
2338.55069492413
 20
1057.263013730079
 30
0.0
 11
2376.910117467022
 21
1057.263013730079
 31
0.0
  0
LINE
  5
88F
330
20
100
AcDbEntity
  8
0
100
AcDbLine
 10
2338.160117467023
 20
1056.586513730079
 30
0.0
 11
2377.586617467022
 21
1056.586513730079
 31
0.0
  0
LINE
  5
890
330
20
100
AcDbEntity
  8
0
100
AcDbLine
 10
2338.160117467023
 20
1056.586513730079
 30
0.0
 11
2338.55069492413
 21
1057.263013730079
 31
0.0
  0
LINE
  5
891
330
20
100
AcDbEntity
  8
0
100
AcDbLine
 10
2378.160117467023
 20
1056.013013730079
 30
0.0
 11
2376.910117467022
 21
1057.263013730079
 31
0.0
  0
LINE
  5
892
330
20
100
AcDbEntity
  8
0
100
AcDbLine
 10
2338.55069492413
 20
1049.263013730079
 30
0.0
 11
2376.910117467023
 21
1049.263013730079
 31
0.0
  0
LINE
  5
893
330
20
100
AcDbEntity
  8
0
100
AcDbLine
 10
2338.160117467023
 20
1049.939513730079
 30
0.0
 11
2377.586617467023
 21
1049.939513730079
 31
0.0
  0
LINE
  5
896
330
20
100
AcDbEntity
  8
0
100
AcDbLine
 10
2338.160117467023
 20
1049.939513730079
 30
0.0
 11
2338.55069492413
 21
1049.263013730079
 31
0.0
  0
LINE
  5
898
330
20
100
AcDbEntity
  8
0
100
AcDbLine
 10
2378.160117467023
 20
1050.513013730079
 30
0.0
 11
2376.910117467023
 21
1049.263013730079
 31
0.0
  0
LINE
  5
89C
330
20
100
AcDbEntity
  8
0
100
AcDbLine
 10
2376.910117467022
 20
1057.263013730079
 30
0.0
 11
2376.910117467023
 21
1049.263013730079
 31
0.0
  0
LINE
  5
89D
330
20
100
AcDbEntity
  8
0
100
AcDbLine
 10
2378.160117467023
 20
1056.013013730079
 30
0.0
 11
2378.160117467023
 21
1050.513013730079
 31
0.0
  0
LINE
  5
89E
330
20
100
AcDbEntity
  8
0
100
AcDbLine
 10
2338.55069492413
 20
1057.263013730079
 30
0.0
 11
2338.55069492413
 21
1049.263013730079
 31
0.0
  0
LINE
  5
89F
330
20
100
AcDbEntity
  8
0
100
AcDbLine
 10
2338.160117467023
 20
1056.586513730079
 30
0.0
 11
2338.160117467023
 21
1049.939513730079
 31
0.0
  0
LINE
  5
8A0
330
20
100
AcDbEntity
  8
0
100
AcDbLine
 10
2338.160117467023
 20
1098.319042960806
 30
0.0
 11
2387.586617467023
 21
1098.319042960806
 31
0.0
  0
LINE
  5
8A1
330
20
100
AcDbEntity
  8
0
100
AcDbLine
 10
2338.55069492413
 20
1097.642542960806
 30
0.0
 11
2386.910117467023
 21
1097.642542960806
 31
0.0
  0
LINE
  5
8A2
330
20
100
AcDbEntity
  8
0
100
AcDbLine
 10
2338.160117467023
 20
1104.966042960806
 30
0.0
 11
2387.586617467022
 21
1104.966042960806
 31
0.0
  0
LINE
  5
8A3
330
20
100
AcDbEntity
  8
T
100
AcDbLine
 10
2337.132195802682
 20
1101.642542960806
 30
0.0
 11
2389.513404100986
 21
1101.642542960806
 31
0.0
  0
LINE
  5
8A5
330
20
100
AcDbEntity
  8
T
100
AcDbLine
 10
2337.132195802682
 20
1077.141981788644
 30
0.0
 11
2389.513404100986
 21
1077.141981788644
 31
0.0
  0
LINE
  5
8A6
330
20
100
AcDbEntity
  8
0
100
AcDbLine
 10
2338.160117467023
 20
1104.966042960806
 30
0.0
 11
2338.160117467023
 21
1098.319042960806
 31
0.0
  0
LINE
  5
8A7
330
20
100
AcDbEntity
  8
0
100
AcDbLine
 10
2338.160117467023
 20
1098.319042960806
 30
0.0
 11
2338.55069492413
 21
1097.642542960806
 31
0.0
  0
LINE
  5
8A8
330
20
100
AcDbEntity
  8
0
100
AcDbLine
 10
2338.55069492413
 20
1081.141981788644
 30
0.0
 11
2381.910117467022
 21
1081.141981788644
 31
0.0
  0
LINE
  5
8A9
330
20
100
AcDbEntity
  8
0
100
AcDbLine
 10
2338.160117467023
 20
1080.465481788644
 30
0.0
 11
2382.586617467023
 21
1080.465481788644
 31
0.0
  0
LINE
  5
8AA
330
20
100
AcDbEntity
  8
0
100
AcDbLine
 10
2338.55069492413
 20
1073.141981788644
 30
0.0
 11
2381.910117467024
 21
1073.141981788644
 31
0.0
  0
LINE
  5
8AB
330
20
100
AcDbEntity
  8
0
100
AcDbLine
 10
2338.160117467023
 20
1073.818481788644
 30
0.0
 11
2382.586617467023
 21
1073.818481788644
 31
0.0
  0
LINE
  5
8AF
330
20
100
AcDbEntity
  8
0
100
AcDbLine
 10
2338.55069492413
 20
1081.141981788644
 30
0.0
 11
2338.55069492413
 21
1073.141981788644
 31
0.0
  0
LINE
  5
8B0
330
20
100
AcDbEntity
  8
0
100
AcDbLine
 10
2338.160117467023
 20
1080.465481788644
 30
0.0
 11
2338.160117467023
 21
1073.818481788644
 31
0.0
  0
LINE
  5
8B1
330
20
100
AcDbEntity
  8
0
100
AcDbLine
 10
2338.160117467023
 20
1073.818481788644
 30
0.0
 11
2338.55069492413
 21
1073.141981788644
 31
0.0
  0
LINE
  5
8B2
330
20
100
AcDbEntity
  8
0
100
AcDbLine
 10
2338.160117467023
 20
1080.465481788644
 30
0.0
 11
2338.55069492413
 21
1081.141981788644
 31
0.0
  0
LINE
  5
8B5
330
20
100
AcDbEntity
  8
0
100
AcDbLine
 10
2381.910117467022
 20
1081.141981788644
 30
0.0
 11
2381.910117467023
 21
1073.141981788644
 31
0.0
  0
LINE
  5
8B6
330
20
100
AcDbEntity
  8
0
100
AcDbLine
 10
2383.160117467022
 20
1079.891981788644
 30
0.0
 11
2381.910117467022
 21
1081.141981788644
 31
0.0
  0
LINE
  5
8B7
330
20
100
AcDbEntity
  8
0
100
AcDbLine
 10
2383.160117467022
 20
1079.891981788644
 30
0.0
 11
2383.160117467022
 21
1074.391981788644
 31
0.0
  0
LINE
  5
8B8
330
20
100
AcDbEntity
  8
0
100
AcDbLine
 10
2383.160117467022
 20
1074.391981788644
 30
0.0
 11
2381.910117467023
 21
1073.141981788644
 31
0.0
  0
LINE
  5
8BD
330
20
100
AcDbEntity
  8
0
100
AcDbLine
 10
2388.160117467023
 20
1104.392542960805
 30
0.0
 11
2388.160117467023
 21
1098.892542960806
 31
0.0
  0
LINE
  5
8BE
330
20
100
AcDbEntity
  8
0
100
AcDbLine
 10
2388.160117467023
 20
1098.892542960806
 30
0.0
 11
2386.910117467023
 21
1097.642542960806
 31
0.0
  0
LINE
  5
8C1
330
20
100
AcDbEntity
  8
0
100
AcDbLine
 10
2332.842243945093
 20
1128.0155941817
 30
0.0
 11
2323.048982997478
 21
1128.0155941817
 31
0.0
  0
CIRCLE
  5
8C2
330
20
100
AcDbEntity
  8
0
100
AcDbCircle
 10
2328.082672467487
 20
1128.0155941817
 30
0.0
 40
4.0
  0
CIRCLE
  5
8C3
330
20
100
AcDbEntity
  8
0
100
AcDbCircle
 10
2328.082672467487
 20
1128.0155941817
 30
0.0
 40
3.323499999999967
  0
LINE
  5
8C5
330
20
100
AcDbEntity
  8
0
100
AcDbLine
 10
1966.174385622166
 20
1117.325202879147
 30
0.0
 11
1939.673904265059
 21
1117.325202879147
 31
0.0
  0
ARC
  5
8CF
330
20
100
AcDbEntity
  8
0
100
AcDbCircle
 10
1966.174385622166
 20
1107.325202879147
 30
0.0
 40
10.0
100
AcDbArc
 50
0.0
 51
90.00000000000081
  0
LINE
  5
8D0
330
20
100
AcDbEntity
  8
0
100
AcDbLine
 10
2074.139039871518
 20
1117.325238586805
 30
0.0
 11
2056.159450160191
 21
1117.325238586804
 31
0.0
  0
LINE
  5
8E7
330
20
100
AcDbEntity
  8
0
100
AcDbLine
 10
2153.070068587825
 20
1106.325001853881
 30
0.0
 11
2174.570068587826
 21
1106.325001853881
 31
0.0
  0
LINE
  5
8E8
330
20
100
AcDbEntity
  8
0
100
AcDbLine
 10
2146.069587230717
 20
1117.325238586803
 30
0.0
 11
2172.570068587825
 21
1117.325238586803
 31
0.0
  0
LINE
  5
8E9
330
20
100
AcDbEntity
  8
0
100
AcDbLine
 10
2153.070068587826
 20
1114.325238586804
 30
0.0
 11
2174.570068587826
 21
1114.325238586804
 31
0.0
  0
LINE
  5
8F0
330
20
100
AcDbEntity
  8
0
100
AcDbLine
 10
2150.870068587825
 20
1107.325238586803
 30
0.0
 11
2141.270068587825
 21
1107.325238586803
 31
0.0
  0
LINE
  5
8F1
330
20
100
AcDbEntity
  8
T
100
AcDbLine
 10
2150.870068587825
 20
1107.325238586803
 30
0.0
 11
2141.270068587825
 21
1107.325238586803
 31
0.0
  0
ARC
  5
8F2
330
20
100
AcDbEntity
  8
0
100
AcDbCircle
 10
2146.069587230717
 20
1107.325238586803
 30
0.0
 40
10.0
100
AcDbArc
 50
89.9999999999992
 51
180.0
  0
LINE
  5
8F6
330
20
100
AcDbEntity
  8
0
100
AcDbLine
 10
2186.970068587825
 20
1107.325238586803
 30
0.0
 11
2176.170068587825
 21
1107.325238586803
 31
0.0
  0
LINE
  5
8F7
330
20
100
AcDbEntity
  8
T
100
AcDbLine
 10
2186.370068587825
 20
1107.325238586803
 30
0.0
 11
2176.770068587825
 21
1107.325238586803
 31
0.0
  0
LINE
  5
8FB
330
20
100
AcDbEntity
  8
T
100
AcDbLine
 10
2266.677609308314
 20
1126.437940033688
 30
0.0
 11
2287.367686026516
 21
1126.437940033688
 31
0.0
  0
ARC
  5
8FC
330
20
100
AcDbEntity
  8
0
100
AcDbCircle
 10
2276.881634910498
 20
1126.437940033688
 30
0.0
 40
4.099999999999999
100
AcDbArc
 50
14.11698057129991
 51
345.8830194286939
  0
ARC
  5
8FD
330
20
100
AcDbEntity
  8
0
100
AcDbCircle
 10
2276.881634910498
 20
1126.437940033688
 30
0.0
 40
7.7
100
AcDbArc
 50
7.462087685616907
 51
352.5379123143797
  0
LINE
  5
902
330
20
100
AcDbEntity
  8
T
100
AcDbLine
 10
2276.881634910498
 20
1137.408034322008
 30
0.0
 11
2276.881634910498
 21
1115.124533445477
 31
0.0
  0
LINE
  5
907
330
20
100
AcDbEntity
  8
0
100
AcDbLine
 10
2280.857813980912
 20
1125.437940033688
 30
0.0
 11
2284.516423709148
 21
1125.437940033688
 31
0.0
  0
LINE
  5
908
330
20
100
AcDbEntity
  8
0
100
AcDbLine
 10
2280.857813980912
 20
1127.437940033688
 30
0.0
 11
2284.516423709148
 21
1127.437940033688
 31
0.0
  0
LINE
  5
909
330
20
100
AcDbEntity
  8
0
100
AcDbLine
 10
2296.285340367386
 20
1134.137940033688
 30
0.0
 11
2294.285340367386
 21
1134.137940033688
 31
0.0
  0
LINE
  5
90A
330
20
100
AcDbEntity
  8
0
100
AcDbLine
 10
2295.285340367386
 20
1118.737940033688
 30
0.0
 11
2295.850275432322
 21
1127.437940033688
 31
0.0
  0
LINE
  5
90B
330
20
100
AcDbEntity
  8
0
100
AcDbLine
 10
2293.285340367386
 20
1118.737940033688
 30
0.0
 11
2292.785340367386
 21
1125.437940033688
 31
0.0
  0
LINE
  5
90C
330
20
100
AcDbEntity
  8
0
100
AcDbLine
 10
2295.285340367386
 20
1118.737940033688
 30
0.0
 11
2294.785340367386
 21
1125.437940033688
 31
0.0
  0
LINE
  5
90D
330
20
100
AcDbEntity
  8
0
100
AcDbLine
 10
2295.285340367386
 20
1118.737940033688
 30
0.0
 11
2293.285340367386
 21
1118.737940033688
 31
0.0
  0
LINE
  5
90E
330
20
100
AcDbEntity
  8
0
100
AcDbLine
 10
2294.785340367386
 20
1125.437940033688
 30
0.0
 11
2292.785340367386
 21
1125.437940033688
 31
0.0
  0
LINE
  5
90F
330
20
100
AcDbEntity
  8
0
100
AcDbLine
 10
2296.785340367386
 20
1127.437940033688
 30
0.0
 11
2294.785340367386
 21
1127.437940033688
 31
0.0
  0
LINE
  5
910
330
20
100
AcDbEntity
  8
0
100
AcDbLine
 10
2328.082672467487
 20
1130.3655941817
 30
0.0
 11
2330.082672467487
 21
1129.210893643321
 31
0.0
  0
LINE
  5
911
330
20
100
AcDbEntity
  8
0
100
AcDbLine
 10
2328.082672467487
 20
1125.6655941817
 30
0.0
 11
2330.082672467487
 21
1126.82029472008
 31
0.0
  0
LINE
  5
912
330
20
100
AcDbEntity
  8
0
100
AcDbLine
 10
2328.058483720169
 20
1130.3655941817
 30
0.0
 11
2326.082672467487
 21
1129.224859023096
 31
0.0
  0
LINE
  5
913
330
20
100
AcDbEntity
  8
0
100
AcDbLine
 10
2328.082672467487
 20
1125.6655941817
 30
0.0
 11
2326.082672467487
 21
1126.82029472008
 31
0.0
  0
LINE
  5
914
330
20
100
AcDbEntity
  8
0
100
AcDbLine
 10
2326.082672467487
 20
1129.224859023096
 30
0.0
 11
2326.082672467487
 21
1126.82029472008
 31
0.0
  0
LINE
  5
915
330
20
100
AcDbEntity
  8
0
100
AcDbLine
 10
2328.082672467486
 20
1130.365594181701
 30
0.0
 11
2328.058483720169
 21
1130.365594181701
 31
0.0
  0
LINE
  5
916
330
20
100
AcDbEntity
  8
0
100
AcDbLine
 10
2330.082672467487
 20
1129.210893643321
 30
0.0
 11
2330.082672467487
 21
1126.82029472008
 31
0.0
  0
LINE
  5
917
330
20
100
AcDbEntity
  8
0
100
AcDbLine
 10
2295.087682142402
 20
1106.208439433225
 30
0.0
 11
2294.524765629942
 21
1107.183439433226
 31
0.0
  0
LINE
  5
918
330
20
100
AcDbEntity
  8
0
100
AcDbLine
 10
2288.587682142402
 20
1106.208439433225
 30
0.0
 11
2289.150598654862
 21
1107.183439433226
 31
0.0
  0
LINE
  5
919
330
20
100
AcDbEntity
  8
0
100
AcDbLine
 10
2289.150598654862
 20
1107.183439433226
 30
0.0
 11
2294.524765629942
 21
1107.183439433226
 31
0.0
  0
LINE
  5
91C
330
20
100
AcDbEntity
  8
0
100
AcDbLine
 10
2293.720405302451
 20
1125.437940033688
 30
0.0
 11
2294.285340367386
 21
1134.137940033688
 31
0.0
  0
LINE
  5
91D
330
20
100
AcDbEntity
  8
0
100
AcDbLine
 10
2296.285340367386
 20
1134.137940033688
 30
0.0
 11
2296.785340367386
 21
1127.437940033688
 31
0.0
  0
LINE
  5
91E
330
20
100
AcDbEntity
  8
0
100
AcDbLine
 10
2294.285340367386
 20
1134.137940033688
 30
0.0
 11
2294.785340367386
 21
1127.437940033688
 31
0.0
  0
LINE
  5
91F
330
20
100
AcDbEntity
  8
0
100
AcDbLine
 10
2328.082672467487
 20
1132.770855646126
 30
0.0
 11
2328.082672467487
 21
1123.162528518488
 31
0.0
  0
LINE
  5
922
330
20
100
AcDbEntity
  8
0
100
AcDbLine
 10
2418.288301466919
 20
1151.817472832726
 30
0.0
 11
2447.371725948546
 21
1151.817472832726
 31
0.0
  0
LINE
  5
923
330
20
100
AcDbEntity
  8
0
100
AcDbLine
 10
2339.040931546317
 20
1131.3390941817
 30
0.0
 11
2408.467431546317
 21
1131.3390941817
 31
0.0
  0
LINE
  5
924
330
20
100
AcDbEntity
  8
0
100
AcDbLine
 10
2339.431509003425
 20
1132.0155941817
 30
0.0
 11
2407.790931546317
 21
1132.0155941817
 31
0.0
  0
LINE
  5
925
330
20
100
AcDbEntity
  8
0
100
AcDbLine
 10
2339.431509003425
 20
1124.0155941817
 30
0.0
 11
2407.790931546317
 21
1124.0155941817
 31
0.0
  0
LINE
  5
926
330
20
100
AcDbEntity
  8
0
100
AcDbLine
 10
2339.040931546317
 20
1124.692094181701
 30
0.0
 11
2408.467431546317
 21
1124.6920941817
 31
0.0
  0
LINE
  5
927
330
20
100
AcDbEntity
  8
0
100
AcDbLine
 10
2337.322978371756
 20
1128.0155941817
 30
0.0
 11
2410.915850187655
 21
1128.0155941817
 31
0.0
  0
LINE
  5
929
330
20
100
AcDbEntity
  8
0
100
AcDbLine
 10
2338.55069492413
 20
1105.642542960806
 30
0.0
 11
2386.910117467023
 21
1105.642542960806
 31
0.0
  0
LINE
  5
92D
330
20
100
AcDbEntity
  8
0
100
AcDbLine
 10
2339.040931546317
 20
1131.3390941817
 30
0.0
 11
2339.431509003425
 21
1132.0155941817
 31
0.0
  0
LINE
  5
92F
330
20
100
AcDbEntity
  8
0
100
AcDbLine
 10
2339.040931546317
 20
1124.692094181701
 30
0.0
 11
2339.431509003425
 21
1124.0155941817
 31
0.0
  0
LINE
  5
931
330
20
100
AcDbEntity
  8
0
100
AcDbLine
 10
2339.040931546317
 20
1131.3390941817
 30
0.0
 11
2339.040931546317
 21
1124.692094181701
 31
0.0
  0
LINE
  5
933
330
20
100
AcDbEntity
  8
0
100
AcDbLine
 10
2339.431509003425
 20
1132.0155941817
 30
0.0
 11
2339.431509003425
 21
1124.0155941817
 31
0.0
  0
LINE
  5
937
330
20
100
AcDbEntity
  8
0
100
AcDbLine
 10
2409.040931546317
 20
1125.2655941817
 30
0.0
 11
2407.790931546317
 21
1124.0155941817
 31
0.0
  0
LINE
  5
938
330
20
100
AcDbEntity
  8
0
100
AcDbLine
 10
2409.040931546317
 20
1130.7655941817
 30
0.0
 11
2409.040931546317
 21
1125.2655941817
 31
0.0
  0
LINE
  5
939
330
20
100
AcDbEntity
  8
0
100
AcDbLine
 10
2409.040931546317
 20
1130.7655941817
 30
0.0
 11
2407.790931546317
 21
1132.0155941817
 31
0.0
  0
LINE
  5
93A
330
20
100
AcDbEntity
  8
0
100
AcDbLine
 10
2407.790931546317
 20
1132.0155941817
 30
0.0
 11
2407.790931546317
 21
1124.0155941817
 31
0.0
  0
LINE
  5
93B
330
20
100
AcDbEntity
  8
0
100
AcDbLine
 10
2418.288301466919
 20
1176.78852224779
 30
0.0
 11
2418.288301466919
 21
1151.817472832726
 31
0.0
  0
ENDSEC
  0
SECTION
  2
OBJECTS
  0
DICTIONARY
  5
C
330
0
100
AcDbDictionary
281
     1
  3
ACAD_COLOR
350
1B
  3
ACAD_GROUP
350
D
  3
ACAD_LAYOUT
350
19
  3
ACAD_MATERIAL
350
1A
  3
ACAD_MLINESTYLE
350
16
  3
ACAD_PLOTSETTINGS
350
18
  3
ACAD_PLOTSTYLENAME
350
E
  3
ACDBHEADERROUNDTRIPXREC
350
997
  3
AcDbVariableDictionary
350
992
  0
DICTIONARY
  5
1B
102
{ACAD_REACTORS
330
C
102
}
330
C
100
AcDbDictionary
281
     1
  0
DICTIONARY
  5
D
102
{ACAD_REACTORS
330
C
102
}
330
C
100
AcDbDictionary
281
     1
  0
DICTIONARY
  5
19
102
{ACAD_REACTORS
330
C
102
}
330
C
100
AcDbDictionary
281
     1
  3
Model
350
23
  3
レイアウト1
350
1F
  0
DICTIONARY
  5
1A
102
{ACAD_REACTORS
330
C
102
}
330
C
100
AcDbDictionary
281
     1
  0
DICTIONARY
  5
16
102
{ACAD_REACTORS
330
C
102
}
330
C
100
AcDbDictionary
281
     1
  3
Standard
350
17
  0
DICTIONARY
  5
18
102
{ACAD_REACTORS
330
C
102
}
330
C
100
AcDbDictionary
281
     1
  0
ACDBDICTIONARYWDFLT
  5
E
102
{ACAD_REACTORS
330
C
102
}
330
C
100
AcDbDictionary
281
     1
  3
Normal
350
F
100
AcDbDictionaryWithDefault
340
F
  0
DICTIONARY
  5
997
102
{ACAD_REACTORS
330
C
102
}
330
C
100
AcDbDictionary
281
     1
  3
COLORDICT
350
999
  3
MATERIALDICT
350
998
  0
DICTIONARY
  5
992
102
{ACAD_REACTORS
330
C
102
}
330
C
100
AcDbDictionary
281
     1
  3
DIMASSOC
350
994
  3
HIDETEXT
350
993
  3
PROJECTNAME
350
995
  0
LAYOUT
  5
23
102
{ACAD_XDICTIONARY
360
99C
102
}
102
{ACAD_REACTORS
330
19
102
}
330
19
100
AcDbPlotSettings
  1

  2
Adobe PDF
  4
A4
  6

 40
3.174999952316284
 41
3.174999952316284
 42
3.175003051757812
 43
3.17498779296875
 44
209.9098358154297
 45
297.0318298339844
 46
0.0
 47
0.0
 48
1854.88692330613
 49
754.5562264944246
140
2418.337025261051
141
1151.806587882392
142
1.0
143
1.951516445565711
 70
 11952
 72
     1
 73
     1
 74
     4
  7

 75
     0
147
0.5124220204611789
148
-1854.88692330613
149
-754.5562264944246
100
AcDbLayout
  1
Model
 70
     1
 71
     0
 10
0.0
 20
0.0
 11
12.0
 21
9.0
 12
0.0
 22
0.0
 32
0.0
 14
0.0
 24
0.0
 34
0.0
 15
0.0
 25
0.0
 35
0.0
146
0.0
 13
0.0
 23
0.0
 33
0.0
 16
1.0
 26
0.0
 36
0.0
 17
0.0
 27
1.0
 37
0.0
 76
     0
330
20
  0
LAYOUT
  5
1F
102
{ACAD_XDICTIONARY
360
99A
102
}
102
{ACAD_REACTORS
330
19
102
}
330
19
100
AcDbPlotSettings
  1

  2
Canon iR C3220 LIPS
  4

  6

 40
0.0
 41
0.0
 42
0.0
 43
0.0
 44
0.0
 45
0.0
 46
0.0
 47
0.0
 48
0.0
 49
0.0
140
0.0
141
0.0
142
1.0
143
1.0
 70
   688
 72
     0
 73
     0
 74
     5
  7

 75
    16
147
1.0
148
0.0
149
0.0
100
AcDbLayout
  1
レイアウト1
 70
     0
 71
     1
 10
0.0
 20
0.0
 11
12.0
 21
9.0
 12
685.634816542931
 22
50.00000000000001
 32
1800.992778214582
 14
1.000000000000000E+20
 24
1.000000000000000E+20
 34
1.000000000000000E+20
 15
-1.000000000000000E+20
 25
-1.000000000000000E+20
 35
-1.000000000000000E+20
146
0.0
 13
0.0
 23
0.0
 33
0.0
 16
1.0
 26
0.0
 36
0.0
 17
0.0
 27
1.0
 37
0.0
 76
     0
330
1C
  0
MLINESTYLE
  5
17
102
{ACAD_REACTORS
330
16
102
}
330
16
100
AcDbMlineStyle
  2
STANDARD
 70
     0
  3

 62
   256
 51
90.0
 52
90.0
 71
     2
 49
0.5
 62
   256
  6
BYLAYER
 49
-0.5
 62
   256
  6
BYLAYER
  0
ACDBPLACEHOLDER
  5
F
102
{ACAD_REACTORS
330
E
102
}
330
E
  0
XRECORD
  5
999
102
{ACAD_REACTORS
330
997
102
}
330
997
100
AcDbXrecord
280
     1
340
1B
  0
XRECORD
  5
998
102
{ACAD_REACTORS
330
997
102
}
330
997
100
AcDbXrecord
280
     1
340
1A
  0
DICTIONARYVAR
  5
994
102
{ACAD_REACTORS
330
992
102
}
330
992
100
DictionaryVariables
280
     0
  1
2
  0
DICTIONARYVAR
  5
993
102
{ACAD_REACTORS
330
992
102
}
330
992
100
DictionaryVariables
280
     0
  1
1
  0
DICTIONARYVAR
  5
995
102
{ACAD_REACTORS
330
992
102
}
330
992
100
DictionaryVariables
280
     0
  1

  0
DICTIONARY
  5
99C
330
23
100
AcDbDictionary
280
     1
281
     1
  3
ACAD_XREC_ROUNDTRIP
360
99D
  0
DICTIONARY
  5
99A
330
1F
100
AcDbDictionary
280
     1
281
     1
  3
ACAD_XREC_ROUNDTRIP
360
99B
  0
XRECORD
  5
99D
102
{ACAD_REACTORS
330
99C
102
}
330
99C
100
AcDbXrecord
280
     1
102
SHADEPLOT
 70
     0
102
SHADEPLOTRESLEVEL
 70
     2
102
SHADEPLOTCUSTOMDPI
 70
   300
  0
XRECORD
  5
99B
102
{ACAD_REACTORS
330
99A
102
}
330
99A
100
AcDbXrecord
280
     1
102
SHADEPLOT
 70
     0
102
SHADEPLOTRESLEVEL
 70
     2
102
SHADEPLOTCUSTOMDPI
 70
   300
  0
ENDSEC
  0
EOF
