  0
SECTION
  2
HEADER
  9
$ACADVER
  1
AC1015
  9
$ACADMAINTVER
 70
    20
  9
$DWGCODEPAGE
  3
ANSI_932
  9
$INSBASE
 10
0.0
 20
0.0
 30
0.0
  9
$EXTMIN
 10
-9.438263628170716
 20
-9.522356442918862
 30
-0.0000000000112498
  9
$EXTMAX
 10
404.3246122646244
 20
289.0058515120085
 30
0.0000000000002956
  9
$LIMMIN
 10
0.0
 20
0.0
  9
$LIMMAX
 10
12.0
 20
9.0
  9
$ORTHOMODE
 70
     1
  9
$REGENMODE
 70
     0
  9
$FILLMODE
 70
     1
  9
$QTEXTMODE
 70
     0
  9
$MIRRTEXT
 70
     1
  9
$LTSCALE
 40
1.0
  9
$ATTMODE
 70
     1
  9
$TEXTSIZE
 40
2.0
  9
$TRACEWID
 40
0.05
  9
$TEXTSTYLE
  7
SIMPLEX
  9
$CLAYER
  8
4
  9
$CELTYPE
  6
ByLayer
  9
$CECOLOR
 62
   256
  9
$CELTSCALE
 40
1.0
  9
$DISPSILH
 70
     0
  9
$DIMSCALE
 40
1.0
  9
$DIMASZ
 40
0.18
  9
$DIMEXO
 40
0.0625
  9
$DIMDLI
 40
0.3799999999999999
  9
$DIMRND
 40
0.0
  9
$DIMDLE
 40
0.0
  9
$DIMEXE
 40
0.18
  9
$DIMTP
 40
0.0
  9
$DIMTM
 40
0.0
  9
$DIMTXT
 40
0.18
  9
$DIMCEN
 40
0.09
  9
$DIMTSZ
 40
0.0
  9
$DIMTOL
 70
     0
  9
$DIMLIM
 70
     0
  9
$DIMTIH
 70
     1
  9
$DIMTOH
 70
     1
  9
$DIMSE1
 70
     0
  9
$DIMSE2
 70
     0
  9
$DIMTAD
 70
     0
  9
$DIMZIN
 70
     0
  9
$DIMBLK
  1

  9
$DIMASO
 70
     1
  9
$DIMSHO
 70
     0
  9
$DIMPOST
  1

  9
$DIMAPOST
  1

  9
$DIMALT
 70
     0
  9
$DIMALTD
 70
     2
  9
$DIMALTF
 40
25.4
  9
$DIMLFAC
 40
1.0
  9
$DIMTOFL
 70
     0
  9
$DIMTVP
 40
0.0
  9
$DIMTIX
 70
     0
  9
$DIMSOXD
 70
     0
  9
$DIMSAH
 70
     0
  9
$DIMBLK1
  1

  9
$DIMBLK2
  1

  9
$DIMSTYLE
  2
Standard
  9
$DIMCLRD
 70
     0
  9
$DIMCLRE
 70
     0
  9
$DIMCLRT
 70
     0
  9
$DIMTFAC
 40
1.0
  9
$DIMGAP
 40
0.09
  9
$DIMJUST
 70
     0
  9
$DIMSD1
 70
     0
  9
$DIMSD2
 70
     0
  9
$DIMTOLJ
 70
     1
  9
$DIMTZIN
 70
     0
  9
$DIMALTZ
 70
     0
  9
$DIMALTTZ
 70
     0
  9
$DIMUPT
 70
     0
  9
$DIMDEC
 70
     3
  9
$DIMTDEC
 70
     3
  9
$DIMALTU
 70
     2
  9
$DIMALTTD
 70
     2
  9
$DIMTXSTY
  7
STANDARD
  9
$DIMAUNIT
 70
     0
  9
$DIMADEC
 70
     0
  9
$DIMALTRND
 40
0.0
  9
$DIMAZIN
 70
     0
  9
$DIMDSEP
 70
    46
  9
$DIMATFIT
 70
     3
  9
$DIMFRAC
 70
     0
  9
$DIMLDRBLK
  1

  9
$DIMLUNIT
 70
     2
  9
$DIMLWD
 70
    -2
  9
$DIMLWE
 70
    -2
  9
$DIMTMOVE
 70
     2
  9
$LUNITS
 70
     2
  9
$LUPREC
 70
     3
  9
$SKETCHINC
 40
0.1
  9
$FILLETRAD
 40
0.0
  9
$AUNITS
 70
     0
  9
$AUPREC
 70
     0
  9
$MENU
  1
Z:SANPOU-1
  9
$ELEVATION
 40
0.0
  9
$PELEVATION
 40
0.0
  9
$THICKNESS
 40
0.0
  9
$LIMCHECK
 70
     0
  9
$CHAMFERA
 40
0.0
  9
$CHAMFERB
 40
0.0
  9
$CHAMFERC
 40
0.0
  9
$CHAMFERD
 40
0.0
  9
$SKPOLY
 70
     0
  9
$TDCREATE
 40
2451663.542650463
  9
$TDUCREATE
 40
2451663.167650463
  9
$TDUPDATE
 40
2455127.493169305
  9
$TDUUPDATE
 40
2455127.118169305
  9
$TDINDWG
 40
0.0473735995
  9
$TDUSRTIMER
 40
0.0473735995
  9
$USRTIMER
 70
     1
  9
$ANGBASE
 50
0.0
  9
$ANGDIR
 70
     0
  9
$PDMODE
 70
     0
  9
$PDSIZE
 40
0.0
  9
$PLINEWID
 40
0.0
  9
$SPLFRAME
 70
     0
  9
$SPLINETYPE
 70
     6
  9
$SPLINESEGS
 70
     8
  9
$HANDSEED
  5
C0E
  9
$SURFTAB1
 70
     6
  9
$SURFTAB2
 70
     6
  9
$SURFTYPE
 70
     6
  9
$SURFU
 70
     6
  9
$SURFV
 70
     6
  9
$UCSBASE
  2

  9
$UCSNAME
  2

  9
$UCSORG
 10
0.0
 20
0.0
 30
0.0
  9
$UCSXDIR
 10
1.0
 20
0.0
 30
0.0
  9
$UCSYDIR
 10
0.0
 20
1.0
 30
0.0
  9
$UCSORTHOREF
  2

  9
$UCSORTHOVIEW
 70
     0
  9
$UCSORGTOP
 10
0.0
 20
0.0
 30
0.0
  9
$UCSORGBOTTOM
 10
0.0
 20
0.0
 30
0.0
  9
$UCSORGLEFT
 10
0.0
 20
0.0
 30
0.0
  9
$UCSORGRIGHT
 10
0.0
 20
0.0
 30
0.0
  9
$UCSORGFRONT
 10
0.0
 20
0.0
 30
0.0
  9
$UCSORGBACK
 10
0.0
 20
0.0
 30
0.0
  9
$PUCSBASE
  2

  9
$PUCSNAME
  2

  9
$PUCSORG
 10
0.0
 20
0.0
 30
0.0
  9
$PUCSXDIR
 10
1.0
 20
0.0
 30
0.0
  9
$PUCSYDIR
 10
0.0
 20
1.0
 30
0.0
  9
$PUCSORTHOREF
  2

  9
$PUCSORTHOVIEW
 70
     0
  9
$PUCSORGTOP
 10
0.0
 20
0.0
 30
0.0
  9
$PUCSORGBOTTOM
 10
0.0
 20
0.0
 30
0.0
  9
$PUCSORGLEFT
 10
0.0
 20
0.0
 30
0.0
  9
$PUCSORGRIGHT
 10
0.0
 20
0.0
 30
0.0
  9
$PUCSORGFRONT
 10
0.0
 20
0.0
 30
0.0
  9
$PUCSORGBACK
 10
0.0
 20
0.0
 30
0.0
  9
$USERI1
 70
     0
  9
$USERI2
 70
     0
  9
$USERI3
 70
     0
  9
$USERI4
 70
     0
  9
$USERI5
 70
     0
  9
$USERR1
 40
0.0
  9
$USERR2
 40
0.0
  9
$USERR3
 40
0.0
  9
$USERR4
 40
0.0
  9
$USERR5
 40
0.0
  9
$WORLDVIEW
 70
     1
  9
$SHADEDGE
 70
     3
  9
$SHADEDIF
 70
    70
  9
$TILEMODE
 70
     1
  9
$MAXACTVP
 70
    16
  9
$PINSBASE
 10
0.0
 20
0.0
 30
0.0
  9
$PLIMCHECK
 70
     0
  9
$PEXTMIN
 10
1.000000000000000E+20
 20
1.000000000000000E+20
 30
1.000000000000000E+20
  9
$PEXTMAX
 10
-1.000000000000000E+20
 20
-1.000000000000000E+20
 30
-1.000000000000000E+20
  9
$PLIMMIN
 10
0.0
 20
0.0
  9
$PLIMMAX
 10
12.0
 20
9.0
  9
$UNITMODE
 70
     0
  9
$VISRETAIN
 70
     0
  9
$PLINEGEN
 70
     0
  9
$PSLTSCALE
 70
     0
  9
$TREEDEPTH
 70
  3020
  9
$CMLSTYLE
  2
Standard
  9
$CMLJUST
 70
     0
  9
$CMLSCALE
 40
1.0
  9
$PROXYGRAPHICS
 70
     1
  9
$MEASUREMENT
 70
     0
  9
$CELWEIGHT
370
    -1
  9
$ENDCAPS
280
     0
  9
$JOINSTYLE
280
     0
  9
$LWDISPLAY
290
     0
  9
$INSUNITS
 70
     0
  9
$HYPERLINKBASE
  1

  9
$STYLESHEET
  1

  9
$XEDIT
290
     1
  9
$CEPSNTYPE
380
     0
  9
$PSTYLEMODE
290
     1
  9
$FINGERPRINTGUID
  2
{264B38CF-AE54-4CFA-B6E8-163843CD8FDA}
  9
$VERSIONGUID
  2
{A4A79C0B-2AE4-42A0-AE69-23F2932354D4}
  9
$EXTNAMES
290
     1
  9
$PSVPSCALE
 40
0.0
  9
$OLESTARTUP
290
     0
  0
ENDSEC
  0
SECTION
  2
CLASSES
  0
CLASS
  1
ACDBDICTIONARYWDFLT
  2
AcDbDictionaryWithDefault
  3
ObjectDBX Classes
 90
        0
280
     0
281
     0
  0
CLASS
  1
DICTIONARYVAR
  2
AcDbDictionaryVar
  3
ObjectDBX Classes
 90
        0
280
     0
281
     0
  0
CLASS
  1
ACDBPLACEHOLDER
  2
AcDbPlaceHolder
  3
ObjectDBX Classes
 90
        0
280
     0
281
     0
  0
CLASS
  1
LAYOUT
  2
AcDbLayout
  3
ObjectDBX Classes
 90
        0
280
     0
281
     0
  0
ENDSEC
  0
SECTION
  2
TABLES
  0
TABLE
  2
VPORT
  5
8
330
0
100
AcDbSymbolTable
 70
     3
  0
VPORT
  5
C06
330
8
100
AcDbSymbolTableRecord
100
AcDbViewportTableRecord
  2
*Active
 70
     0
 10
0.0
 20
0.0
 11
1.0
 21
1.0
 12
121.3749775178838
 22
128.1592580899607
 13
0.0
 23
0.0
 14
1.0
 24
1.0
 15
0.0
 25
0.0
 16
0.0
 26
0.0
 36
1.0
 17
0.0
 27
0.0
 37
0.0
 40
384.505570456289
 41
1.785714285714285
 42
50.0
 43
0.0
 44
0.0
 50
0.0
 51
0.0
 71
     0
 72
 20000
 73
     1
 74
     0
 75
     0
 76
     0
 77
     0
 78
     0
281
     0
 65
     1
110
0.0
120
0.0
130
0.0
111
1.0
121
0.0
131
0.0
112
0.0
122
1.0
132
0.0
 79
     0
146
0.0
  0
ENDTAB
  0
TABLE
  2
LTYPE
  5
5
330
0
100
AcDbSymbolTable
 70
     6
  0
LTYPE
  5
13
330
5
100
AcDbSymbolTableRecord
100
AcDbLinetypeTableRecord
  2
ByBlock
 70
     0
  3

 72
    65
 73
     0
 40
0.0
  0
LTYPE
  5
14
330
5
100
AcDbSymbolTableRecord
100
AcDbLinetypeTableRecord
  2
ByLayer
 70
     0
  3

 72
    65
 73
     0
 40
0.0
  0
LTYPE
  5
15
330
5
100
AcDbSymbolTableRecord
100
AcDbLinetypeTableRecord
  2
CONTINUOUS
 70
     0
  3
Àü
 72
    65
 73
     0
 40
0.0
  0
LTYPE
  5
2C
330
5
100
AcDbSymbolTableRecord
100
AcDbLinetypeTableRecord
  2
C5
 70
     0
  3
\\\\\  ¥  \\\\\  ¥  \\\\\  ¥  \
 72
    65
 73
     4
 40
16.64
 49
12.8
 74
     0
 49
-1.28
 74
     0
 49
1.28
 74
     0
 49
-1.28
 74
     0
  0
LTYPE
  5
2D
330
5
100
AcDbSymbolTableRecord
100
AcDbLinetypeTableRecord
  2
H4
 70
     0
  3
\\\\@@\\\\@@\\\\@@\\\\@
 72
    65
 73
     2
 40
2.7
 49
1.6
 74
     0
 49
-1.1
 74
     0
  0
LTYPE
  5
2E
330
5
100
AcDbSymbolTableRecord
100
AcDbLinetypeTableRecord
  2
H5
 70
     0
  3
\\\\\@@@\\\\\@@@\\\\\@@
 72
    65
 73
     2
 40
3.8
 49
2.2
 74
     0
 49
-1.6
 74
     0
  0
LTYPE
  5
2F
330
5
100
AcDbSymbolTableRecord
100
AcDbLinetypeTableRecord
  2
H3
 70
     0
  3
\\\@@\\\@@\\\@@\\\@@\\\
 72
    65
 73
     2
 40
1.9
 49
1.1
 74
     0
 49
-0.8
 74
     0
  0
LTYPE
  5
30
330
5
100
AcDbSymbolTableRecord
100
AcDbLinetypeTableRecord
  2
H2
 70
     0
  3
\\@\\@\\@\\@\\@\\@\\@\\
 72
    65
 73
     2
 40
1.36
 49
0.8
 74
     0
 49
-0.5600000000000001
 74
     0
  0
ENDTAB
  0
TABLE
  2
LAYER
  5
2
102
{ACAD_XDICTIONARY
360
984
102
}
330
0
100
AcDbSymbolTable
 70
    11
  0
LAYER
  5
10
330
2
100
AcDbSymbolTableRecord
100
AcDbLayerTableRecord
  2
0
 70
     0
 62
     7
  6
CONTINUOUS
370
    -3
390
F
  0
LAYER
  5
36
330
2
100
AcDbSymbolTableRecord
100
AcDbLayerTableRecord
  2
4
 70
     0
 62
     4
  6
CONTINUOUS
370
    -3
390
F
  0
LAYER
  5
37
330
2
100
AcDbSymbolTableRecord
100
AcDbLayerTableRecord
  2
5
 70
     0
 62
     5
  6
CONTINUOUS
370
    -3
390
F
  0
LAYER
  5
38
330
2
100
AcDbSymbolTableRecord
100
AcDbLayerTableRecord
  2
6
 70
     0
 62
     6
  6
CONTINUOUS
370
    -3
390
F
  0
LAYER
  5
39
330
2
100
AcDbSymbolTableRecord
100
AcDbLayerTableRecord
  2
S
 70
     0
 62
     6
  6
CONTINUOUS
370
    -3
390
F
  0
LAYER
  5
3A
330
2
100
AcDbSymbolTableRecord
100
AcDbLayerTableRecord
  2
T
 70
     0
 62
     5
  6
C5
370
    -3
390
F
  0
LAYER
  5
3B
330
2
100
AcDbSymbolTableRecord
100
AcDbLayerTableRecord
  2
W
 70
     0
 62
     7
  6
CONTINUOUS
370
    -3
390
F
  0
LAYER
  5
980
330
2
100
AcDbSymbolTableRecord
100
AcDbLayerTableRecord
  2
Defpoints
 70
     0
 62
     7
  6
CONTINUOUS
290
     0
370
    -3
390
F
  0
ENDTAB
  0
TABLE
  2
STYLE
  5
3
330
0
100
AcDbSymbolTable
 70
     5
  0
STYLE
  5
11
330
3
100
AcDbSymbolTableRecord
100
AcDbTextStyleTableRecord
  2
STANDARD
 70
     0
 40
0.0
 41
1.0
 50
0.0
 71
     0
 42
0.2
  3
T:TXT
  4
T:SUG-BIG1
  0
STYLE
  5
29
330
3
100
AcDbSymbolTableRecord
100
AcDbTextStyleTableRecord
  2
SIMPLEX
 70
     0
 40
0.0
 41
1.0
 50
0.0
 71
     0
 42
2.0
  3
T:SIMPLEX
  4
T:SUG-BIG1
  0
STYLE
  5
981
330
3
100
AcDbSymbolTableRecord
100
AcDbTextStyleTableRecord
  2
OPNUS
 70
     0
 40
0.0
 41
1.0
 50
0.0
 71
     0
 42
3.0
  3
MS PGothic.ttf
  4

1001
ACAD
1000
MS PGothic
1071
    32818
  0
ENDTAB
  0
TABLE
  2
VIEW
  5
6
330
0
100
AcDbSymbolTable
 70
     0
  0
ENDTAB
  0
TABLE
  2
UCS
  5
7
330
0
100
AcDbSymbolTable
 70
     0
  0
ENDTAB
  0
TABLE
  2
APPID
  5
9
330
0
100
AcDbSymbolTable
 70
     1
  0
APPID
  5
12
330
9
100
AcDbSymbolTableRecord
100
AcDbRegAppTableRecord
  2
ACAD
 70
     0
  0
ENDTAB
  0
TABLE
  2
DIMSTYLE
  5
A
330
0
100
AcDbSymbolTable
 70
     3
100
AcDbDimStyleTable
 71
     0
  0
DIMSTYLE
105
975
330
A
100
AcDbSymbolTableRecord
100
AcDbDimStyleTableRecord
  2
Standard
 70
     0
340
11
  0
ENDTAB
  0
TABLE
  2
BLOCK_RECORD
  5
1
330
0
100
AcDbSymbolTable
 70
     7
  0
BLOCK_RECORD
  5
20
330
1
100
AcDbSymbolTableRecord
100
AcDbBlockTableRecord
  2
*Model_Space
340
23
  0
BLOCK_RECORD
  5
1C
330
1
100
AcDbSymbolTableRecord
100
AcDbBlockTableRecord
  2
*Paper_Space
340
1F
  0
BLOCK_RECORD
  5
24
330
1
100
AcDbSymbolTableRecord
100
AcDbBlockTableRecord
  2
SUG-AR01
340
0
102
{BLKREFS
331
87B
331
8C6
102
}
  0
BLOCK_RECORD
  5
25
330
1
100
AcDbSymbolTableRecord
100
AcDbBlockTableRecord
  2
SUG-AR06
340
0
102
{BLKREFS
331
4F
331
5C
102
}
  0
BLOCK_RECORD
  5
26
330
1
100
AcDbSymbolTableRecord
100
AcDbBlockTableRecord
  2
*X2
340
0
102
{BLKREFS
331
D4
102
}
  0
ENDTAB
  0
ENDSEC
  0
SECTION
  2
BLOCKS
  0
BLOCK
  5
3E
330
20
100
AcDbEntity
  8
0
100
AcDbBlockBegin
  2
*Model_Space
 70
     0
 10
0.0
 20
0.0
 30
0.0
  3
*Model_Space
  1

  0
ENDBLK
  5
3F
330
20
100
AcDbEntity
  8
0
100
AcDbBlockEnd
  0
BLOCK
  5
3C
330
1C
100
AcDbEntity
 67
     1
  8
0
100
AcDbBlockBegin
  2
*Paper_Space
 70
     0
 10
0.0
 20
0.0
 30
0.0
  3
*Paper_Space
  1

  0
ENDBLK
  5
3D
330
1C
100
AcDbEntity
 67
     1
  8
0
100
AcDbBlockEnd
  0
BLOCK
  5
40
330
24
100
AcDbEntity
  8
0
100
AcDbBlockBegin
  2
SUG-AR01
 70
     0
 10
0.0
 20
0.0
 30
0.0
  3
SUG-AR01
  1

  0
LINE
  5
41
330
24
100
AcDbEntity
  8
0
100
AcDbLine
 10
0.0
 20
0.0
 30
0.0
 11
5.0
 21
1.339745962155659
 31
0.0
  0
LINE
  5
42
330
24
100
AcDbEntity
  8
0
100
AcDbLine
 10
5.0
 20
-1.339745962155659
 30
0.0
 11
5.0
 21
1.339745962155659
 31
0.0
  0
LINE
  5
43
330
24
100
AcDbEntity
  8
0
100
AcDbLine
 10
0.0
 20
0.0
 30
0.0
 11
5.0
 21
-1.339745962155659
 31
0.0
  0
ENDBLK
  5
44
330
24
100
AcDbEntity
  8
0
100
AcDbBlockEnd
  0
BLOCK
  5
45
330
25
100
AcDbEntity
  8
0
100
AcDbBlockBegin
  2
SUG-AR06
 70
     0
 10
0.0
 20
0.0
 30
0.0
  3
SUG-AR06
  1

  0
ENDBLK
  5
46
330
25
100
AcDbEntity
  8
0
100
AcDbBlockEnd
  0
BLOCK
  5
47
330
26
100
AcDbEntity
  8
0
100
AcDbBlockBegin
  2
*X2
 70
     1
 10
0.0
 20
0.0
 30
0.0
  3
*X2
  1

  0
LINE
  5
48
330
26
100
AcDbEntity
  8
0
 62
     0
100
AcDbLine
 10
-119.6477110674839
 20
-19.23854813899415
 30
0.0
 11
-116.1643344606472
 21
-15.75517153215743
 31
0.0
  0
LINE
  5
49
330
26
100
AcDbEntity
  8
0
 62
     0
100
AcDbLine
 10
-120.3339764942086
 20
-18.5106000033458
 30
0.0
 11
-116.8922825962955
 21
-15.06890610543267
 31
0.0
  0
LINE
  5
4A
330
26
100
AcDbEntity
  8
0
 62
     0
100
AcDbLine
 10
-120.6946999662653
 20
-17.45710991302935
 30
0.0
 11
-117.9457726866119
 21
-14.70818263337602
 31
0.0
  0
LINE
  5
4B
330
26
100
AcDbEntity
  8
0
 62
     0
100
AcDbLine
 10
-118.649999051071
 20
-19.6550496849544
 30
0.0
 11
-115.7478329146869
 21
-16.75288354857027
 31
0.0
  0
LINE
  5
4C
330
26
100
AcDbEntity
  8
0
 62
     0
100
AcDbLine
 10
-116.9134796836151
 20
-19.33274387987155
 30
0.0
 11
-116.0701387197698
 21
-18.48940291602623
 31
0.0
  0
ENDBLK
  5
4D
330
26
100
AcDbEntity
  8
0
100
AcDbBlockEnd
  0
ENDSEC
  0
SECTION
  2
ENTITIES
  0
LINE
  5
6E
330
20
100
AcDbEntity
  8
0
  6
C5
100
AcDbLine
 10
97.81481819764358
 20
87.78716575309774
 30
0.0
 11
19.96280301050493
 21
87.78716575309774
 31
0.0
  0
LINE
  5
6F
330
20
100
AcDbEntity
  8
0
  6
C5
100
AcDbLine
 10
97.81481819764358
 20
80.08904622035181
 30
0.0
 11
97.81481819764358
 21
87.78716575309774
 31
0.0
  0
LINE
  5
70
330
20
100
AcDbEntity
  8
0
  6
C5
100
AcDbLine
 10
19.96280301050493
 20
80.08904622035181
 30
0.0
 11
97.81481819764358
 21
80.08904622035181
 31
0.0
  0
LINE
  5
71
330
20
100
AcDbEntity
  8
0
  6
C5
100
AcDbLine
 10
19.96280301050493
 20
87.78716575309774
 30
0.0
 11
19.96280301050493
 21
80.08904622035181
 31
0.0
  0
LINE
  5
85
330
20
100
AcDbEntity
  8
0
  6
H3
100
AcDbLine
 10
208.8142708485467
 20
207.2468545554854
 30
0.0
 11
208.8142708485467
 21
194.7468545554854
 31
0.0
  0
LINE
  5
86
330
20
100
AcDbEntity
  8
0
  6
H3
100
AcDbLine
 10
201.8142708485467
 20
194.7468545554854
 30
0.0
 11
201.8142708485467
 21
207.2468545554854
 31
0.0
  0
LINE
  5
87
330
20
100
AcDbEntity
  8
0
  6
H3
100
AcDbLine
 10
206.3142708485467
 20
194.7468545554855
 30
0.0
 11
206.3142708485467
 21
203.7468545554854
 31
0.0
  0
LINE
  5
88
330
20
100
AcDbEntity
  8
0
  6
H3
100
AcDbLine
 10
206.3142708485467
 20
203.7468545554854
 30
0.0
 11
204.3142708485467
 21
203.7468545554854
 31
0.0
  0
LINE
  5
89
330
20
100
AcDbEntity
  8
0
  6
H3
100
AcDbLine
 10
204.3142708485467
 20
203.7468545554854
 30
0.0
 11
204.3142708485467
 21
194.7468545554855
 31
0.0
  0
LINE
  5
8A
330
20
100
AcDbEntity
  8
0
  6
H3
100
AcDbLine
 10
208.8142708485467
 20
194.7468545554854
 30
0.0
 11
206.3142708485467
 21
194.7468545554855
 31
0.0
  0
LINE
  5
8B
330
20
100
AcDbEntity
  8
0
  6
H3
100
AcDbLine
 10
204.3142708485467
 20
194.7468545554855
 30
0.0
 11
201.8142708485467
 21
194.7468545554854
 31
0.0
  0
LINE
  5
8C
330
20
100
AcDbEntity
  8
0
  6
H3
100
AcDbLine
 10
213.3142708485467
 20
207.2468545554854
 30
0.0
 11
213.3142708485467
 21
236.0468545554854
 31
0.0
  0
LINE
  5
8D
330
20
100
AcDbEntity
  8
0
  6
H3
100
AcDbLine
 10
212.1142708485467
 20
237.2468545554854
 30
0.0
 11
198.5142708485467
 21
237.2468545554854
 31
0.0
  0
LINE
  5
8E
330
20
100
AcDbEntity
  8
0
  6
H3
100
AcDbLine
 10
197.3142708485467
 20
207.2468545554854
 30
0.0
 11
213.3142708485467
 21
207.2468545554854
 31
0.0
  0
LINE
  5
8F
330
20
100
AcDbEntity
  8
0
  6
H3
100
AcDbLine
 10
198.5142708485467
 20
236.0468545554854
 30
0.0
 11
198.5142708485467
 21
207.2468545554854
 31
0.0
  0
LINE
  5
90
330
20
100
AcDbEntity
  8
0
  6
H3
100
AcDbLine
 10
212.1142708485467
 20
236.0468545554854
 30
0.0
 11
198.5142708485467
 21
236.0468545554854
 31
0.0
  0
LINE
  5
91
330
20
100
AcDbEntity
  8
0
  6
H3
100
AcDbLine
 10
212.1142708485467
 20
207.2468545554854
 30
0.0
 11
212.1142708485467
 21
236.0468545554854
 31
0.0
  0
LINE
  5
92
330
20
100
AcDbEntity
  8
0
  6
H3
100
AcDbLine
 10
198.5142708485467
 20
208.4468545554854
 30
0.0
 11
212.1142708485467
 21
208.4468545554854
 31
0.0
  0
ARC
  5
93
330
20
100
AcDbEntity
  8
0
  6
H3
100
AcDbCircle
 10
198.5142708485467
 20
236.0468545554854
 30
0.0
 40
1.199999999999999
100
AcDbArc
 50
90.0
 51
180.0
  0
ARC
  5
94
330
20
100
AcDbEntity
  8
0
  6
H3
100
AcDbCircle
 10
212.1142708485467
 20
236.0468545554854
 30
0.0
 40
1.199999999999999
100
AcDbArc
 50
0.0
 51
90.0
  0
LINE
  5
95
330
20
100
AcDbEntity
  8
T
100
AcDbLine
 10
186.2959053339062
 20
166.3468545554854
 30
0.0
 11
224.5888145475441
 21
166.3468545554854
 31
0.0
  0
LINE
  5
96
330
20
100
AcDbEntity
  8
0
100
AcDbLine
 10
128.7237481459336
 20
241.3468545554854
 30
0.0
 11
127.1237481459335
 21
241.3468545554854
 31
0.0
  0
LINE
  5
97
330
20
100
AcDbEntity
  8
0
100
AcDbLine
 10
144.7237481459336
 20
151.3468545554854
 30
0.0
 11
146.3237481459335
 21
151.3468545554854
 31
0.0
  0
LINE
  5
98
330
20
100
AcDbEntity
  8
0
100
AcDbLine
 10
127.1237481459336
 20
241.3468545554854
 30
0.0
 11
127.1237481459336
 21
151.3468545554854
 31
0.0
  0
LINE
  5
99
330
20
100
AcDbEntity
  8
0
100
AcDbLine
 10
146.3237481459336
 20
241.3468545554854
 30
0.0
 11
146.3237481459335
 21
151.3468545554854
 31
0.0
  0
LINE
  5
9A
330
20
100
AcDbEntity
  8
0
100
AcDbLine
 10
128.7237481459336
 20
241.3468545554854
 30
0.0
 11
128.7237481459336
 21
151.3468545554854
 31
0.0
  0
LINE
  5
9B
330
20
100
AcDbEntity
  8
0
100
AcDbLine
 10
144.7237481459336
 20
241.3468545554854
 30
0.0
 11
144.7237481459336
 21
151.3468545554854
 31
0.0
  0
LINE
  5
9C
330
20
100
AcDbEntity
  8
0
100
AcDbLine
 10
127.1237481459336
 20
151.3468545554854
 30
0.0
 11
128.7237481459336
 21
151.3468545554854
 31
0.0
  0
LINE
  5
9D
330
20
100
AcDbEntity
  8
0
100
AcDbLine
 10
146.3237481459336
 20
241.3468545554854
 30
0.0
 11
144.7237481459336
 21
241.3468545554854
 31
0.0
  0
LINE
  5
9E
330
20
100
AcDbEntity
  8
0
100
AcDbLine
 10
136.7237481459336
 20
242.6639725608675
 30
0.0
 11
136.7237481459336
 21
146.0910698169668
 31
0.0
  0
LINE
  5
9F
330
20
100
AcDbEntity
  8
0
100
AcDbLine
 10
144.6237481459336
 20
209.3468545554854
 30
0.0
 11
144.6237481459335
 21
171.3468545554854
 31
0.0
  0
LINE
  5
A0
330
20
100
AcDbEntity
  8
0
100
AcDbLine
 10
130.2237481459336
 20
190.8133768697865
 30
0.0
 11
130.2237481459336
 21
203.072517925063
 31
0.0
  0
LINE
  5
A1
330
20
100
AcDbEntity
  8
0
100
AcDbLine
 10
196.9152015046468
 20
201.7028705499247
 30
0.0
 11
195.6546668038711
 21
199.0864360611024
 31
0.0
  0
LINE
  5
A2
330
20
100
AcDbEntity
  8
0
100
AcDbLine
 10
195.1892652586631
 20
201.8468545554854
 30
0.0
 11
194.5362350933338
 21
199.5082230727372
 31
0.0
  0
LINE
  5
A3
330
20
100
AcDbEntity
  8
0
100
AcDbLine
 10
190.014127991404
 20
201.8468545554854
 30
0.0
 11
190.014127991404
 21
190.8468545554854
 31
0.0
  0
LINE
  5
A4
330
20
100
AcDbEntity
  8
0
100
AcDbLine
 10
190.014127991404
 20
193.4468545554855
 30
0.0
 11
187.0641279914039
 21
193.4468545554855
 31
0.0
  0
LINE
  5
A5
330
20
100
AcDbEntity
  8
0
100
AcDbLine
 10
187.0641279914039
 20
194.2468545554854
 30
0.0
 11
190.014127991404
 21
194.2468545554854
 31
0.0
  0
LINE
  5
A6
330
20
100
AcDbEntity
  8
0
100
AcDbLine
 10
190.014127991404
 20
195.9468545554854
 30
0.0
 11
187.0641279914039
 21
195.9468545554854
 31
0.0
  0
LINE
  5
A7
330
20
100
AcDbEntity
  8
0
100
AcDbLine
 10
187.0641279914039
 20
196.7468545554854
 30
0.0
 11
190.014127991404
 21
196.7468545554854
 31
0.0
  0
LINE
  5
A8
330
20
100
AcDbEntity
  8
0
100
AcDbLine
 10
190.014127991404
 20
198.4468545554854
 30
0.0
 11
187.0641279914039
 21
198.4468545554854
 31
0.0
  0
LINE
  5
A9
330
20
100
AcDbEntity
  8
0
100
AcDbLine
 10
187.064127991404
 20
199.2468545554854
 30
0.0
 11
190.014127991404
 21
199.2468545554854
 31
0.0
  0
LINE
  5
AA
330
20
100
AcDbEntity
  8
0
100
AcDbLine
 10
190.7141279914041
 20
193.8468545554854
 30
0.0
 11
185.8141279914041
 21
193.8468545554854
 31
0.0
  0
LINE
  5
AB
330
20
100
AcDbEntity
  8
0
100
AcDbLine
 10
190.7141279914041
 20
198.8468545554854
 30
0.0
 11
185.8141279914041
 21
198.8468545554854
 31
0.0
  0
LINE
  5
AC
330
20
100
AcDbEntity
  8
0
100
AcDbLine
 10
190.014127991404
 20
192.3468545554854
 30
0.0
 11
196.014127991404
 21
192.3468545554854
 31
0.0
  0
LINE
  5
AD
330
20
100
AcDbEntity
  8
0
100
AcDbLine
 10
196.014127991404
 20
192.3468545554854
 30
0.0
 11
196.014127991404
 21
200.3468545554854
 31
0.0
  0
LINE
  5
AE
330
20
100
AcDbEntity
  8
0
100
AcDbLine
 10
196.014127991404
 20
200.3468545554854
 30
0.0
 11
190.014127991404
 21
200.3468545554854
 31
0.0
  0
LINE
  5
AF
330
20
100
AcDbEntity
  8
0
100
AcDbLine
 10
193.0658163817143
 20
193.8468545554854
 30
0.0
 11
196.3933707504487
 21
193.8468545554854
 31
0.0
  0
LINE
  5
B0
330
20
100
AcDbEntity
  8
0
100
AcDbLine
 10
194.514127991404
 20
192.0063852855703
 30
0.0
 11
194.514127991404
 21
195.3359787702335
 31
0.0
  0
LINE
  5
B1
330
20
100
AcDbEntity
  8
0
100
AcDbLine
 10
192.0779486784962
 20
199.3468545554854
 30
0.0
 11
189.4003072724052
 21
199.3468545554854
 31
0.0
  0
CIRCLE
  5
B2
330
20
100
AcDbEntity
  8
0
100
AcDbCircle
 10
190.7141279914041
 20
199.3468545554854
 30
0.0
 40
0.75
  0
CIRCLE
  5
B3
330
20
100
AcDbEntity
  8
0
100
AcDbCircle
 10
194.514127991404
 20
193.8468545554854
 30
0.0
 40
1.0
  0
CIRCLE
  5
B4
330
20
100
AcDbEntity
  8
0
100
AcDbCircle
 10
195.1141279914041
 20
199.3468545554854
 30
0.0
 40
0.6
  0
LINE
  5
B5
330
20
100
AcDbEntity
  8
0
100
AcDbLine
 10
195.5734244236491
 20
198.9607887743977
 30
0.0
 11
197.064127991404
 21
200.7342555351028
 31
0.0
  0
LINE
  5
B6
330
20
100
AcDbEntity
  8
0
100
AcDbLine
 10
194.5941311700538
 20
199.6461926683039
 30
0.0
 11
195.8609504066601
 21
201.8468545554854
 31
0.0
  0
LINE
  5
B7
330
20
100
AcDbEntity
  8
0
  6
H4
100
AcDbLine
 10
138.7237481459336
 20
177.8468545554854
 30
0.0
 11
134.7237481459336
 21
177.8468545554854
 31
0.0
  0
LINE
  5
B8
330
20
100
AcDbEntity
  8
0
  6
H4
100
AcDbLine
 10
134.7237481459336
 20
177.8468545554854
 30
0.0
 11
134.7237481459336
 21
169.8468545554854
 31
0.0
  0
LINE
  5
B9
330
20
100
AcDbEntity
  8
0
  6
H4
100
AcDbLine
 10
138.7237481459336
 20
169.8468545554854
 30
0.0
 11
138.7237481459336
 21
177.8468545554854
 31
0.0
  0
LINE
  5
BA
330
20
100
AcDbEntity
  8
0
100
AcDbLine
 10
135.7141884212955
 20
176.3468545554854
 30
0.0
 11
138.0134247748141
 21
176.3468545554854
 31
0.0
  0
LINE
  5
BB
330
20
100
AcDbEntity
  8
0
100
AcDbLine
 10
135.5726969533866
 20
173.8468545554854
 30
0.0
 11
137.9073061738824
 21
173.8468545554854
 31
0.0
  0
CIRCLE
  5
BC
330
20
100
AcDbEntity
  8
0
100
AcDbCircle
 10
136.7237481459336
 20
176.3468545554854
 30
0.0
 40
0.5
  0
CIRCLE
  5
BD
330
20
100
AcDbEntity
  8
0
100
AcDbCircle
 10
136.7237481459336
 20
173.8468545554854
 30
0.0
 40
0.5
  0
CIRCLE
  5
BE
330
20
100
AcDbEntity
  8
0
100
AcDbCircle
 10
136.7237481459336
 20
171.3468545554854
 30
0.0
 40
0.5
  0
LINE
  5
BF
330
20
100
AcDbEntity
  8
0
  6
H4
100
AcDbLine
 10
135.9237481459336
 20
169.8468545554854
 30
0.0
 11
135.9237481459336
 21
165.3524135446369
 31
0.0
  0
LINE
  5
C0
330
20
100
AcDbEntity
  8
0
  6
H4
100
AcDbLine
 10
135.9237481459336
 20
165.3524135446369
 30
0.0
 11
137.5237481459336
 21
165.3524135446369
 31
0.0
  0
LINE
  5
C1
330
20
100
AcDbEntity
  8
0
  6
H4
100
AcDbLine
 10
137.5237481459336
 20
165.3524135446369
 30
0.0
 11
137.5237481459336
 21
169.8468545554854
 31
0.0
  0
LINE
  5
C2
330
20
100
AcDbEntity
  8
0
  6
H4
100
AcDbLine
 10
134.7237481459336
 20
169.8468545554854
 30
0.0
 11
138.7237481459336
 21
169.8468545554854
 31
0.0
  0
LINE
  5
C3
330
20
100
AcDbEntity
  8
0
  6
H4
100
AcDbLine
 10
132.2237481459336
 20
200.3468545554854
 30
0.0
 11
128.2237481459336
 21
200.3468545554854
 31
0.0
  0
LINE
  5
C4
330
20
100
AcDbEntity
  8
0
  6
H4
100
AcDbLine
 10
129.4237481459336
 20
204.8412955663339
 30
0.0
 11
129.4237481459336
 21
200.3468545554854
 31
0.0
  0
LINE
  5
C5
330
20
100
AcDbEntity
  8
0
  6
H4
100
AcDbLine
 10
131.0237481459336
 20
204.8412955663339
 30
0.0
 11
129.4237481459336
 21
204.8412955663339
 31
0.0
  0
LINE
  5
C6
330
20
100
AcDbEntity
  8
0
  6
H4
100
AcDbLine
 10
131.0237481459336
 20
200.3468545554854
 30
0.0
 11
131.0237481459336
 21
204.8412955663339
 31
0.0
  0
CIRCLE
  5
C7
330
20
100
AcDbEntity
  8
0
100
AcDbCircle
 10
130.2237481459336
 20
198.8468545554854
 30
0.0
 40
0.5
  0
CIRCLE
  5
C8
330
20
100
AcDbEntity
  8
0
100
AcDbCircle
 10
130.2237481459336
 20
196.3468545554854
 30
0.0
 40
0.5
  0
CIRCLE
  5
C9
330
20
100
AcDbEntity
  8
0
100
AcDbCircle
 10
130.2237481459336
 20
193.8468545554854
 30
0.0
 40
0.5
  0
LINE
  5
CA
330
20
100
AcDbEntity
  8
0
100
AcDbLine
 10
131.3747993384806
 20
198.8468545554854
 30
0.0
 11
129.0401901179848
 21
198.8468545554854
 31
0.0
  0
LINE
  5
CB
330
20
100
AcDbEntity
  8
0
100
AcDbLine
 10
131.3747993384806
 20
196.3468545554854
 30
0.0
 11
129.0401901179848
 21
196.3468545554854
 31
0.0
  0
LINE
  5
CC
330
20
100
AcDbEntity
  8
0
100
AcDbLine
 10
131.2333078705717
 20
193.8468545554854
 30
0.0
 11
128.9340715170531
 21
193.8468545554854
 31
0.0
  0
LINE
  5
CD
330
20
100
AcDbEntity
  8
0
  6
H4
100
AcDbLine
 10
128.2237481459336
 20
200.3468545554854
 30
0.0
 11
128.2237481459336
 21
192.3468545554854
 31
0.0
  0
LINE
  5
CE
330
20
100
AcDbEntity
  8
0
  6
H4
100
AcDbLine
 10
132.2237481459336
 20
192.3468545554854
 30
0.0
 11
132.2237481459336
 21
200.3468545554854
 31
0.0
  0
LINE
  5
CF
330
20
100
AcDbEntity
  8
0
  6
H4
100
AcDbLine
 10
128.2237481459336
 20
192.3468545554854
 30
0.0
 11
132.2237481459336
 21
192.3468545554854
 31
0.0
  0
LINE
  5
D0
330
20
100
AcDbEntity
  8
0
100
AcDbLine
 10
128.7237481459336
 20
166.3468545554854
 30
0.0
 11
130.7237481459336
 21
166.3468545554854
 31
0.0
  0
LINE
  5
D1
330
20
100
AcDbEntity
  8
0
100
AcDbLine
 10
205.314127991404
 20
156.0227165735535
 30
0.0
 11
205.314127991404
 21
188.2176110374821
 31
0.0
  0
LINE
  5
D2
330
20
100
AcDbEntity
  8
0
100
AcDbLine
 10
136.7237481459336
 20
73.6253235929562
 30
0.0
 11
136.7237481459336
 21
122.3049067398425
 31
0.0
  0
CIRCLE
  5
D3
330
20
100
AcDbEntity
  8
0
100
AcDbCircle
 10
215.9943637372088
 20
166.3468545554854
 30
0.0
 40
2.5
  0
INSERT
  5
D4
330
20
100
AcDbEntity
  8
0
100
AcDbBlockReference
  2
*X2
 10
334.2029122914756
 20
183.54118860086
 30
0.0
  0
LINE
  5
D5
330
20
100
AcDbEntity
  8
0
100
AcDbLine
 10
213.4943637372088
 20
166.3468545554854
 30
0.0
 11
213.4943637372088
 21
163.5968545554854
 31
0.0
  0
LINE
  5
D6
330
20
100
AcDbEntity
  8
0
100
AcDbLine
 10
218.4943637372088
 20
166.3468545554854
 30
0.0
 11
218.4943637372088
 21
163.5968545554854
 31
0.0
  0
LWPOLYLINE
  5
D7
330
20
100
AcDbEntity
  8
0
100
AcDbPolyline
 90
        3
 70
     0
 43
0.0
 10
213.4943637372088
 20
148.2202992803198
 42
-0.4007758919461214
 10
216.6088337026655
 20
148.3870058603564
 42
0.2178873870290422
 10
218.4943637372088
 20
147.8452094752376
 42
-0.6829526288029703
  0
LINE
  5
DC
330
20
100
AcDbEntity
  8
0
100
AcDbLine
 10
188.414127991404
 20
171.3468545554854
 30
0.0
 11
190.014127991404
 21
171.3468545554854
 31
0.0
  0
LINE
  5
DD
330
20
100
AcDbEntity
  8
0
100
AcDbLine
 10
134.174860983411
 20
188.8468545554854
 30
0.0
 11
139.3486594211487
 21
188.8468545554854
 31
0.0
  0
LINE
  5
DE
330
20
100
AcDbEntity
  8
0
100
AcDbLine
 10
134.2980466605
 20
191.3468545554854
 30
0.0
 11
139.1638809055152
 21
191.3468545554854
 31
0.0
  0
LINE
  5
DF
330
20
100
AcDbEntity
  8
0
100
AcDbLine
 10
133.9900824677775
 20
193.8468545554854
 30
0.0
 11
139.4718450982377
 21
193.8468545554854
 31
0.0
  0
LINE
  5
E0
330
20
100
AcDbEntity
  8
0
100
AcDbLine
 10
133.928489629233
 20
196.3468545554854
 30
0.0
 11
139.5334379367821
 21
196.3468545554854
 31
0.0
  0
LINE
  5
E1
330
20
100
AcDbEntity
  8
0
100
AcDbLine
 10
134.174860983411
 20
198.8468545554854
 30
0.0
 11
139.5334379367821
 21
198.8468545554854
 31
0.0
  0
LINE
  5
E2
330
20
100
AcDbEntity
  8
0
100
AcDbLine
 10
133.9900824677775
 20
201.3468545554854
 30
0.0
 11
139.4718450982377
 21
201.3468545554854
 31
0.0
  0
LINE
  5
E3
330
20
100
AcDbEntity
  8
0
100
AcDbLine
 10
134.051675306322
 20
203.8468545554854
 30
0.0
 11
139.5334379367821
 21
203.8468545554854
 31
0.0
  0
LINE
  5
E4
330
20
100
AcDbEntity
  8
T
100
AcDbLine
 10
131.997256684678
 20
210.1468545554854
 30
0.0
 11
141.5751655258311
 21
210.1468545554854
 31
0.0
  0
LINE
  5
E5
330
20
100
AcDbEntity
  8
0
100
AcDbLine
 10
135.4237481459334
 20
211.2458013212097
 30
0.0
 11
135.4237481459334
 21
209.5148591775546
 31
0.0
  0
LINE
  5
E6
330
20
100
AcDbEntity
  8
0
100
AcDbLine
 10
137.9237481459334
 20
211.3221664157828
 30
0.0
 11
137.9237481459334
 21
209.2093987992626
 31
0.0
  0
LINE
  5
E7
330
20
100
AcDbEntity
  8
0
100
AcDbLine
 10
128.7237481459336
 20
214.3468545554854
 30
0.0
 11
133.0237481459336
 21
214.3468545554854
 31
0.0
  0
LINE
  5
E8
330
20
100
AcDbEntity
  8
0
100
AcDbLine
 10
128.7237481459336
 20
209.3468545554854
 30
0.0
 11
128.8237481459336
 21
209.3468545554854
 31
0.0
  0
LINE
  5
E9
330
20
100
AcDbEntity
  8
0
100
AcDbLine
 10
144.6237481459336
 20
209.3468545554854
 30
0.0
 11
144.7237481459336
 21
209.3468545554854
 31
0.0
  0
LINE
  5
EA
330
20
100
AcDbEntity
  8
0
100
AcDbLine
 10
128.8237481459335
 20
201.8468545554854
 30
0.0
 11
128.7237481459336
 21
201.8468545554854
 31
0.0
  0
LINE
  5
EB
330
20
100
AcDbEntity
  8
0
100
AcDbLine
 10
128.8237481459335
 20
190.8468545554854
 30
0.0
 11
128.7237481459336
 21
190.8468545554854
 31
0.0
  0
LINE
  5
EC
330
20
100
AcDbEntity
  8
T
  6
H3
100
AcDbLine
 10
212.3142708485467
 20
197.7468545554854
 30
0.0
 11
198.3142708485467
 21
197.7468545554854
 31
0.0
  0
LINE
  5
ED
330
20
100
AcDbEntity
  8
0
100
AcDbLine
 10
188.414127991404
 20
214.3468545554854
 30
0.0
 11
190.014127991404
 21
214.3468545554854
 31
0.0
  0
LINE
  5
EE
330
20
100
AcDbEntity
  8
0
100
AcDbLine
 10
188.414127991404
 20
209.3468545554854
 30
0.0
 11
190.014127991404
 21
209.3468545554854
 31
0.0
  0
LINE
  5
EF
330
20
100
AcDbEntity
  8
0
100
AcDbLine
 10
137.8237481459335
 20
182.2468545554854
 30
0.0
 11
135.6237481459336
 21
182.2468545554854
 31
0.0
  0
LINE
  5
F0
330
20
100
AcDbEntity
  8
0
100
AcDbLine
 10
135.6237481459336
 20
182.2468545554854
 30
0.0
 11
135.6237481459336
 21
178.2468545554854
 31
0.0
  0
LINE
  5
F1
330
20
100
AcDbEntity
  8
0
100
AcDbLine
 10
135.6237481459336
 20
178.2468545554854
 30
0.0
 11
137.8237481459335
 21
178.2468545554854
 31
0.0
  0
LINE
  5
F2
330
20
100
AcDbEntity
  8
0
100
AcDbLine
 10
137.8237481459335
 20
178.2468545554854
 30
0.0
 11
137.8237481459335
 21
182.2468545554854
 31
0.0
  0
LINE
  5
F3
330
20
100
AcDbEntity
  8
0
100
AcDbLine
 10
205.314127991404
 20
175.1468545554854
 30
0.0
 11
205.314127991404
 21
171.5468545554854
 31
0.0
  0
LINE
  5
F4
330
20
100
AcDbEntity
  8
0
100
AcDbLine
 10
205.314127991404
 20
173.3468545554854
 30
0.0
 11
205.314127991404
 21
171.3468545554854
 31
0.0
  0
LINE
  5
F6
330
20
100
AcDbEntity
  8
T
100
AcDbLine
 10
178.5069033556426
 20
157.8468545554854
 30
0.0
 11
199.1772689856294
 21
157.8468545554854
 31
0.0
  0
LINE
  5
F7
330
20
100
AcDbEntity
  8
T
100
AcDbLine
 10
192.3141279914039
 20
150.535853827745
 30
0.0
 11
192.3141279914039
 21
165.0681219879523
 31
0.0
  0
LINE
  5
F8
330
20
100
AcDbEntity
  8
T
100
AcDbLine
 10
205.314127991404
 20
171.4468545554854
 30
0.0
 11
205.314127991404
 21
161.2468545554854
 31
0.0
  0
LINE
  5
F9
330
20
100
AcDbEntity
  8
0
100
AcDbLine
 10
210.414127991404
 20
166.3468545554854
 30
0.0
 11
200.2141279914039
 21
166.3468545554854
 31
0.0
  0
LINE
  5
FA
330
20
100
AcDbEntity
  8
0
100
AcDbLine
 10
217.3141279914041
 20
198.5468545554854
 30
0.0
 11
217.3141279914041
 21
186.1468545554854
 31
0.0
  0
LINE
  5
FB
330
20
100
AcDbEntity
  8
0
100
AcDbLine
 10
223.514127991404
 20
192.3468545554854
 30
0.0
 11
211.114127991404
 21
192.3468545554854
 31
0.0
  0
LINE
  5
FC
330
20
100
AcDbEntity
  8
0
100
AcDbLine
 10
192.3141279914039
 20
237.5468545554855
 30
0.0
 11
192.3141279914039
 21
225.1468545554854
 31
0.0
  0
LINE
  5
FD
330
20
100
AcDbEntity
  8
T
100
AcDbLine
 10
127.3925331958155
 20
161.4468545554854
 30
0.0
 11
146.2416561372
 21
161.4468545554854
 31
0.0
  0
LINE
  5
FE
330
20
100
AcDbEntity
  8
T
100
AcDbLine
 10
187.0990369689202
 20
157.8468545554854
 30
0.0
 11
198.7132954303503
 21
157.8468545554854
 31
0.0
  0
LINE
  5
FF
330
20
100
AcDbEntity
  8
0
100
AcDbLine
 10
192.3141279914039
 20
163.0833886478491
 30
0.0
 11
192.3141279914039
 21
150.0080180101664
 31
0.0
  0
LINE
  5
100
330
20
100
AcDbEntity
  8
T
100
AcDbLine
 10
136.7237481459336
 20
152.0554269357379
 30
0.0
 11
136.7237481459336
 21
239.8790429838236
 31
0.0
  0
LINE
  5
101
330
20
100
AcDbEntity
  8
T
100
AcDbLine
 10
136.7237481459336
 20
69.16681971595166
 30
0.0
 11
136.7237481459336
 21
119.6662003636562
 31
0.0
  0
ARC
  5
102
330
20
100
AcDbEntity
  8
0
  6
H3
100
AcDbCircle
 10
198.757127991404
 20
196.3468545554853
 30
0.0
 40
1.0
100
AcDbArc
 50
180.0000000000004
 51
270.0
  0
LINE
  5
103
330
20
100
AcDbEntity
  8
0
  6
H3
100
AcDbLine
 10
208.5642708485466
 20
185.2468545554855
 30
0.0
 11
208.5642708485466
 21
183.7468545554855
 31
0.0
  0
LINE
  5
104
330
20
100
AcDbEntity
  8
0
  6
H3
100
AcDbLine
 10
213.0642708485467
 20
185.2468545554855
 30
0.0
 11
213.0642708485467
 21
183.7468545554855
 31
0.0
  0
LINE
  5
105
330
20
100
AcDbEntity
  8
0
100
AcDbLine
 10
204.5642708485467
 20
191.2468545554854
 30
0.0
 11
206.0642708485466
 21
191.2468545554854
 31
0.0
  0
ARC
  5
106
330
20
100
AcDbEntity
  8
0
  6
H3
100
AcDbCircle
 10
206.0642708485467
 20
185.2468545554855
 30
0.0
 40
1.5
100
AcDbArc
 50
180.0
 51
270.0
  0
ARC
  5
107
330
20
100
AcDbEntity
  8
0
  6
H3
100
AcDbCircle
 10
198.757127991404
 20
199.7468545554854
 30
0.0
 40
1.0
100
AcDbArc
 50
90.0
 51
180.0
  0
LINE
  5
108
330
20
100
AcDbEntity
  8
0
  6
H3
100
AcDbLine
 10
204.5642708485467
 20
183.7468545554855
 30
0.0
 11
204.5642708485467
 21
185.2468545554854
 31
0.0
  0
LINE
  5
109
330
20
100
AcDbEntity
  8
0
  6
H3
100
AcDbLine
 10
198.757127991404
 20
195.3468545554853
 30
0.0
 11
204.5642708485467
 21
195.3468545554853
 31
0.0
  0
LINE
  5
10A
330
20
100
AcDbEntity
  8
0
  6
H3
100
AcDbLine
 10
197.757127991404
 20
199.7468545554854
 30
0.0
 11
197.757127991404
 21
196.3468545554853
 31
0.0
  0
LINE
  5
10B
330
20
100
AcDbEntity
  8
0
100
AcDbLine
 10
206.0642708485466
 20
185.2468545554855
 30
0.0
 11
206.0642708485467
 21
194.9468545554854
 31
0.0
  0
LINE
  5
10C
330
20
100
AcDbEntity
  8
0
100
AcDbLine
 10
204.5642708485467
 20
185.2468545554855
 30
0.0
 11
206.0642708485466
 21
185.2468545554855
 31
0.0
  0
LINE
  5
10D
330
20
100
AcDbEntity
  8
0
  6
H3
100
AcDbLine
 10
206.0642708485467
 20
200.7468545554854
 30
0.0
 11
198.757127991404
 21
200.7468545554854
 31
0.0
  0
LINE
  5
10E
330
20
100
AcDbEntity
  8
0
  6
H3
100
AcDbLine
 10
204.5642708485467
 20
183.7468545554855
 30
0.0
 11
213.0642708485467
 21
183.7468545554855
 31
0.0
  0
LINE
  5
10F
330
20
100
AcDbEntity
  8
0
  6
H3
100
AcDbLine
 10
221.1141279914041
 20
197.3468545554855
 30
0.0
 11
221.1141279914041
 21
204.3468545554854
 31
0.0
  0
LINE
  5
110
330
20
100
AcDbEntity
  8
0
  6
H3
100
AcDbLine
 10
221.114127991404
 20
187.3468545554853
 30
0.0
 11
221.1141279914041
 21
197.3468545554855
 31
0.0
  0
LINE
  5
111
330
20
100
AcDbEntity
  8
0
100
AcDbLine
 10
217.3141279914041
 20
198.3468545554854
 30
0.0
 11
217.3141279914041
 21
186.3468545554854
 31
0.0
  0
LINE
  5
112
330
20
100
AcDbEntity
  8
0
100
AcDbLine
 10
223.3141279914041
 20
192.3468545554854
 30
0.0
 11
211.314127991404
 21
192.3468545554854
 31
0.0
  0
LINE
  5
113
330
20
100
AcDbEntity
  8
T
100
AcDbLine
 10
217.3141279914041
 20
198.3468545554854
 30
0.0
 11
217.3141279914041
 21
186.3468545554854
 31
0.0
  0
LINE
  5
114
330
20
100
AcDbEntity
  8
T
100
AcDbLine
 10
223.3141279914041
 20
192.3468545554854
 30
0.0
 11
211.314127991404
 21
192.3468545554854
 31
0.0
  0
LINE
  5
115
330
20
100
AcDbEntity
  8
0
  6
H3
100
AcDbLine
 10
221.114127991404
 20
185.3468545554853
 30
0.0
 11
222.3141279914041
 21
185.3468545554853
 31
0.0
  0
LINE
  5
116
330
20
100
AcDbEntity
  8
0
  6
H3
100
AcDbLine
 10
217.314127991404
 20
187.3468545554854
 30
0.0
 11
222.3141279914041
 21
187.3468545554853
 31
0.0
  0
LINE
  5
117
330
20
100
AcDbEntity
  8
0
  6
H3
100
AcDbLine
 10
217.3141279914041
 20
197.3468545554855
 30
0.0
 11
222.3141279914041
 21
197.3468545554855
 31
0.0
  0
ARC
  5
118
330
20
100
AcDbEntity
  8
0
  6
H3
100
AcDbCircle
 10
217.3141279914041
 20
192.3468545554854
 30
0.0
 40
5.0
100
AcDbArc
 50
89.99999999999984
 51
269.9999999999997
  0
LINE
  5
119
330
20
100
AcDbEntity
  8
0
100
AcDbLine
 10
221.1141279914041
 20
204.3468545554854
 30
0.0
 11
222.3141279914041
 21
204.3468545554854
 31
0.0
  0
LINE
  5
11A
330
20
100
AcDbEntity
  8
0
100
AcDbLine
 10
221.114127991404
 20
199.3468545554854
 30
0.0
 11
222.3141279914041
 21
199.3468545554854
 31
0.0
  0
LINE
  5
11B
330
20
100
AcDbEntity
  8
0
  6
H3
100
AcDbLine
 10
221.1141279914039
 20
178.3468545554854
 30
0.0
 11
221.114127991404
 21
187.3468545554853
 31
0.0
  0
LINE
  5
11C
330
20
100
AcDbEntity
  8
0
100
AcDbLine
 10
222.3141279914039
 20
178.3468545554854
 30
0.0
 11
222.3141279914041
 21
204.3468545554854
 31
0.0
  0
ARC
  5
11D
330
20
100
AcDbEntity
  8
0
100
AcDbCircle
 10
227.314127991404
 20
183.7468545554854
 30
0.0
 40
2.0
100
AcDbArc
 50
0.0
 51
90.0
  0
ARC
  5
11E
330
20
100
AcDbEntity
  8
0
100
AcDbCircle
 10
227.314127991404
 20
181.7468545554854
 30
0.0
 40
2.0
100
AcDbArc
 50
270.0
 51
0.0
  0
LINE
  5
11F
330
20
100
AcDbEntity
  8
0
100
AcDbLine
 10
221.1141279914039
 20
185.7468545554854
 30
0.0
 11
221.114127991404
 21
186.7468545554854
 31
0.0
  0
LINE
  5
120
330
20
100
AcDbEntity
  8
0
100
AcDbLine
 10
222.314127991404
 20
185.7468545554854
 30
0.0
 11
227.314127991404
 21
185.7468545554854
 31
0.0
  0
LINE
  5
121
330
20
100
AcDbEntity
  8
0
100
AcDbLine
 10
222.3141279914039
 20
179.7468545554854
 30
0.0
 11
227.314127991404
 21
179.7468545554854
 31
0.0
  0
LINE
  5
122
330
20
100
AcDbEntity
  8
0
100
AcDbLine
 10
221.1141279914039
 20
178.7468545554854
 30
0.0
 11
221.1141279914039
 21
179.7468545554854
 31
0.0
  0
LINE
  5
123
330
20
100
AcDbEntity
  8
0
100
AcDbLine
 10
229.314127991404
 20
181.7468545554854
 30
0.0
 11
229.314127991404
 21
183.7468545554854
 31
0.0
  0
LINE
  5
124
330
20
100
AcDbEntity
  8
T
100
AcDbLine
 10
200.5398411073613
 20
197.7468545554854
 30
0.0
 11
210.1978514316063
 21
197.7468545554854
 31
0.0
  0
LINE
  5
125
330
20
100
AcDbEntity
  8
0
100
AcDbLine
 10
205.3142708485467
 20
181.2468545554855
 30
0.0
 11
205.3142708485467
 21
203.9968545554854
 31
0.0
  0
LINE
  5
126
330
20
100
AcDbEntity
  8
T
100
AcDbLine
 10
205.3142708485467
 20
192.2468545554854
 30
0.0
 11
205.3142708485467
 21
209.7468545554854
 31
0.0
  0
LINE
  5
127
330
20
100
AcDbEntity
  8
0
100
AcDbLine
 10
222.3141279914039
 20
178.3468545554854
 30
0.0
 11
221.1141279914039
 21
178.3468545554854
 31
0.0
  0
LINE
  5
128
330
20
100
AcDbEntity
  8
0
  6
H3
100
AcDbLine
 10
221.1141279914039
 20
178.3468545554854
 30
0.0
 11
218.2470958363925
 21
176.3393370282568
 31
0.0
  0
LINE
  5
129
330
20
100
AcDbEntity
  8
0
  6
H3
100
AcDbLine
 10
221.8024197150252
 20
177.3638721023386
 30
0.0
 11
218.9353875600138
 21
175.35635457511
 31
0.0
  0
LINE
  5
12A
330
20
100
AcDbEntity
  8
0
  6
H3
100
AcDbLine
 10
218.9353875600138
 20
175.35635457511
 30
0.0
 11
218.2470958363925
 21
176.3393370282568
 31
0.0
  0
ARC
  5
12B
330
20
100
AcDbEntity
  8
0
  6
H3
100
AcDbCircle
 10
221.1141279914039
 20
178.3468545554854
 30
0.0
 40
1.199999999999999
100
AcDbArc
 50
305.0000000000001
 51
359.9999999999997
  0
LINE
  5
12C
330
20
100
AcDbEntity
  8
0
100
AcDbLine
 10
222.314127991404
 20
183.3468545554854
 30
0.0
 11
221.114127991404
 21
183.3468545554854
 31
0.0
  0
LINE
  5
12D
330
20
100
AcDbEntity
  8
T
100
AcDbLine
 10
217.4315653078707
 20
182.7468545554854
 30
0.0
 11
235.5126421421529
 21
182.7468545554854
 31
0.0
  0
LINE
  5
130
330
20
100
AcDbEntity
  8
0
100
AcDbLine
 10
130.7237481459336
 20
159.4468545554854
 30
0.0
 11
142.7237481459336
 21
159.4468545554854
 31
0.0
  0
LINE
  5
131
330
20
100
AcDbEntity
  8
0
100
AcDbLine
 10
142.7237481459336
 20
159.4468545554854
 30
0.0
 11
142.7237481459336
 21
161.4468545554854
 31
0.0
  0
LINE
  5
132
330
20
100
AcDbEntity
  8
0
100
AcDbLine
 10
130.7237481459336
 20
166.3468545554854
 30
0.0
 11
130.7237481459336
 21
164.4468545554854
 31
0.0
  0
LINE
  5
133
330
20
100
AcDbEntity
  8
T
100
AcDbLine
 10
136.7237481459336
 20
170.6931754894509
 30
0.0
 11
136.7237481459336
 21
148.5149918386355
 31
0.0
  0
LINE
  5
134
330
20
100
AcDbEntity
  8
0
100
AcDbLine
 10
142.7237481459336
 20
166.3468545554854
 30
0.0
 11
144.7237481459336
 21
166.3468545554854
 31
0.0
  0
LINE
  5
135
330
20
100
AcDbEntity
  8
0
100
AcDbLine
 10
130.7237481459336
 20
161.4468545554854
 30
0.0
 11
130.7237481459336
 21
159.4468545554854
 31
0.0
  0
LINE
  5
136
330
20
100
AcDbEntity
  8
0
100
AcDbLine
 10
142.7237481459336
 20
164.4468545554854
 30
0.0
 11
142.7237481459336
 21
166.3468545554854
 31
0.0
  0
LINE
  5
137
330
20
100
AcDbEntity
  8
0
100
AcDbLine
 10
186.3141279914038
 20
154.4882413736612
 30
0.0
 11
186.3141279914038
 21
161.0329629899977
 31
0.0
  0
LINE
  5
138
330
20
100
AcDbEntity
  8
T
100
AcDbLine
 10
202.3141279914039
 20
231.3468545554855
 30
0.0
 11
182.3141279914039
 21
231.3468545554855
 31
0.0
  0
LINE
  5
139
330
20
100
AcDbEntity
  8
T
100
AcDbLine
 10
192.3141279914039
 20
241.3468545554855
 30
0.0
 11
192.3141279914039
 21
221.3468545554855
 31
0.0
  0
LINE
  5
13A
330
20
100
AcDbEntity
  8
T
100
AcDbLine
 10
186.3141279914041
 20
226.0740959269806
 30
0.0
 11
186.3141279914042
 21
236.3987703687442
 31
0.0
  0
LINE
  5
13B
330
20
100
AcDbEntity
  8
0
100
AcDbLine
 10
184.3141279914038
 20
151.3468545554854
 30
0.0
 11
186.714127991404
 21
151.3468545554854
 31
0.0
  0
LINE
  5
13C
330
20
100
AcDbEntity
  8
0
100
AcDbLine
 10
222.3141279914039
 20
167.8468545554854
 30
0.0
 11
222.3141279914039
 21
177.7468545554854
 31
0.0
  0
LINE
  5
13D
330
20
100
AcDbEntity
  8
0
100
AcDbLine
 10
182.3141279914038
 20
153.3468545554854
 30
0.0
 11
182.3141279914042
 21
239.3468545554855
 31
0.0
  0
LINE
  5
13E
330
20
100
AcDbEntity
  8
0
100
AcDbLine
 10
184.3141279914042
 20
241.3468545554855
 30
0.0
 11
191.3141279914042
 21
241.3468545554855
 31
0.0
  0
LINE
  5
13F
330
20
100
AcDbEntity
  8
0
  6
H4
100
AcDbLine
 10
197.3141279914039
 20
152.5468545554854
 30
0.0
 11
197.3141279914039
 21
218.8468545554854
 31
0.0
  0
ARC
  5
140
330
20
100
AcDbEntity
  8
0
100
AcDbCircle
 10
184.3141279914038
 20
153.3468545554854
 30
0.0
 40
2.0
100
AcDbArc
 50
179.9999999999997
 51
270.0
  0
ARC
  5
141
330
20
100
AcDbEntity
  8
0
100
AcDbCircle
 10
184.3141279914042
 20
239.3468545554854
 30
0.0
 40
2.0
100
AcDbArc
 50
90.0
 51
179.9999999999997
  0
LINE
  5
142
330
20
100
AcDbEntity
  8
0
100
AcDbLine
 10
144.7237481459336
 20
151.3468545554854
 30
0.0
 11
128.7237481459336
 21
151.3468545554854
 31
0.0
  0
LINE
  5
143
330
20
100
AcDbEntity
  8
0
  6
H3
100
AcDbLine
 10
197.3141279914039
 20
236.3468545554854
 30
0.0
 11
191.8141279914039
 21
236.3468545554855
 31
0.0
  0
LINE
  5
144
330
20
100
AcDbEntity
  8
0
100
AcDbLine
 10
144.7237481459336
 20
236.3468545554854
 30
0.0
 11
138.1761949471014
 21
236.3468545554854
 31
0.0
  0
LINE
  5
145
330
20
100
AcDbEntity
  8
0
  6
H4
100
AcDbLine
 10
196.1141279914039
 20
152.5468545554854
 30
0.0
 11
196.1141279914039
 21
190.8468545554854
 31
0.0
  0
LINE
  5
146
330
20
100
AcDbEntity
  8
0
100
AcDbLine
 10
144.7237481459336
 20
152.5468545554854
 30
0.0
 11
128.7237481459336
 21
152.5468545554854
 31
0.0
  0
LINE
  5
147
330
20
100
AcDbEntity
  8
0
  6
H3
100
AcDbLine
 10
191.8141279914039
 20
226.3468545554854
 30
0.0
 11
197.3141279914039
 21
226.3468545554854
 31
0.0
  0
CIRCLE
  5
148
330
20
100
AcDbEntity
  8
0
100
AcDbCircle
 10
192.3141279914039
 20
231.3468545554855
 30
0.0
 40
3.1
  0
CIRCLE
  5
149
330
20
100
AcDbEntity
  8
T
100
AcDbCircle
 10
217.314127991404
 20
192.3468545554854
 30
0.0
 40
3.1
  0
LINE
  5
14A
330
20
100
AcDbEntity
  8
0
100
AcDbLine
 10
129.9237481459335
 20
164.8468545554854
 30
0.0
 11
129.9237481459335
 21
152.5468545554854
 31
0.0
  0
LINE
  5
14B
330
20
100
AcDbEntity
  8
0
100
AcDbLine
 10
143.5237481459336
 20
164.8468545554854
 30
0.0
 11
143.5237481459336
 21
152.5468545554854
 31
0.0
  0
LINE
  5
14C
330
20
100
AcDbEntity
  8
0
100
AcDbLine
 10
196.1141279914039
 20
224.3468545554854
 30
0.0
 11
197.3141279914039
 21
224.3468545554854
 31
0.0
  0
LINE
  5
14D
330
20
100
AcDbEntity
  8
0
100
AcDbLine
 10
196.1141279914039
 20
219.3468545554854
 30
0.0
 11
197.3141279914039
 21
219.3468545554854
 31
0.0
  0
LINE
  5
14E
330
20
100
AcDbEntity
  8
0
100
AcDbLine
 10
211.289787193852
 20
169.2014179602853
 30
0.0
 11
210.3657911933274
 21
152.2922911506856
 31
0.0
  0
ARC
  5
14F
330
20
100
AcDbEntity
  8
0
100
AcDbCircle
 10
209.3672808854905
 20
152.3468545554854
 30
0.0
 40
1.0
100
AcDbArc
 50
270.0
 51
356.8721938787139
  0
LINE
  5
150
330
20
100
AcDbEntity
  8
0
100
AcDbLine
 10
206.8141279914042
 20
239.3468545554854
 30
0.0
 11
206.8141279914042
 21
240.8468545554854
 31
0.0
  0
LINE
  5
151
330
20
100
AcDbEntity
  8
0
100
AcDbLine
 10
196.8141279914042
 20
239.3468545554854
 30
0.0
 11
196.8141279914043
 21
240.8468545554855
 31
0.0
  0
LINE
  5
152
330
20
100
AcDbEntity
  8
0
100
AcDbLine
 10
191.8141279914042
 20
239.3468545554854
 30
0.0
 11
191.8141279914042
 21
240.8468545554854
 31
0.0
  0
LINE
  5
153
330
20
100
AcDbEntity
  8
0
100
AcDbLine
 10
211.8141279914042
 20
239.3468545554854
 30
0.0
 11
211.8141279914042
 21
240.8468545554854
 31
0.0
  0
LINE
  5
154
330
20
100
AcDbEntity
  8
0
100
AcDbLine
 10
192.3141279914042
 20
238.8468545554854
 30
0.0
 11
196.3141279914042
 21
238.8468545554854
 31
0.0
  0
LINE
  5
155
330
20
100
AcDbEntity
  8
0
100
AcDbLine
 10
212.3141279914043
 20
241.3468545554855
 30
0.0
 11
220.3141279914042
 21
241.3468545554855
 31
0.0
  0
LINE
  5
156
330
20
100
AcDbEntity
  8
0
100
AcDbLine
 10
207.3141279914042
 20
238.8468545554854
 30
0.0
 11
211.3141279914042
 21
238.8468545554854
 31
0.0
  0
LINE
  5
157
330
20
100
AcDbEntity
  8
0
100
AcDbLine
 10
197.3141279914043
 20
241.3468545554855
 30
0.0
 11
206.3141279914042
 21
241.3468545554855
 31
0.0
  0
ARC
  5
158
330
20
100
AcDbEntity
  8
0
100
AcDbCircle
 10
191.3141279914042
 20
240.8468545554854
 30
0.0
 40
0.5
100
AcDbArc
 50
0.0
 51
90.0
  0
ARC
  5
159
330
20
100
AcDbEntity
  8
0
100
AcDbCircle
 10
197.3141279914043
 20
240.8468545554854
 30
0.0
 40
0.5
100
AcDbArc
 50
89.99999999999996
 51
179.9999999999993
  0
ARC
  5
15A
330
20
100
AcDbEntity
  8
0
100
AcDbCircle
 10
206.3141279914042
 20
240.8468545554854
 30
0.0
 40
0.5
100
AcDbArc
 50
0.0
 51
89.99999999999994
  0
ARC
  5
15B
330
20
100
AcDbEntity
  8
0
100
AcDbCircle
 10
212.3141279914043
 20
240.8468545554854
 30
0.0
 40
0.5
100
AcDbArc
 50
89.99999999999996
 51
179.9999999999997
  0
ARC
  5
15C
330
20
100
AcDbEntity
  8
0
100
AcDbCircle
 10
211.3141279914042
 20
239.3468545554854
 30
0.0
 40
0.5
100
AcDbArc
 50
270.0
 51
359.9999999999996
  0
ARC
  5
15D
330
20
100
AcDbEntity
  8
0
100
AcDbCircle
 10
207.3141279914042
 20
239.3468545554854
 30
0.0
 40
0.5
100
AcDbArc
 50
180.0000000000004
 51
270.0
  0
ARC
  5
15E
330
20
100
AcDbEntity
  8
0
100
AcDbCircle
 10
196.3141279914042
 20
239.3468545554854
 30
0.0
 40
0.5
100
AcDbArc
 50
270.0
 51
359.9999999999992
  0
ARC
  5
15F
330
20
100
AcDbEntity
  8
0
100
AcDbCircle
 10
192.3141279914042
 20
239.3468545554854
 30
0.0
 40
0.5
100
AcDbArc
 50
180.0
 51
270.0
  0
LINE
  5
160
330
20
100
AcDbEntity
  8
0
100
AcDbLine
 10
144.7237481459336
 20
226.3468545554854
 30
0.0
 11
143.5237481459336
 21
226.3468545554854
 31
0.0
  0
LINE
  5
161
330
20
100
AcDbEntity
  8
0
100
AcDbLine
 10
129.9237481459336
 20
236.3468545554854
 30
0.0
 11
129.9237481459336
 21
224.3468545554854
 31
0.0
  0
LINE
  5
162
330
20
100
AcDbEntity
  8
0
100
AcDbLine
 10
143.5237481459336
 20
236.3468545554854
 30
0.0
 11
143.5237481459336
 21
224.3468545554854
 31
0.0
  0
LINE
  5
163
330
20
100
AcDbEntity
  8
0
100
AcDbLine
 10
129.9237481459336
 20
226.3468545554854
 30
0.0
 11
128.7237481459336
 21
226.3468545554854
 31
0.0
  0
LINE
  5
164
330
20
100
AcDbEntity
  8
0
100
AcDbLine
 10
187.2141279914039
 20
152.5968545554854
 30
0.0
 11
187.2141279914039
 21
151.8468545554854
 31
0.0
  0
LINE
  5
165
330
20
100
AcDbEntity
  8
0
100
AcDbLine
 10
192.4141279914039
 20
151.8468545554854
 30
0.0
 11
192.4141279914039
 21
152.5968545554854
 31
0.0
  0
LINE
  5
166
330
20
100
AcDbEntity
  8
0
100
AcDbLine
 10
192.4141279914039
 20
152.5968545554854
 30
0.0
 11
187.2141279914039
 21
152.5968545554854
 31
0.0
  0
LINE
  5
167
330
20
100
AcDbEntity
  8
0
100
AcDbLine
 10
188.3641279914041
 20
171.4468545554854
 30
0.0
 11
188.3641279914041
 21
166.2468545554854
 31
0.0
  0
LINE
  5
168
330
20
100
AcDbEntity
  8
0
100
AcDbLine
 10
188.3641279914041
 20
166.2468545554854
 30
0.0
 11
190.064127991404
 21
166.2468545554854
 31
0.0
  0
LINE
  5
169
330
20
100
AcDbEntity
  8
0
100
AcDbLine
 10
190.064127991404
 20
166.2468545554854
 30
0.0
 11
190.064127991404
 21
171.4468545554854
 31
0.0
  0
LINE
  5
16A
330
20
100
AcDbEntity
  8
0
100
AcDbLine
 10
190.064127991404
 20
171.4468545554854
 30
0.0
 11
188.3641279914041
 21
171.4468545554854
 31
0.0
  0
LINE
  5
16B
330
20
100
AcDbEntity
  8
0
100
AcDbLine
 10
188.3641279914041
 20
214.9468545554855
 30
0.0
 11
188.3641279914041
 21
208.7468545554855
 31
0.0
  0
LINE
  5
16C
330
20
100
AcDbEntity
  8
0
100
AcDbLine
 10
188.3641279914041
 20
208.7468545554855
 30
0.0
 11
190.064127991404
 21
208.7468545554855
 31
0.0
  0
LINE
  5
16D
330
20
100
AcDbEntity
  8
0
100
AcDbLine
 10
190.064127991404
 20
208.7468545554855
 30
0.0
 11
190.064127991404
 21
214.9468545554855
 31
0.0
  0
LINE
  5
16E
330
20
100
AcDbEntity
  8
0
100
AcDbLine
 10
190.064127991404
 20
214.9468545554855
 30
0.0
 11
188.3641279914041
 21
214.9468545554855
 31
0.0
  0
LINE
  5
16F
330
20
100
AcDbEntity
  8
0
100
AcDbLine
 10
196.0641279914039
 20
224.8468545554854
 30
0.0
 11
196.0641279914039
 21
218.8468545554854
 31
0.0
  0
LINE
  5
170
330
20
100
AcDbEntity
  8
0
100
AcDbLine
 10
196.0641279914039
 20
218.8468545554854
 30
0.0
 11
197.3641279914039
 21
218.8468545554854
 31
0.0
  0
LINE
  5
171
330
20
100
AcDbEntity
  8
0
100
AcDbLine
 10
197.3641279914039
 20
218.8468545554854
 30
0.0
 11
197.3641279914039
 21
224.8468545554854
 31
0.0
  0
LINE
  5
172
330
20
100
AcDbEntity
  8
0
100
AcDbLine
 10
197.3641279914039
 20
224.8468545554854
 30
0.0
 11
196.0641279914039
 21
224.8468545554854
 31
0.0
  0
LINE
  5
173
330
20
100
AcDbEntity
  8
0
100
AcDbLine
 10
204.4642708485467
 20
194.9468545554854
 30
0.0
 11
204.4642708485467
 21
185.2468545554854
 31
0.0
  0
LINE
  5
174
330
20
100
AcDbEntity
  8
0
100
AcDbLine
 10
204.4642708485467
 20
185.2468545554854
 30
0.0
 11
206.1642708485467
 21
185.2468545554854
 31
0.0
  0
LINE
  5
175
330
20
100
AcDbEntity
  8
0
100
AcDbLine
 10
206.1642708485467
 20
185.2468545554854
 30
0.0
 11
206.1642708485467
 21
194.9468545554854
 31
0.0
  0
LINE
  5
176
330
20
100
AcDbEntity
  8
0
100
AcDbLine
 10
206.1642708485467
 20
194.9468545554854
 30
0.0
 11
204.4642708485467
 21
194.9468545554854
 31
0.0
  0
LINE
  5
177
330
20
100
AcDbEntity
  8
0
100
AcDbLine
 10
221.0641279914039
 20
183.4468545554854
 30
0.0
 11
221.0641279914039
 21
178.2468545554855
 31
0.0
  0
LINE
  5
178
330
20
100
AcDbEntity
  8
0
100
AcDbLine
 10
221.0641279914039
 20
178.2468545554855
 30
0.0
 11
221.8141279914039
 21
178.2468545554855
 31
0.0
  0
LINE
  5
179
330
20
100
AcDbEntity
  8
0
100
AcDbLine
 10
221.814127991404
 20
183.4468545554854
 30
0.0
 11
221.0641279914039
 21
183.4468545554854
 31
0.0
  0
LINE
  5
17A
330
20
100
AcDbEntity
  8
0
100
AcDbLine
 10
221.0641279914041
 20
204.8468545554854
 30
0.0
 11
221.0641279914041
 21
198.8468545554854
 31
0.0
  0
LINE
  5
17B
330
20
100
AcDbEntity
  8
0
100
AcDbLine
 10
221.0641279914041
 20
198.8468545554854
 30
0.0
 11
221.814127991404
 21
198.8468545554854
 31
0.0
  0
LINE
  5
17C
330
20
100
AcDbEntity
  8
0
100
AcDbLine
 10
221.814127991404
 20
204.8468545554854
 30
0.0
 11
221.0641279914041
 21
204.8468545554854
 31
0.0
  0
LINE
  5
17D
330
20
100
AcDbEntity
  8
0
100
AcDbLine
 10
136.0237481459335
 20
181.8468545554854
 30
0.0
 11
136.0237481459335
 21
178.6468545554854
 31
0.0
  0
LINE
  5
17E
330
20
100
AcDbEntity
  8
0
100
AcDbLine
 10
137.4237481459336
 20
178.6468545554854
 30
0.0
 11
137.4237481459336
 21
181.8468545554854
 31
0.0
  0
LINE
  5
17F
330
20
100
AcDbEntity
  8
0
100
AcDbLine
 10
144.7237481459336
 20
224.3468545554854
 30
0.0
 11
143.5237481459336
 21
224.3468545554854
 31
0.0
  0
LINE
  5
180
330
20
100
AcDbEntity
  8
0
100
AcDbLine
 10
129.9237481459336
 20
224.3468545554854
 30
0.0
 11
128.7237481459336
 21
224.3468545554854
 31
0.0
  0
LINE
  5
181
330
20
100
AcDbEntity
  8
0
100
AcDbLine
 10
128.7237481459336
 20
164.8468545554854
 30
0.0
 11
129.9237481459335
 21
164.8468545554854
 31
0.0
  0
LINE
  5
182
330
20
100
AcDbEntity
  8
0
  6
H3
100
AcDbLine
 10
184.3141279914039
 20
152.5468545554854
 30
0.0
 11
196.1141279914039
 21
152.5468545554854
 31
0.0
  0
LINE
  5
183
330
20
100
AcDbEntity
  8
0
100
AcDbLine
 10
187.064127991404
 20
201.3468545554854
 30
0.0
 11
187.0641279914039
 21
191.3468545554854
 31
0.0
  0
LINE
  5
184
330
20
100
AcDbEntity
  8
0
100
AcDbLine
 10
187.5641279914039
 20
190.8468545554854
 30
0.0
 11
196.5641279914039
 21
190.8468545554854
 31
0.0
  0
LINE
  5
185
330
20
100
AcDbEntity
  8
0
100
AcDbLine
 10
197.0641279914039
 20
191.3468545554854
 30
0.0
 11
197.064127991404
 21
201.3468545554854
 31
0.0
  0
LINE
  5
186
330
20
100
AcDbEntity
  8
0
100
AcDbLine
 10
196.564127991404
 20
201.8468545554854
 30
0.0
 11
187.564127991404
 21
201.8468545554854
 31
0.0
  0
ARC
  5
187
330
20
100
AcDbEntity
  8
0
100
AcDbCircle
 10
187.5641279914039
 20
191.3468545554854
 30
0.0
 40
0.5
100
AcDbArc
 50
180.0
 51
270.0
  0
ARC
  5
188
330
20
100
AcDbEntity
  8
0
100
AcDbCircle
 10
196.5641279914039
 20
191.3468545554854
 30
0.0
 40
0.5
100
AcDbArc
 50
270.0
 51
0.0
  0
ARC
  5
189
330
20
100
AcDbEntity
  8
0
100
AcDbCircle
 10
196.564127991404
 20
201.3468545554854
 30
0.0
 40
0.5
100
AcDbArc
 50
359.9999999999998
 51
0.0
  0
ARC
  5
18A
330
20
100
AcDbEntity
  8
0
100
AcDbCircle
 10
187.564127991404
 20
201.3468545554854
 30
0.0
 40
0.5
100
AcDbArc
 50
90.0
 51
179.9999999999998
  0
LINE
  5
18B
330
20
100
AcDbEntity
  8
0
100
AcDbLine
 10
196.1141279914039
 20
179.3468545554854
 30
0.0
 11
197.3141279914039
 21
179.3468545554854
 31
0.0
  0
LINE
  5
18C
330
20
100
AcDbEntity
  8
0
100
AcDbLine
 10
196.1141279914039
 20
174.3468545554854
 30
0.0
 11
197.3141279914039
 21
174.3468545554854
 31
0.0
  0
LINE
  5
18D
330
20
100
AcDbEntity
  8
0
  6
H3
100
AcDbLine
 10
196.1141279914039
 20
226.3468545554854
 30
0.0
 11
196.1141279914039
 21
236.3468545554854
 31
0.0
  0
LINE
  5
18E
330
20
100
AcDbEntity
  8
0
  6
H3
100
AcDbLine
 10
191.8141279914039
 20
152.8468545554854
 30
0.0
 11
197.3141279914039
 21
152.8468545554854
 31
0.0
  0
LINE
  5
18F
330
20
100
AcDbEntity
  8
0
  6
H3
100
AcDbLine
 10
191.8141279914039
 20
162.8468545554854
 30
0.0
 11
197.3141279914039
 21
162.8468545554854
 31
0.0
  0
LINE
  5
190
330
20
100
AcDbEntity
  8
0
  6
H3
100
AcDbLine
 10
195.3141279914039
 20
151.3468545554854
 30
0.0
 11
195.3141279914039
 21
152.5468545554854
 31
0.0
  0
LINE
  5
191
330
20
100
AcDbEntity
  8
0
100
AcDbLine
 10
144.7237481459336
 20
162.8468545554853
 30
0.0
 11
143.5237481459336
 21
162.8468545554853
 31
0.0
  0
LINE
  5
192
330
20
100
AcDbEntity
  8
0
100
AcDbLine
 10
144.7237481459336
 20
152.8468545554854
 30
0.0
 11
143.5237481459336
 21
152.8468545554854
 31
0.0
  0
LINE
  5
193
330
20
100
AcDbEntity
  8
0
100
AcDbLine
 10
128.7237481459336
 20
152.5468545554854
 30
0.0
 11
128.7237481459336
 21
151.3468545554854
 31
0.0
  0
LINE
  5
194
330
20
100
AcDbEntity
  8
0
100
AcDbLine
 10
129.9237481459335
 20
152.8468545554854
 30
0.0
 11
128.7237481459336
 21
152.8468545554854
 31
0.0
  0
LINE
  5
195
330
20
100
AcDbEntity
  8
0
100
AcDbLine
 10
144.7237481459336
 20
152.5468545554854
 30
0.0
 11
144.7237481459336
 21
151.3468545554854
 31
0.0
  0
LINE
  5
196
330
20
100
AcDbEntity
  8
0
100
AcDbLine
 10
129.9237481459335
 20
162.8468545554854
 30
0.0
 11
128.7237481459336
 21
162.8468545554854
 31
0.0
  0
LINE
  5
197
330
20
100
AcDbEntity
  8
0
100
AcDbLine
 10
144.7237481459336
 20
164.8468545554854
 30
0.0
 11
143.5237481459336
 21
164.8468545554854
 31
0.0
  0
CIRCLE
  5
198
330
20
100
AcDbEntity
  8
0
100
AcDbCircle
 10
192.3141279914039
 20
157.8468545554854
 30
0.0
 40
3.1
  0
LINE
  5
199
330
20
100
AcDbEntity
  8
0
100
AcDbLine
 10
136.0237481459335
 20
178.6468545554854
 30
0.0
 11
137.4237481459336
 21
178.6468545554854
 31
0.0
  0
LINE
  5
19A
330
20
100
AcDbEntity
  8
0
100
AcDbLine
 10
137.4237481459336
 20
181.8468545554854
 30
0.0
 11
136.0237481459335
 21
181.8468545554854
 31
0.0
  0
ARC
  5
19B
330
20
100
AcDbEntity
  8
0
100
AcDbCircle
 10
220.3141279914042
 20
239.3468545554854
 30
0.0
 40
2.0
100
AcDbArc
 50
359.9999999999998
 51
89.99999999999992
  0
LINE
  5
19C
330
20
100
AcDbEntity
  8
0
100
AcDbLine
 10
192.9141279914039
 20
151.3468545554854
 30
0.0
 11
209.3672808854905
 21
151.3468545554854
 31
0.0
  0
ARC
  5
19D
330
20
100
AcDbEntity
  8
0
100
AcDbCircle
 10
192.9141279914039
 20
151.8468545554854
 30
0.0
 40
0.5
100
AcDbArc
 50
180.0
 51
270.0
  0
ARC
  5
19E
330
20
100
AcDbEntity
  8
0
100
AcDbCircle
 10
186.714127991404
 20
151.8468545554854
 30
0.0
 40
0.5
100
AcDbArc
 50
270.0
 51
0.0
  0
LINE
  5
19F
330
20
100
AcDbEntity
  8
0
100
AcDbLine
 10
222.3141279914041
 20
205.3468545554854
 30
0.0
 11
222.3141279914042
 21
239.3468545554854
 31
0.0
  0
LINE
  5
1A0
330
20
100
AcDbEntity
  8
0
100
AcDbLine
 10
222.3141279914039
 20
183.9468545554854
 30
0.0
 11
222.314127991404
 21
198.3468545554854
 31
0.0
  0
ARC
  5
1A1
330
20
100
AcDbEntity
  8
0
100
AcDbCircle
 10
221.8141279914039
 20
177.7468545554854
 30
0.0
 40
0.5
100
AcDbArc
 50
359.9999999999999
 51
90.0
  0
ARC
  5
1A2
330
20
100
AcDbEntity
  8
0
100
AcDbCircle
 10
221.814127991404
 20
183.9468545554854
 30
0.0
 40
0.5
100
AcDbArc
 50
270.0
 51
359.9999999999997
  0
ARC
  5
1A3
330
20
100
AcDbEntity
  8
0
100
AcDbCircle
 10
221.814127991404
 20
198.3468545554854
 30
0.0
 40
0.5
100
AcDbArc
 50
359.9999999999997
 51
90.0
  0
ARC
  5
1A4
330
20
100
AcDbEntity
  8
0
100
AcDbCircle
 10
221.814127991404
 20
205.3468545554854
 30
0.0
 40
0.5
100
AcDbArc
 50
270.0
 51
359.9999999999998
  0
LINE
  5
1A5
330
20
100
AcDbEntity
  8
0
100
AcDbLine
 10
221.4480492242005
 20
167.3468545554854
 30
0.0
 11
221.8141279914039
 21
167.3468545554854
 31
0.0
  0
ARC
  5
1A6
330
20
100
AcDbEntity
  8
0
100
AcDbCircle
 10
221.8141279914039
 20
167.8468545554854
 30
0.0
 40
0.5
100
AcDbArc
 50
270.0
 51
359.9999999999998
  0
CIRCLE
  5
1A7
330
20
100
AcDbEntity
  8
0
100
AcDbCircle
 10
186.3141279914042
 20
231.3468545554855
 30
0.0
 40
1.75
  0
CIRCLE
  5
1A8
330
20
100
AcDbEntity
  8
0
100
AcDbCircle
 10
186.3141279914039
 20
157.8468545554854
 30
0.0
 40
1.75
  0
CIRCLE
  5
1A9
330
20
100
AcDbEntity
  8
0
100
AcDbCircle
 10
186.3141279914039
 20
157.8468545554854
 30
0.0
 40
2.0
  0
LINE
  5
1AA
330
20
100
AcDbEntity
  8
0
  6
H3
100
AcDbLine
 10
192.3141279914039
 20
151.3468545554854
 30
0.0
 11
192.3141279914039
 21
152.5468545554854
 31
0.0
  0
LINE
  5
1AB
330
20
100
AcDbEntity
  8
0
  6
H3
100
AcDbLine
 10
187.3141279914039
 20
151.3468545554854
 30
0.0
 11
187.3141279914039
 21
152.5468545554854
 31
0.0
  0
LINE
  5
1AC
330
20
100
AcDbEntity
  8
0
  6
H3
100
AcDbLine
 10
184.3141279914039
 20
151.3468545554854
 30
0.0
 11
184.3141279914039
 21
152.5468545554854
 31
0.0
  0
ARC
  5
1AD
330
20
100
AcDbEntity
  8
0
  6
H3
100
AcDbCircle
 10
196.1141279914039
 20
152.5468545554854
 30
0.0
 40
1.199999999999999
100
AcDbArc
 50
270.0
 51
0.0
  0
LINE
  5
1AE
330
20
100
AcDbEntity
  8
0
  6
H3
100
AcDbLine
 10
188.8141279914039
 20
159.8468545554854
 30
0.0
 11
188.8141279914039
 21
155.8468545554854
 31
0.0
  0
ARC
  5
1AF
330
20
100
AcDbEntity
  8
0
  6
H3
100
AcDbCircle
 10
191.8141279914039
 20
159.8468545554854
 30
0.0
 40
3.0
100
AcDbArc
 50
90.0
 51
180.0
  0
ARC
  5
1B0
330
20
100
AcDbEntity
  8
0
  6
H3
100
AcDbCircle
 10
191.8141279914039
 20
155.8468545554854
 30
0.0
 40
3.0
100
AcDbArc
 50
180.0
 51
270.0
  0
LINE
  5
1B1
330
20
100
AcDbEntity
  8
0
  6
H3
100
AcDbLine
 10
188.8141279914039
 20
233.3468545554855
 30
0.0
 11
188.8141279914039
 21
229.3468545554854
 31
0.0
  0
ARC
  5
1B2
330
20
100
AcDbEntity
  8
0
  6
H3
100
AcDbCircle
 10
191.8141279914039
 20
233.3468545554855
 30
0.0
 40
3.0
100
AcDbArc
 50
89.99999999999968
 51
180.0
  0
ARC
  5
1B3
330
20
100
AcDbEntity
  8
0
  6
H3
100
AcDbCircle
 10
191.8141279914039
 20
229.3468545554854
 30
0.0
 40
3.0
100
AcDbArc
 50
180.0
 51
270.0
  0
CIRCLE
  5
1B4
330
20
100
AcDbEntity
  8
0
100
AcDbCircle
 10
132.7237481459336
 20
220.2468545554854
 30
0.0
 40
1.35
  0
LINE
  5
1B5
330
20
100
AcDbEntity
  8
0
100
AcDbLine
 10
196.0641279914039
 20
179.4468545554854
 30
0.0
 11
196.0641279914039
 21
174.2468545554855
 31
0.0
  0
LINE
  5
1B6
330
20
100
AcDbEntity
  8
0
100
AcDbLine
 10
196.0641279914039
 20
174.2468545554855
 30
0.0
 11
197.3641279914039
 21
174.2468545554855
 31
0.0
  0
LINE
  5
1B7
330
20
100
AcDbEntity
  8
0
100
AcDbLine
 10
197.3641279914039
 20
174.2468545554855
 30
0.0
 11
197.3641279914039
 21
179.4468545554854
 31
0.0
  0
LINE
  5
1B8
330
20
100
AcDbEntity
  8
0
100
AcDbLine
 10
197.3641279914039
 20
179.4468545554854
 30
0.0
 11
196.0641279914039
 21
179.4468545554854
 31
0.0
  0
ARC
  5
1B9
330
20
100
AcDbEntity
  8
0
  6
H3
100
AcDbCircle
 10
202.8141279914041
 20
181.1370540132346
 30
0.0
 40
5.0
100
AcDbArc
 50
99.59406822685977
 51
101.5369590328118
  0
ARC
  5
1BA
330
20
100
AcDbEntity
  8
0
  6
H3
100
AcDbCircle
 10
204.0141279914039
 20
185.80347296671
 30
0.0
 40
0.5
100
AcDbArc
 50
0.0
 51
93.82255372927453
  0
LINE
  5
1BB
330
20
100
AcDbEntity
  8
0
  6
H3
100
AcDbLine
 10
204.5141279914039
 20
182.1468545554854
 30
0.0
 11
204.5141279914039
 21
185.80347296671
 31
0.0
  0
LINE
  5
1BC
330
20
100
AcDbEntity
  8
0
  6
H3
100
AcDbLine
 10
218.5753189255588
 20
173.5850045268448
 30
0.0
 11
212.1563140778814
 21
174.755690577379
 31
0.0
  0
LINE
  5
1BD
330
20
100
AcDbEntity
  8
0
100
AcDbLine
 10
219.814127991404
 20
162.5968545554854
 30
0.0
 11
219.814127991404
 21
161.7984355515222
 31
0.0
  0
ARC
  5
1BE
330
20
100
AcDbEntity
  8
0
  6
H3
100
AcDbCircle
 10
205.314127991404
 20
166.3468545554855
 30
0.0
 40
15.5
100
AcDbArc
 50
20.52657249078064
 51
25.55239855750448
  0
LINE
  5
1BF
330
20
100
AcDbEntity
  8
0
  6
H3
100
AcDbLine
 10
219.3935182097704
 20
170.5651345415582
 30
0.0
 11
217.8030106183188
 21
169.6468545554854
 31
0.0
  0
ARC
  5
1C0
330
20
100
AcDbEntity
  8
0
  6
H3
100
AcDbCircle
 10
218.8935182097704
 20
171.4311599453426
 30
0.0
 40
1.0
100
AcDbArc
 50
299.9999999999998
 51
20.52657249078042
  0
ARC
  5
1C1
330
20
100
AcDbEntity
  8
0
  6
H3
100
AcDbCircle
 10
218.3959002868338
 20
172.6012317115678
 30
0.0
 40
1.0
100
AcDbArc
 50
25.55239855750462
 51
79.66410100469822
  0
LINE
  5
1C2
330
20
100
AcDbEntity
  8
0
  6
H3
100
AcDbLine
 10
197.8141279914041
 20
166.3468545554854
 30
0.0
 11
197.8141279914041
 21
176.3468545554854
 31
0.0
  0
ARC
  5
1C3
330
20
100
AcDbEntity
  8
0
100
AcDbCircle
 10
216.8141279914039
 20
161.7984355515222
 30
0.0
 40
3.0
100
AcDbArc
 50
280.5718856578963
 51
359.9999999999994
  0
LINE
  5
1C4
330
20
100
AcDbEntity
  8
0
100
AcDbLine
 10
218.8141279914039
 20
163.5968545554854
 30
0.0
 11
212.8141279914039
 21
163.5968545554854
 31
0.0
  0
LINE
  5
1C5
330
20
100
AcDbEntity
  8
0
100
AcDbLine
 10
216.5824334817249
 20
169.0968545554854
 30
0.0
 11
212.8141279914039
 21
169.0968545554854
 31
0.0
  0
ARC
  5
1C6
330
20
100
AcDbEntity
  8
0
100
AcDbCircle
 10
213.0641279914038
 20
166.3468545554854
 30
0.0
 40
2.75
100
AcDbArc
 50
90.0
 51
131.3707858544572
  0
ARC
  5
1C7
330
20
100
AcDbEntity
  8
0
100
AcDbCircle
 10
218.8141279914039
 20
162.5968545554854
 30
0.0
 40
1.0
100
AcDbArc
 50
359.9999999999996
 51
90.0
  0
LINE
  5
1C8
330
20
100
AcDbEntity
  8
0
  6
H3
100
AcDbLine
 10
204.5141279914039
 20
182.1468545554854
 30
0.0
 11
211.62862593542
 21
175.0323566114694
 31
0.0
  0
ARC
  5
1C9
330
20
100
AcDbEntity
  8
0
100
AcDbCircle
 10
216.5824334817249
 20
170.0968545554854
 30
0.0
 40
1.0
100
AcDbArc
 50
270.0
 51
299.9999999999996
  0
ARC
  5
1CA
330
20
100
AcDbEntity
  8
0
  6
H3
100
AcDbCircle
 10
212.3357327166065
 20
175.739463392656
 30
0.0
 40
1.0
100
AcDbArc
 50
225.0000000000002
 51
259.6641010046982
  0
LINE
  5
1CB
330
20
100
AcDbEntity
  8
0
100
AcDbLine
 10
209.9833808863632
 20
157.471761965935
 30
0.0
 11
210.6556789842289
 21
157.5972377241827
 31
0.0
  0
LINE
  5
1CC
330
20
100
AcDbEntity
  8
0
  6
H3
100
AcDbLine
 10
199.4141279914041
 20
166.1381674643852
 30
0.0
 11
199.4141279914041
 21
166.3468545554854
 31
0.0
  0
LINE
  5
1CD
330
20
100
AcDbEntity
  8
0
  6
H3
100
AcDbLine
 10
196.514127991404
 20
167.6841128556884
 30
0.0
 11
196.514127991404
 21
166.3468545554854
 31
0.0
  0
LINE
  5
1CE
330
20
100
AcDbEntity
  8
0
  6
H3
100
AcDbLine
 10
198.114127991404
 20
167.6841128556885
 30
0.0
 11
198.114127991404
 21
166.3468545554854
 31
0.0
  0
LINE
  5
1CF
330
20
100
AcDbEntity
  8
0
  6
H3
100
AcDbLine
 10
200.8112423084339
 20
162.9421540171062
 30
0.0
 11
201.611242308434
 21
164.3277946631613
 31
0.0
  0
LINE
  5
1D0
330
20
100
AcDbEntity
  8
0
  6
H3
100
AcDbLine
 10
196.9827571415056
 20
168.8154837055869
 30
0.0
 11
197.8141279914041
 21
169.6468545554854
 31
0.0
  0
LINE
  5
1D1
330
20
100
AcDbEntity
  8
0
  6
H3
100
AcDbLine
 10
198.114127991404
 20
167.6841128556885
 30
0.0
 11
199.4141279914041
 21
168.9841128556885
 31
0.0
  0
LINE
  5
1D2
330
20
100
AcDbEntity
  8
0
  6
H3
100
AcDbLine
 10
198.114127991404
 20
166.3468545554854
 30
0.0
 11
199.4141279914041
 21
165.5962992055389
 31
0.0
  0
LINE
  5
1D3
330
20
100
AcDbEntity
  8
0
  6
H3
100
AcDbLine
 10
197.314127991404
 20
164.9612139094303
 30
0.0
 11
199.4141279914041
 21
163.748778344132
 31
0.0
  0
ARC
  5
1D4
330
20
100
AcDbEntity
  8
0
  6
H3
100
AcDbCircle
 10
198.114127991404
 20
166.3468545554854
 30
0.0
 40
1.6
100
AcDbArc
 50
180.0000000000008
 51
240.0000000000002
  0
ARC
  5
1D5
330
20
100
AcDbEntity
  8
0
  6
H3
100
AcDbCircle
 10
198.114127991404
 20
167.6841128556885
 30
0.0
 40
1.6
100
AcDbArc
 50
135.0
 51
180.0000000000008
  0
LINE
  5
1D6
330
20
100
AcDbEntity
  8
0
  6
H3
100
AcDbLine
 10
199.4141279914041
 20
165.5962992055389
 30
0.0
 11
201.611242308434
 21
164.3277946631613
 31
0.0
  0
LINE
  5
1D7
330
20
100
AcDbEntity
  8
0
  6
H3
100
AcDbLine
 10
199.4141279914041
 20
163.748778344132
 30
0.0
 11
200.8112423084339
 21
162.9421540171062
 31
0.0
  0
LINE
  5
1D8
330
20
100
AcDbEntity
  8
0
  6
H3
100
AcDbLine
 10
199.4141279914041
 20
166.3468545554854
 30
0.0
 11
199.414127991404
 21
178.3468545554854
 31
0.0
  0
LINE
  5
1D9
330
20
100
AcDbEntity
  8
0
  6
H3
100
AcDbLine
 10
208.656516708856
 20
157.5230609675777
 30
0.0
 11
205.3435756305839
 21
158.4107608540726
 31
0.0
  0
ARC
  5
1DA
330
20
100
AcDbEntity
  8
0
  6
H3
100
AcDbCircle
 10
207.4141279914041
 20
166.1381674643852
 30
0.0
 40
8.0
100
AcDbArc
 50
180.0
 51
255.0
  0
ARC
  5
1DB
330
20
100
AcDbEntity
  8
0
  6
H3
100
AcDbCircle
 10
209.4329738441636
 20
160.4208384464449
 30
0.0
 40
3.0
100
AcDbArc
 50
255.0000000000001
 51
280.5718856578963
  0
ARC
  5
1DC
330
20
100
AcDbEntity
  8
0
  6
H3
100
AcDbCircle
 10
205.3141279914036
 20
166.3468545554854
 30
0.0
 40
20.0
100
AcDbArc
 50
93.82255372927366
 51
99.59406822685892
  0
ARC
  5
1DD
330
20
100
AcDbEntity
  8
0
  6
H3
100
AcDbCircle
 10
205.3141279914038
 20
166.3468545554856
 30
0.0
 40
20.0
100
AcDbArc
 50
38.82255372927366
 51
44.59406822685926
  0
LINE
  5
1DE
330
20
100
AcDbEntity
  8
0
  6
H3
100
AcDbLine
 10
217.7978691420891
 20
176.0646838852632
 30
0.0
 11
220.7931955888285
 21
178.162034042669
 31
0.0
  0
ARC
  5
1DF
330
20
100
AcDbEntity
  8
0
  6
H3
100
AcDbCircle
 10
220.5064073706529
 20
178.5716100648135
 30
0.0
 40
0.5
100
AcDbArc
 50
305.0
 51
38.82255372927453
  0
ARC
  5
1E0
330
20
100
AcDbEntity
  8
0
  6
H3
100
AcDbCircle
 10
215.9956090217836
 20
176.8780445641047
 30
0.0
 40
5.0
100
AcDbArc
 50
44.59406822685976
 51
46.53695903281184
  0
ARC
  5
1E1
330
20
100
AcDbEntity
  8
0
100
AcDbCircle
 10
217.0355297373264
 20
165.9824717955101
 30
0.0
 40
1.0
100
AcDbArc
 50
170.0000000000002
 51
204.6641010046982
  0
LINE
  5
1E2
330
20
100
AcDbEntity
  8
0
  6
H3
100
AcDbLine
 10
218.8495799750965
 20
159.6355551584126
 30
0.0
 11
216.1267599211614
 21
165.5651740346397
 31
0.0
  0
ARC
  5
1E3
330
20
100
AcDbEntity
  8
0
100
AcDbCircle
 10
214.8491826643409
 20
159.2673107137326
 30
0.0
 40
1.0
100
AcDbArc
 50
215.0
 51
244.9999999999997
  0
LINE
  5
1E4
330
20
100
AcDbEntity
  8
0
  6
H3
100
AcDbLine
 10
214.0300306200519
 20
158.6937342773815
 30
0.0
 11
211.8686193858315
 21
161.7805494232834
 31
0.0
  0
ARC
  5
1E5
330
20
100
AcDbEntity
  8
0
  6
H3
100
AcDbCircle
 10
217.9408101589316
 20
159.2182573975421
 30
0.0
 40
1.0
100
AcDbArc
 50
330.5523985575046
 51
24.66410100469823
  0
ARC
  5
1E6
330
20
100
AcDbEntity
  8
0
  6
H3
100
AcDbCircle
 10
217.2677653945659
 20
158.1395070647473
 30
0.0
 40
1.0
100
AcDbArc
 50
244.9999999999998
 51
325.5265724907804
  0
LINE
  5
1E7
330
20
100
AcDbEntity
  8
0
  6
H3
100
AcDbLine
 10
216.8451471328252
 20
157.2331992777106
 30
0.0
 11
214.4265644026002
 21
158.3610029266959
 31
0.0
  0
ARC
  5
1E8
330
20
100
AcDbEntity
  8
0
  6
H3
100
AcDbCircle
 10
205.314127991404
 20
166.3468545554855
 30
0.0
 40
15.5
100
AcDbArc
 50
325.5265724907807
 51
330.5523985575045
  0
ARC
  5
1E9
330
20
100
AcDbEntity
  8
0
  6
H3
100
AcDbCircle
 10
209.7593453731245
 20
159.9984262122458
 30
0.0
 40
2.75
100
AcDbArc
 50
35.0
 51
215.0
  0
LINE
  5
1EA
330
20
100
AcDbEntity
  8
0
  6
H3
100
AcDbLine
 10
210.8047417603483
 20
153.7109667576187
 30
0.0
 11
207.3632831422421
 21
158.6258790233526
 31
0.0
  0
ARC
  5
1EB
330
20
100
AcDbEntity
  8
0
  6
H3
100
AcDbCircle
 10
209.9855897160594
 20
153.1373903212676
 30
0.0
 40
1.0
100
AcDbArc
 50
304.9999999999995
 51
35.0
  0
ARC
  5
1EC
330
20
100
AcDbEntity
  8
0
  6
H3
100
AcDbCircle
 10
208.1844102840616
 20
154.3177400828374
 30
0.0
 40
3.0
100
AcDbArc
 50
225.5718856578963
 51
304.9999999999994
  0
LINE
  5
1ED
330
20
100
AcDbEntity
  8
0
  6
H3
100
AcDbLine
 10
210.5591661524104
 20
152.3182382769786
 30
0.0
 11
209.9051395931148
 21
151.8602839499704
 31
0.0
  0
LINE
  5
1EE
330
20
100
AcDbEntity
  8
0
  6
H3
100
AcDbLine
 10
200.7222511893322
 20
157.4314825214773
 30
0.0
 11
206.0843687660947
 21
152.175352250811
 31
0.0
  0
ARC
  5
1EF
330
20
100
AcDbEntity
  8
0
  6
H3
100
AcDbCircle
 10
202.8222927072991
 20
159.5738703535038
 30
0.0
 40
3.0
100
AcDbArc
 50
200.0000000000001
 51
225.5718856578963
  0
LINE
  5
1F0
330
20
100
AcDbEntity
  8
T
100
AcDbLine
 10
147.9237481459336
 20
95.58276304038194
 30
0.0
 11
125.5237481459336
 21
95.58276304038194
 31
0.0
  0
ARC
  5
1F1
330
20
100
AcDbEntity
  8
0
100
AcDbCircle
 10
142.6237481459336
 20
101.4827630403819
 30
0.0
 40
1.6
100
AcDbArc
 50
359.9999999999999
 51
90.00000000000005
  0
ARC
  5
1F2
330
20
100
AcDbEntity
  8
0
100
AcDbCircle
 10
130.8237481459336
 20
101.4827630403819
 30
0.0
 40
1.6
100
AcDbArc
 50
90.00000000000005
 51
179.9999999999998
  0
LINE
  5
1F3
330
20
100
AcDbEntity
  8
0
100
AcDbLine
 10
130.8237481459335
 20
101.4827630403819
 30
0.0
 11
135.2237481459336
 21
101.4827630403819
 31
0.0
  0
LINE
  5
1F4
330
20
100
AcDbEntity
  8
0
100
AcDbLine
 10
142.6237481459335
 20
101.4827630403819
 30
0.0
 11
142.6237481459335
 21
81.082763040382
 31
0.0
  0
LINE
  5
1F5
330
20
100
AcDbEntity
  8
0
100
AcDbLine
 10
130.8237481459336
 20
101.4827630403819
 30
0.0
 11
130.8237481459335
 21
81.082763040382
 31
0.0
  0
LINE
  5
1F6
330
20
100
AcDbEntity
  8
0
100
AcDbLine
 10
144.2237481459336
 20
101.4827630403819
 30
0.0
 11
144.2237481459336
 21
81.082763040382
 31
0.0
  0
LINE
  5
1F7
330
20
100
AcDbEntity
  8
0
100
AcDbLine
 10
129.2237481459336
 20
101.4827630403819
 30
0.0
 11
129.2237481459335
 21
81.082763040382
 31
0.0
  0
LINE
  5
1F8
330
20
100
AcDbEntity
  8
0
100
AcDbLine
 10
130.8237481459335
 20
81.082763040382
 30
0.0
 11
129.2237481459335
 21
81.082763040382
 31
0.0
  0
LINE
  5
1F9
330
20
100
AcDbEntity
  8
0
100
AcDbLine
 10
142.6237481459335
 20
81.082763040382
 30
0.0
 11
144.2237481459335
 21
81.082763040382
 31
0.0
  0
LINE
  5
1FA
330
20
100
AcDbEntity
  8
0
100
AcDbLine
 10
130.8237481459336
 20
103.0827630403819
 30
0.0
 11
135.2237481459336
 21
103.0827630403819
 31
0.0
  0
LINE
  5
1FB
330
20
100
AcDbEntity
  8
0
100
AcDbLine
 10
128.7237481459336
 20
118.582763040382
 30
0.0
 11
128.7237481459335
 21
78.582763040382
 31
0.0
  0
LINE
  5
1FC
330
20
100
AcDbEntity
  8
0
100
AcDbLine
 10
127.1237481459335
 20
118.582763040382
 30
0.0
 11
127.1237481459335
 21
78.582763040382
 31
0.0
  0
LINE
  5
1FD
330
20
100
AcDbEntity
  8
0
100
AcDbLine
 10
144.7237481459336
 20
118.582763040382
 30
0.0
 11
144.7237481459335
 21
78.582763040382
 31
0.0
  0
LINE
  5
1FE
330
20
100
AcDbEntity
  8
0
100
AcDbLine
 10
146.3237481459335
 20
118.582763040382
 30
0.0
 11
146.3237481459335
 21
78.582763040382
 31
0.0
  0
LINE
  5
1FF
330
20
100
AcDbEntity
  8
0
100
AcDbLine
 10
146.3237481459335
 20
118.582763040382
 30
0.0
 11
144.7237481459336
 21
118.582763040382
 31
0.0
  0
LINE
  5
200
330
20
100
AcDbEntity
  8
0
100
AcDbLine
 10
146.3237481459335
 20
90.08276304038195
 30
0.0
 11
144.7237481459336
 21
90.08276304038195
 31
0.0
  0
LINE
  5
201
330
20
100
AcDbEntity
  8
0
100
AcDbLine
 10
146.3237481459335
 20
78.582763040382
 30
0.0
 11
144.7237481459336
 21
78.582763040382
 31
0.0
  0
LINE
  5
202
330
20
100
AcDbEntity
  8
0
100
AcDbLine
 10
146.3237481459335
 20
80.38416420207186
 30
0.0
 11
144.7237481459336
 21
80.38416420207186
 31
0.0
  0
LINE
  5
203
330
20
100
AcDbEntity
  8
0
100
AcDbLine
 10
128.7237481459336
 20
118.582763040382
 30
0.0
 11
127.1237481459335
 21
118.582763040382
 31
0.0
  0
LINE
  5
204
330
20
100
AcDbEntity
  8
0
100
AcDbLine
 10
128.7237481459336
 20
90.08276304038195
 30
0.0
 11
127.1237481459335
 21
90.08276304038195
 31
0.0
  0
LINE
  5
205
330
20
100
AcDbEntity
  8
0
100
AcDbLine
 10
128.7237481459336
 20
80.38416420207186
 30
0.0
 11
127.1237481459335
 21
80.38416420207186
 31
0.0
  0
LINE
  5
206
330
20
100
AcDbEntity
  8
0
100
AcDbLine
 10
128.7237481459336
 20
78.582763040382
 30
0.0
 11
127.1237481459335
 21
78.582763040382
 31
0.0
  0
LINE
  5
207
330
20
100
AcDbEntity
  8
0
100
AcDbLine
 10
142.6237481459335
 20
93.08276304038189
 30
0.0
 11
139.3499672590754
 21
93.08276304038191
 31
0.0
  0
LINE
  5
208
330
20
100
AcDbEntity
  8
0
100
AcDbLine
 10
129.9237481459336
 20
78.582763040382
 30
0.0
 11
143.5237481459336
 21
78.582763040382
 31
0.0
  0
ARC
  5
209
330
20
100
AcDbEntity
  8
0
100
AcDbCircle
 10
129.9237481459336
 20
79.782763040382
 30
0.0
 40
1.199999999999999
100
AcDbArc
 50
180.0
 51
270.0000000000001
  0
ARC
  5
20A
330
20
100
AcDbEntity
  8
0
100
AcDbCircle
 10
143.5237481459336
 20
79.782763040382
 30
0.0
 40
1.199999999999999
100
AcDbArc
 50
270.0000000000001
 51
0.0
  0
LINE
  5
20B
330
20
100
AcDbEntity
  8
T
100
AcDbLine
 10
130.9616495577298
 20
110.0827630403819
 30
0.0
 11
142.9310145877699
 21
110.0827630403819
 31
0.0
  0
LINE
  5
20C
330
20
100
AcDbEntity
  8
0
100
AcDbLine
 10
128.7237481459336
 20
103.582763040382
 30
0.0
 11
144.7237481459336
 21
103.582763040382
 31
0.0
  0
LINE
  5
20D
330
20
100
AcDbEntity
  8
0
100
AcDbLine
 10
128.7237481459335
 20
105.582763040382
 30
0.0
 11
129.9237481459335
 21
105.582763040382
 31
0.0
  0
LINE
  5
20E
330
20
100
AcDbEntity
  8
0
100
AcDbLine
 10
129.9237481459335
 20
105.582763040382
 30
0.0
 11
129.9237481459335
 21
103.582763040382
 31
0.0
  0
LINE
  5
20F
330
20
100
AcDbEntity
  8
0
100
AcDbLine
 10
143.5237481459336
 20
105.582763040382
 30
0.0
 11
143.5237481459336
 21
103.582763040382
 31
0.0
  0
LINE
  5
210
330
20
100
AcDbEntity
  8
0
100
AcDbLine
 10
143.5237481459336
 20
105.582763040382
 30
0.0
 11
144.7237481459336
 21
105.582763040382
 31
0.0
  0
ARC
  5
211
330
20
100
AcDbEntity
  8
0
100
AcDbCircle
 10
129.9237481459335
 20
104.782763040382
 30
0.0
 40
1.199999999999999
100
AcDbArc
 50
180.0000000000001
 51
270.0
  0
ARC
  5
212
330
20
100
AcDbEntity
  8
0
100
AcDbCircle
 10
143.5237481459336
 20
104.782763040382
 30
0.0
 40
1.199999999999999
100
AcDbArc
 50
270.0
 51
0.0
  0
LINE
  5
213
330
20
100
AcDbEntity
  8
0
100
AcDbLine
 10
129.2237481459335
 20
116.582763040382
 30
0.0
 11
144.2237481459336
 21
116.582763040382
 31
0.0
  0
ARC
  5
214
330
20
100
AcDbEntity
  8
0
100
AcDbCircle
 10
129.2237481459335
 20
116.082763040382
 30
0.0
 40
0.5
100
AcDbArc
 50
90.0
 51
180.0000000000004
  0
ARC
  5
215
330
20
100
AcDbEntity
  8
0
100
AcDbCircle
 10
144.2237481459336
 20
116.082763040382
 30
0.0
 40
0.5
100
AcDbArc
 50
0.0
 51
90.0
  0
CIRCLE
  5
216
330
20
100
AcDbEntity
  8
0
100
AcDbCircle
 10
136.7237481459336
 20
110.0827630403819
 30
0.0
 40
4.799999999999999
  0
LINE
  5
217
330
20
100
AcDbEntity
  8
T
100
AcDbLine
 10
217.3141279914041
 20
198.8151834369208
 30
0.0
 11
217.3141279914041
 21
206.2601120571196
 31
0.0
  0
LINE
  5
218
330
20
100
AcDbEntity
  8
T
100
AcDbLine
 10
213.2201535903623
 20
202.3468545554854
 30
0.0
 11
222.0538866587781
 21
202.3468545554854
 31
0.0
  0
CIRCLE
  5
219
330
20
100
AcDbEntity
  8
0
100
AcDbCircle
 10
217.3141279914041
 20
202.3468545554854
 30
0.0
 40
1.75
  0
CIRCLE
  5
21A
330
20
100
AcDbEntity
  8
0
100
AcDbCircle
 10
217.3141279914041
 20
202.3468545554854
 30
0.0
 40
2.0
  0
CIRCLE
  5
21B
330
20
100
AcDbEntity
  8
0
100
AcDbCircle
 10
186.3141279914041
 20
231.3468545554855
 30
0.0
 40
2.0
  0
CIRCLE
  5
21C
330
20
100
AcDbEntity
  8
0
100
AcDbCircle
 10
140.7237481459336
 20
232.2468545554854
 30
0.0
 40
2.25
  0
CIRCLE
  5
21D
330
20
100
AcDbEntity
  8
0
100
AcDbCircle
 10
140.7237481459336
 20
232.2468545554854
 30
0.0
 40
2.549999999999999
  0
LINE
  5
21E
330
20
100
AcDbEntity
  8
0
100
AcDbLine
 10
143.4237481459336
 20
232.2468545554854
 30
0.0
 11
138.0237481459337
 21
232.2468545554854
 31
0.0
  0
LINE
  5
21F
330
20
100
AcDbEntity
  8
0
100
AcDbLine
 10
140.7237481459336
 20
234.9468545554854
 30
0.0
 11
140.7237481459336
 21
229.5468545554854
 31
0.0
  0
LINE
  5
220
330
20
100
AcDbEntity
  8
0
100
AcDbLine
 10
140.7237481459336
 20
233.7888650680184
 30
0.0
 11
140.441349586601
 21
232.5184799426586
 31
0.0
  0
LINE
  5
221
330
20
100
AcDbEntity
  8
0
100
AcDbLine
 10
140.441349586601
 20
232.5184799426586
 30
0.0
 11
139.0577949321656
 21
232.2468545554854
 31
0.0
  0
LINE
  5
222
330
20
100
AcDbEntity
  8
0
100
AcDbLine
 10
139.0577949321656
 20
232.2468545554854
 30
0.0
 11
140.4638464102504
 21
231.9527615665218
 31
0.0
  0
LINE
  5
223
330
20
100
AcDbEntity
  8
0
100
AcDbLine
 10
140.4638464102504
 20
231.9527615665218
 30
0.0
 11
140.7237481459336
 21
230.4243294625733
 31
0.0
  0
LINE
  5
224
330
20
100
AcDbEntity
  8
0
100
AcDbLine
 10
140.7237481459336
 20
230.4243294625733
 30
0.0
 11
141.0150185896595
 21
231.9428366827299
 31
0.0
  0
LINE
  5
225
330
20
100
AcDbEntity
  8
0
100
AcDbLine
 10
141.0150185896595
 20
231.9428366827299
 30
0.0
 11
142.466063715043
 21
232.2468545554854
 31
0.0
  0
LINE
  5
226
330
20
100
AcDbEntity
  8
0
100
AcDbLine
 10
142.466063715043
 20
232.2468545554854
 30
0.0
 11
141.0712606487829
 21
232.5284048264505
 31
0.0
  0
LINE
  5
227
330
20
100
AcDbEntity
  8
0
100
AcDbLine
 10
141.0712606487829
 20
232.5284048264505
 30
0.0
 11
140.7237481459336
 21
233.7888650680184
 31
0.0
  0
LINE
  5
228
330
20
100
AcDbEntity
  8
0
100
AcDbLine
 10
140.4237481459336
 20
214.3468545554854
 30
0.0
 11
144.7237481459336
 21
214.3468545554854
 31
0.0
  0
LINE
  5
229
330
20
100
AcDbEntity
  8
0
100
AcDbLine
 10
134.8237481459336
 20
206.3468545554854
 30
0.0
 11
134.8237481459336
 21
186.3468545554854
 31
0.0
  0
LINE
  5
22A
330
20
100
AcDbEntity
  8
0
100
AcDbLine
 10
134.8237481459336
 20
186.3468545554854
 30
0.0
 11
138.6237481459336
 21
186.3468545554854
 31
0.0
  0
LINE
  5
22B
330
20
100
AcDbEntity
  8
0
100
AcDbLine
 10
138.6237481459336
 20
186.3468545554854
 30
0.0
 11
138.6237481459336
 21
206.3468545554854
 31
0.0
  0
LINE
  5
22C
330
20
100
AcDbEntity
  8
0
100
AcDbLine
 10
138.6237481459336
 20
206.3468545554854
 30
0.0
 11
134.8237481459336
 21
206.3468545554854
 31
0.0
  0
LINE
  5
22D
330
20
100
AcDbEntity
  8
0
100
AcDbLine
 10
133.0237481459336
 20
216.1468545554854
 30
0.0
 11
133.0237481459336
 21
207.9468545554854
 31
0.0
  0
LINE
  5
22E
330
20
100
AcDbEntity
  8
0
100
AcDbLine
 10
133.0237481459336
 20
207.9468545554854
 30
0.0
 11
140.4237481459336
 21
207.9468545554854
 31
0.0
  0
LINE
  5
22F
330
20
100
AcDbEntity
  8
0
100
AcDbLine
 10
140.4237481459336
 20
207.9468545554854
 30
0.0
 11
140.4237481459336
 21
216.1468545554854
 31
0.0
  0
LINE
  5
230
330
20
100
AcDbEntity
  8
0
100
AcDbLine
 10
140.4237481459336
 20
216.1468545554854
 30
0.0
 11
133.0237481459336
 21
216.1468545554854
 31
0.0
  0
LINE
  5
231
330
20
100
AcDbEntity
  8
0
100
AcDbLine
 10
217.8030106183188
 20
169.6468545554854
 30
0.0
 11
217.0824334817249
 21
169.230829151701
 31
0.0
  0
ARC
  5
232
330
20
100
AcDbEntity
  8
0
  6
H3
100
AcDbCircle
 10
213.0641279914038
 20
166.3468545554854
 30
0.0
 40
2.75
100
AcDbArc
 50
131.3707858544572
 51
222.3736019029703
  0
ARC
  5
233
330
20
100
AcDbEntity
  8
0
100
AcDbCircle
 10
213.0641279914038
 20
166.3468545554854
 30
0.0
 40
2.75
100
AcDbArc
 50
222.3736019029703
 51
270.0
  0
LINE
  5
234
330
20
100
AcDbEntity
  8
0
100
AcDbLine
 10
210.6556789842289
 20
157.5972377241827
 30
0.0
 11
217.3645350336035
 21
158.8493590710122
 31
0.0
  0
LINE
  5
235
330
20
100
AcDbEntity
  8
0
  6
H3
100
AcDbLine
 10
206.0642708485467
 20
194.9468545554854
 30
0.0
 11
206.0642708485467
 21
200.7468545554854
 31
0.0
  0
LINE
  5
236
330
20
100
AcDbEntity
  8
0
  6
H3
100
AcDbLine
 10
204.5642708485467
 20
194.9468545554854
 30
0.0
 11
204.5642708485467
 21
200.7468545554854
 31
0.0
  0
LINE
  5
237
330
20
100
AcDbEntity
  8
0
  6
H3
100
AcDbLine
 10
206.0642708485466
 20
185.2468545554855
 30
0.0
 11
213.0642708485467
 21
185.2468545554855
 31
0.0
  0
LINE
  5
238
330
20
100
AcDbEntity
  8
0
100
AcDbLine
 10
204.5642708485467
 20
185.2468545554854
 30
0.0
 11
204.5642708485467
 21
194.9468545554854
 31
0.0
  0
ARC
  5
239
330
20
100
AcDbEntity
  8
0
100
AcDbCircle
 10
196.564127991404
 20
201.3468545554854
 30
0.0
 40
0.5
100
AcDbArc
 50
0.0
 51
90.0
  0
LINE
  5
23A
330
20
100
AcDbEntity
  8
0
  6
H4
100
AcDbLine
 10
196.1141279914039
 20
201.8468545554854
 30
0.0
 11
196.1141279914039
 21
218.8468545554854
 31
0.0
  0
LINE
  5
23B
330
20
100
AcDbEntity
  8
0
100
AcDbLine
 10
196.1141279914039
 20
190.8468545554854
 30
0.0
 11
196.1141279914039
 21
201.8468545554854
 31
0.0
  0
LINE
  5
23C
330
20
100
AcDbEntity
  8
0
100
AcDbLine
 10
196.1141279914039
 20
218.8468545554854
 30
0.0
 11
196.1141279914039
 21
224.8468545554854
 31
0.0
  0
LINE
  5
23D
330
20
100
AcDbEntity
  8
0
100
AcDbLine
 10
197.3141279914039
 20
218.8468545554854
 30
0.0
 11
197.3141279914039
 21
224.8468545554854
 31
0.0
  0
LINE
  5
23E
330
20
100
AcDbEntity
  8
0
  6
H4
100
AcDbLine
 10
196.1141279914039
 20
224.8468545554854
 30
0.0
 11
196.1141279914039
 21
226.3468545554854
 31
0.0
  0
LINE
  5
23F
330
20
100
AcDbEntity
  8
0
  6
H4
100
AcDbLine
 10
197.3141279914039
 20
224.8468545554854
 30
0.0
 11
197.3141279914039
 21
236.3468545554854
 31
0.0
  0
LINE
  5
240
330
20
100
AcDbEntity
  8
0
100
AcDbLine
 10
192.3141279914039
 20
233.6060437448702
 30
0.0
 11
191.8668439325065
 21
231.7223273802893
 31
0.0
  0
LINE
  5
241
330
20
100
AcDbEntity
  8
0
100
AcDbLine
 10
191.8668439325065
 20
231.7223273802893
 30
0.0
 11
190.0140381418041
 21
231.3468545554855
 31
0.0
  0
LINE
  5
242
330
20
100
AcDbEntity
  8
0
100
AcDbLine
 10
190.0140381418041
 20
231.3468545554855
 30
0.0
 11
191.8545736954819
 21
230.9103806714182
 31
0.0
  0
LINE
  5
243
330
20
100
AcDbEntity
  8
0
100
AcDbLine
 10
191.8545736954819
 20
230.9103806714182
 30
0.0
 11
192.3141279914039
 21
228.8859268772997
 31
0.0
  0
LINE
  5
244
330
20
100
AcDbEntity
  8
0
100
AcDbLine
 10
192.3141279914039
 20
228.8859268772997
 30
0.0
 11
192.8361926574434
 21
230.9212066275365
 31
0.0
  0
LINE
  5
245
330
20
100
AcDbEntity
  8
0
100
AcDbLine
 10
192.8361926574434
 20
230.9212066275365
 30
0.0
 11
194.7994305813664
 21
231.3468545554855
 31
0.0
  0
LINE
  5
246
330
20
100
AcDbEntity
  8
0
100
AcDbLine
 10
194.7994305813664
 20
231.3468545554855
 30
0.0
 11
192.8116521833944
 21
231.7331533364076
 31
0.0
  0
LINE
  5
247
330
20
100
AcDbEntity
  8
0
100
AcDbLine
 10
192.8116521833944
 20
231.7331533364076
 30
0.0
 11
192.3141279914039
 21
233.6060437448703
 31
0.0
  0
LINE
  5
248
330
20
100
AcDbEntity
  8
0
100
AcDbLine
 10
217.3141279914041
 20
194.6266693091363
 30
0.0
 11
216.8676632701447
 21
192.656540042768
 31
0.0
  0
LINE
  5
249
330
20
100
AcDbEntity
  8
0
100
AcDbLine
 10
216.8676632701447
 20
192.656540042768
 30
0.0
 11
214.6969533866605
 21
192.3468545554854
 31
0.0
  0
LINE
  5
24A
330
20
100
AcDbEntity
  8
0
100
AcDbLine
 10
214.6969533866605
 20
192.3468545554854
 30
0.0
 11
216.8676632701447
 21
192.0322033034259
 31
0.0
  0
LINE
  5
24B
330
20
100
AcDbEntity
  8
0
100
AcDbLine
 10
216.8676632701447
 20
192.0322033034259
 30
0.0
 11
217.3141279914041
 21
189.7984651915575
 31
0.0
  0
LINE
  5
24C
330
20
100
AcDbEntity
  8
0
100
AcDbLine
 10
217.3141279914041
 20
189.7984651915575
 30
0.0
 11
217.7799906124786
 21
192.0599516029522
 31
0.0
  0
LINE
  5
24D
330
20
100
AcDbEntity
  8
0
100
AcDbLine
 10
217.7799906124786
 20
192.0599516029522
 30
0.0
 11
219.7304835512615
 21
192.3468545554854
 31
0.0
  0
LINE
  5
24E
330
20
100
AcDbEntity
  8
0
100
AcDbLine
 10
219.7304835512615
 20
192.3468545554854
 30
0.0
 11
217.8429097395361
 21
192.6981624920574
 31
0.0
  0
LINE
  5
24F
330
20
100
AcDbEntity
  8
0
100
AcDbLine
 10
217.8429097395361
 20
192.6981624920574
 30
0.0
 11
217.3018712533534
 21
194.5725836060695
 31
0.0
  0
LINE
  5
250
330
20
100
AcDbEntity
  8
0
100
AcDbLine
 10
192.3141279914039
 20
160.2335989277616
 30
0.0
 11
191.847149078865
 21
158.1940745731357
 31
0.0
  0
LINE
  5
251
330
20
100
AcDbEntity
  8
0
100
AcDbLine
 10
191.847149078865
 20
158.1940745731357
 30
0.0
 11
189.7425658923069
 21
157.8468545554854
 31
0.0
  0
LINE
  5
252
330
20
100
AcDbEntity
  8
0
100
AcDbLine
 10
189.7425658923069
 20
157.8468545554854
 30
0.0
 11
191.8958099617912
 21
157.4319365248282
 31
0.0
  0
LINE
  5
253
330
20
100
AcDbEntity
  8
0
100
AcDbLine
 10
191.8958099617912
 20
157.4319365248282
 30
0.0
 11
192.3141279914039
 21
155.1777253960312
 31
0.0
  0
LINE
  5
254
330
20
100
AcDbEntity
  8
0
100
AcDbLine
 10
192.3141279914039
 20
155.1777253960312
 30
0.0
 11
192.8446971788521
 21
157.3997335087025
 31
0.0
  0
LINE
  5
255
330
20
100
AcDbEntity
  8
0
100
AcDbLine
 10
192.8446971788521
 20
157.3997335087025
 30
0.0
 11
194.7546368337054
 21
157.8468545554854
 31
0.0
  0
LINE
  5
256
330
20
100
AcDbEntity
  8
0
100
AcDbLine
 10
194.7546368337054
 20
157.8468545554854
 30
0.0
 11
192.8325319581206
 21
158.2262775892614
 31
0.0
  0
LINE
  5
257
330
20
100
AcDbEntity
  8
0
100
AcDbLine
 10
192.8325319581206
 20
158.2262775892614
 30
0.0
 11
192.312164479526
 21
160.225023315056
 31
0.0
  0
LINE
  5
258
330
20
100
AcDbEntity
  8
0
  6
H4
100
AcDbLine
 10
146.3237481459335
 20
93.58276304038195
 30
0.0
 11
144.7237481459335
 21
93.58276304038195
 31
0.0
  0
LINE
  5
259
330
20
100
AcDbEntity
  8
0
  6
H4
100
AcDbLine
 10
146.3237481459335
 20
97.58276304038195
 30
0.0
 11
144.7237481459335
 21
97.58276304038195
 31
0.0
  0
LINE
  5
25A
330
20
100
AcDbEntity
  8
0
100
AcDbLine
 10
142.6237481459335
 20
98.08276304038194
 30
0.0
 11
139.3499672590754
 21
98.08276304038194
 31
0.0
  0
LINE
  5
25B
330
20
100
AcDbEntity
  8
0
  6
H4
100
AcDbLine
 10
144.2237481459336
 20
93.58276304038195
 30
0.0
 11
142.6237481459335
 21
93.58276304038195
 31
0.0
  0
LINE
  5
25C
330
20
100
AcDbEntity
  8
0
100
AcDbLine
 10
144.7237481459335
 20
93.58276304038195
 30
0.0
 11
144.2237481459336
 21
93.58276304038195
 31
0.0
  0
LINE
  5
25D
330
20
100
AcDbEntity
  8
0
  6
H4
100
AcDbLine
 10
144.2237481459336
 20
97.58276304038195
 30
0.0
 11
142.6237481459335
 21
97.58276304038195
 31
0.0
  0
LINE
  5
25E
330
20
100
AcDbEntity
  8
0
100
AcDbLine
 10
144.7237481459335
 20
97.58276304038195
 30
0.0
 11
144.2237481459336
 21
97.58276304038195
 31
0.0
  0
LINE
  5
25F
330
20
100
AcDbEntity
  8
0
100
AcDbLine
 10
129.2237481459336
 20
98.08276304038194
 30
0.0
 11
128.7237481459336
 21
98.08276304038194
 31
0.0
  0
LINE
  5
260
330
20
100
AcDbEntity
  8
0
  6
H4
100
AcDbLine
 10
130.8237481459335
 20
98.08276304038194
 30
0.0
 11
129.2237481459336
 21
98.08276304038194
 31
0.0
  0
LINE
  5
261
330
20
100
AcDbEntity
  8
0
100
AcDbLine
 10
129.2237481459336
 20
93.08276304038194
 30
0.0
 11
128.7237481459336
 21
93.08276304038194
 31
0.0
  0
LINE
  5
262
330
20
100
AcDbEntity
  8
0
  6
H4
100
AcDbLine
 10
130.8237481459335
 20
93.08276304038194
 30
0.0
 11
129.2237481459336
 21
93.08276304038194
 31
0.0
  0
CIRCLE
  5
263
330
20
100
AcDbEntity
  8
0
100
AcDbCircle
 10
205.314127991404
 20
166.3468545554854
 30
0.0
 40
2.049999999999999
  0
LINE
  5
264
330
20
100
AcDbEntity
  8
0
  6
H4
100
AcDbLine
 10
128.7237481459336
 20
93.58276304038195
 30
0.0
 11
127.1237481459335
 21
93.58276304038195
 31
0.0
  0
LINE
  5
265
330
20
100
AcDbEntity
  8
0
  6
H4
100
AcDbLine
 10
128.7237481459336
 20
97.58276304038195
 30
0.0
 11
127.1237481459335
 21
97.58276304038195
 31
0.0
  0
LINE
  5
26C
330
20
100
AcDbEntity
  8
0
100
AcDbLine
 10
50.69636160016656
 20
82.49912428823627
 30
0.0
 11
50.69636160016656
 21
55.06744636969246
 31
0.0
  0
LINE
  5
26D
330
20
100
AcDbEntity
  8
0
100
AcDbLine
 10
64.22356700106942
 20
82.49912428824355
 30
0.0
 11
64.22356700106942
 21
66.81472471837334
 31
0.0
  0
LINE
  5
26E
330
20
100
AcDbEntity
  8
0
100
AcDbLine
 10
71.56899162369288
 20
82.49912428824172
 30
0.0
 11
71.56899162369288
 21
55.06744636969246
 31
0.0
  0
LINE
  5
26F
330
20
100
AcDbEntity
  8
0
100
AcDbLine
 10
77.30085162480654
 20
82.49912428824536
 30
0.0
 11
77.30085162480654
 21
55.06744636969246
 31
0.0
  0
LINE
  5
270
330
20
100
AcDbEntity
  8
0
100
AcDbLine
 10
94.74623510353726
 20
82.49912428823536
 30
0.0
 11
94.74623510353726
 21
55.06744636969246
 31
0.0
  0
LINE
  5
271
330
20
100
AcDbEntity
  8
0
100
AcDbLine
 10
50.69636160016656
 20
66.81472471837334
 30
0.0
 11
53.94804227093638
 21
66.81472471837334
 31
0.0
  0
LINE
  5
272
330
20
100
AcDbEntity
  8
0
100
AcDbLine
 10
50.69636160016656
 20
55.06744636969246
 30
0.0
 11
56.296911945314
 21
55.06744636969246
 31
0.0
  0
LINE
  5
273
330
20
100
AcDbEntity
  8
0
100
AcDbLine
 10
77.30085162480654
 20
55.06744636969246
 30
0.0
 11
78.36187642292665
 21
55.06744636969246
 31
0.0
  0
LINE
  5
274
330
20
100
AcDbEntity
  8
0
100
AcDbLine
 10
77.30085162480666
 20
68.02996040961621
 30
0.0
 11
84.0550341286457
 21
68.02996040961621
 31
0.0
  0
CIRCLE
  5
275
330
20
100
AcDbEntity
  8
0
100
AcDbCircle
 10
50.69636160016656
 20
83.49912428823991
 30
0.0
 40
1.0
  0
CIRCLE
  5
276
330
20
100
AcDbEntity
  8
0
100
AcDbCircle
 10
64.22356700106942
 20
83.49912428823991
 30
0.0
 40
1.0
  0
CIRCLE
  5
277
330
20
100
AcDbEntity
  8
0
100
AcDbCircle
 10
71.56899162369288
 20
83.49912428823991
 30
0.0
 40
1.0
  0
CIRCLE
  5
278
330
20
100
AcDbEntity
  8
0
100
AcDbCircle
 10
77.30085162480666
 20
83.49912428823991
 30
0.0
 40
1.0
  0
CIRCLE
  5
279
330
20
100
AcDbEntity
  8
0
100
AcDbCircle
 10
94.74623510353726
 20
83.49912428823991
 30
0.0
 40
1.0
  0
LINE
  5
27A
330
20
100
AcDbEntity
  8
0
100
AcDbLine
 10
84.05503412864559
 20
70.02080967739711
 30
0.0
 11
84.05503412864559
 21
66.07326542200754
 31
0.0
  0
LINE
  5
27B
330
20
100
AcDbEntity
  8
0
100
AcDbLine
 10
84.0550341286457
 20
68.02996040961621
 30
0.0
 11
87.63426410864937
 21
70.09642980206293
 31
0.0
  0
LINE
  5
27C
330
20
100
AcDbEntity
  8
0
100
AcDbLine
 10
84.0550341286457
 20
68.02996040961621
 30
0.0
 11
87.63426410864937
 21
65.96349101716954
 31
0.0
  0
LINE
  5
27D
330
20
100
AcDbEntity
  8
0
100
AcDbLine
 10
87.63426410864937
 20
70.09642980206293
 30
0.0
 11
87.63426410864937
 21
65.96349101716954
 31
0.0
  0
LINE
  5
27E
330
20
100
AcDbEntity
  8
0
100
AcDbLine
 10
87.63426410864937
 20
68.02996040961621
 30
0.0
 11
94.74623510353726
 21
68.02996040961621
 31
0.0
  0
CIRCLE
  5
27F
330
20
100
AcDbEntity
  8
0
100
AcDbCircle
 10
79.36187642292665
 20
55.06744636969246
 30
0.0
 40
1.0
  0
CIRCLE
  5
280
330
20
100
AcDbEntity
  8
0
100
AcDbCircle
 10
92.55868970414164
 20
55.06744636969246
 30
0.0
 40
1.0
  0
LINE
  5
281
330
20
100
AcDbEntity
  8
0
100
AcDbLine
 10
30.92072469540333
 20
55.16327468204891
 30
0.0
 11
34.54411320002791
 21
55.16327468204891
 31
0.0
  0
LINE
  5
282
330
20
100
AcDbEntity
  8
0
100
AcDbLine
 10
24.82668650959326
 20
55.16327468204885
 30
0.0
 11
27.69353809233664
 21
55.16327468204891
 31
0.0
  0
CIRCLE
  5
283
330
20
100
AcDbEntity
  8
0
100
AcDbCircle
 10
57.29691194531401
 20
55.06744636969246
 30
0.0
 40
1.0
  0
CIRCLE
  5
284
330
20
100
AcDbEntity
  8
0
100
AcDbCircle
 10
62.29691194531401
 20
55.06744636969246
 30
0.0
 40
1.0
  0
CIRCLE
  5
285
330
20
100
AcDbEntity
  8
0
100
AcDbCircle
 10
54.94804227093638
 20
66.81472471837334
 30
0.0
 40
1.0
  0
CIRCLE
  5
286
330
20
100
AcDbEntity
  8
0
100
AcDbCircle
 10
59.94804227093638
 20
66.81472471837334
 30
0.0
 40
1.0
  0
LINE
  5
287
330
20
100
AcDbEntity
  8
0
100
AcDbLine
 10
60.94804227093638
 20
66.81472471837334
 30
0.0
 11
64.22356700106942
 21
66.81472471837334
 31
0.0
  0
LINE
  5
288
330
20
100
AcDbEntity
  8
0
100
AcDbLine
 10
63.29691194531401
 20
55.06744636969246
 30
0.0
 11
71.56899162369288
 21
55.06744636969246
 31
0.0
  0
LINE
  5
289
330
20
100
AcDbEntity
  8
0
100
AcDbLine
 10
55.90516688276782
 20
67.10440122316221
 30
0.0
 11
59.84697463477741
 21
67.80960427536566
 31
0.0
  0
LINE
  5
28A
330
20
100
AcDbEntity
  8
0
100
AcDbLine
 10
90.70812862999625
 20
55.06744636969246
 30
0.0
 11
91.55868970414164
 21
55.06744636969246
 31
0.0
  0
LINE
  5
28B
330
20
100
AcDbEntity
  8
0
100
AcDbLine
 10
93.55868970414164
 20
55.06744636969246
 30
0.0
 11
94.74623510353726
 21
55.06744636969246
 31
0.0
  0
LINE
  5
28C
330
20
100
AcDbEntity
  8
0
100
AcDbLine
 10
80.36187642292665
 20
55.06744636969246
 30
0.0
 11
81.2786177719208
 21
55.06744636969246
 31
0.0
  0
CIRCLE
  5
28D
330
20
100
AcDbEntity
  8
0
100
AcDbCircle
 10
24.82668650959326
 20
83.49912428823991
 30
0.0
 40
1.0
  0
CIRCLE
  5
28E
330
20
100
AcDbEntity
  8
0
100
AcDbCircle
 10
34.54411320002791
 20
83.49912428823991
 30
0.0
 40
1.0
  0
LINE
  5
28F
330
20
100
AcDbEntity
  8
0
100
AcDbLine
 10
24.82668650959326
 20
82.49912428823991
 30
0.0
 11
24.82668650959326
 21
55.16327468204885
 31
0.0
  0
LINE
  5
290
330
20
100
AcDbEntity
  8
0
100
AcDbLine
 10
34.54411320002791
 20
82.49912428823991
 30
0.0
 11
34.54411320002791
 21
55.16327468204891
 31
0.0
  0
LINE
  5
291
330
20
100
AcDbEntity
  8
0
100
AcDbLine
 10
58.29691189872298
 20
55.06775162703253
 30
0.0
 11
62.35773599633396
 21
56.15210709982092
 31
0.0
  0
TEXT
  5
292
330
20
100
AcDbEntity
  8
0
100
AcDbText
 10
78.29062532273352
 20
88.82914867574639
 30
0.0
 40
2.0
  1
-DC24V-
  7
SIMPLEX
100
AcDbText
  0
TEXT
  5
293
330
20
100
AcDbEntity
  8
0
100
AcDbText
 10
43.20535742833479
 20
65.37511930063068
 30
0.0
 40
3.0
  1
àÂ
 41
0.7
  7
SIMPLEX
100
AcDbText
  0
TEXT
  5
294
330
20
100
AcDbEntity
  8
0
100
AcDbText
 10
37.91367959459123
 20
53.99088328568693
 30
0.0
 40
3.0
  1
bN{ù
 41
0.7
  7
SIMPLEX
100
AcDbText
  0
TEXT
  5
295
330
20
100
AcDbEntity
  8
0
100
AcDbText
 10
53.77026191639473
 20
68.2605247422063
 30
0.0
 40
2.0
  1
SW1
  7
SIMPLEX
100
AcDbText
  0
TEXT
  5
296
330
20
100
AcDbEntity
  8
0
100
AcDbText
 10
56.2080011431755
 20
56.71890297590384
 30
0.0
 40
2.0
  1
SW2
  7
SIMPLEX
100
AcDbText
  0
TEXT
  5
297
330
20
100
AcDbEntity
  8
0
100
AcDbText
 10
52.22437850428983
 20
64.0111094555222
 30
0.0
 40
2.0
  1
C
  7
SIMPLEX
100
AcDbText
  0
TEXT
  5
298
330
20
100
AcDbEntity
  8
0
100
AcDbText
 10
60.78619432517839
 20
64.0111094555222
 30
0.0
 40
2.0
  1
NO
  7
SIMPLEX
100
AcDbText
  0
TEXT
  5
299
330
20
100
AcDbEntity
  8
0
100
AcDbText
 10
54.78103183969406
 20
51.83994468378511
 30
0.0
 40
2.0
  1
C
  7
SIMPLEX
100
AcDbText
  0
TEXT
  5
29A
330
20
100
AcDbEntity
  8
0
100
AcDbText
 10
62.8671912260888
 20
51.78748276666555
 30
0.0
 40
2.0
  1
NC
  7
SIMPLEX
100
AcDbText
  0
LINE
  5
29C
330
20
100
AcDbEntity
  8
T
100
AcDbLine
 10
215.9943637372088
 20
170.0096745910267
 30
0.0
 11
215.9943637372088
 21
144.3699343422374
 31
0.0
  0
LINE
  5
29D
330
20
100
AcDbEntity
  8
0
100
AcDbLine
 10
188.414127991404
 20
201.8468545554854
 30
0.0
 11
188.414127991404
 21
190.8468545554854
 31
0.0
  0
LINE
  5
29E
330
20
100
AcDbEntity
  8
0
100
AcDbLine
 10
82.53005303881094
 20
202.2595544375858
 30
0.0
 11
82.53005303881094
 21
191.2595544375857
 31
0.0
  0
CIRCLE
  5
29F
330
20
100
AcDbEntity
  8
0
100
AcDbCircle
 10
65.63005303881102
 20
166.7595544375857
 30
0.0
 40
2.049999999999999
  0
LINE
  5
2A0
330
20
100
AcDbEntity
  8
0
100
AcDbLine
 10
78.11164907209439
 20
158.6389774713617
 30
0.0
 11
78.63201655068895
 21
160.6377231971563
 31
0.0
  0
LINE
  5
2A1
330
20
100
AcDbEntity
  8
0
100
AcDbLine
 10
76.18954419650953
 20
158.2595544375857
 30
0.0
 11
78.11164907209439
 21
158.6389774713617
 31
0.0
  0
LINE
  5
2A2
330
20
100
AcDbEntity
  8
0
100
AcDbLine
 10
78.09948385136284
 20
157.8124333908028
 30
0.0
 11
76.18954419650953
 21
158.2595544375857
 31
0.0
  0
LINE
  5
2A3
330
20
100
AcDbEntity
  8
0
100
AcDbLine
 10
78.63005303881101
 20
155.5904252781315
 30
0.0
 11
78.09948385136284
 21
157.8124333908028
 31
0.0
  0
LINE
  5
2A4
330
20
100
AcDbEntity
  8
0
100
AcDbLine
 10
79.04837106842376
 20
157.8446364069285
 30
0.0
 11
78.63005303881101
 21
155.5904252781315
 31
0.0
  0
LINE
  5
2A5
330
20
100
AcDbEntity
  8
0
100
AcDbLine
 10
81.20161513790804
 20
158.2595544375857
 30
0.0
 11
79.04837106842376
 21
157.8446364069285
 31
0.0
  0
LINE
  5
2A6
330
20
100
AcDbEntity
  8
0
100
AcDbLine
 10
79.09703195134994
 20
158.6067744552361
 30
0.0
 11
81.20161513790804
 21
158.2595544375857
 31
0.0
  0
LINE
  5
2A7
330
20
100
AcDbEntity
  8
0
100
AcDbLine
 10
78.63005303881101
 20
160.6462988098619
 30
0.0
 11
79.09703195134994
 21
158.6067744552361
 31
0.0
  0
LINE
  5
2A8
330
20
100
AcDbEntity
  8
0
100
AcDbLine
 10
53.10127129067883
 20
193.1108623741578
 30
0.0
 11
53.6423097768616
 21
194.9852834881698
 31
0.0
  0
LINE
  5
2A9
330
20
100
AcDbEntity
  8
0
100
AcDbLine
 10
51.21369747895347
 20
192.7595544375857
 30
0.0
 11
53.10127129067883
 21
193.1108623741578
 31
0.0
  0
LINE
  5
2AA
330
20
100
AcDbEntity
  8
0
100
AcDbLine
 10
53.16419041773635
 20
192.4726514850525
 30
0.0
 11
51.21369747895347
 21
192.7595544375857
 31
0.0
  0
LINE
  5
2AB
330
20
100
AcDbEntity
  8
0
100
AcDbLine
 10
53.63005303881091
 20
190.2111650736579
 30
0.0
 11
53.16419041773635
 21
192.4726514850525
 31
0.0
  0
LINE
  5
2AC
330
20
100
AcDbEntity
  8
0
100
AcDbLine
 10
54.07651776007027
 20
192.4449031855262
 30
0.0
 11
53.63005303881091
 21
190.2111650736579
 31
0.0
  0
LINE
  5
2AD
330
20
100
AcDbEntity
  8
0
100
AcDbLine
 10
56.24722764355446
 20
192.7595544375857
 30
0.0
 11
54.07651776007027
 21
192.4449031855262
 31
0.0
  0
LINE
  5
2AE
330
20
100
AcDbEntity
  8
0
100
AcDbLine
 10
54.07651776007027
 20
193.0692399248683
 30
0.0
 11
56.24722764355446
 21
192.7595544375857
 31
0.0
  0
LINE
  5
2AF
330
20
100
AcDbEntity
  8
0
100
AcDbLine
 10
53.63005303881091
 20
195.0393691912366
 30
0.0
 11
54.07651776007027
 21
193.0692399248683
 31
0.0
  0
LINE
  5
2B0
330
20
100
AcDbEntity
  8
0
100
AcDbLine
 10
78.13252884682055
 20
232.1458532185079
 30
0.0
 11
78.63005303881101
 21
234.0187436269707
 31
0.0
  0
LINE
  5
2B1
330
20
100
AcDbEntity
  8
0
100
AcDbLine
 10
76.14475044884852
 20
231.7595544375858
 30
0.0
 11
78.13252884682055
 21
232.1458532185079
 31
0.0
  0
LINE
  5
2B2
330
20
100
AcDbEntity
  8
0
100
AcDbLine
 10
78.1079883727715
 20
231.3339065096368
 30
0.0
 11
76.14475044884852
 21
231.7595544375858
 31
0.0
  0
LINE
  5
2B3
330
20
100
AcDbEntity
  8
0
100
AcDbLine
 10
78.63005303881101
 20
229.2986267594
 30
0.0
 11
78.1079883727715
 21
231.3339065096368
 31
0.0
  0
LINE
  5
2B4
330
20
100
AcDbEntity
  8
0
100
AcDbLine
 10
79.08960733473304
 20
231.3230805535186
 30
0.0
 11
78.63005303881101
 21
229.2986267594
 31
0.0
  0
LINE
  5
2B5
330
20
100
AcDbEntity
  8
0
100
AcDbLine
 10
80.93014288841084
 20
231.7595544375858
 30
0.0
 11
79.08960733473304
 21
231.3230805535186
 31
0.0
  0
LINE
  5
2B6
330
20
100
AcDbEntity
  8
0
100
AcDbLine
 10
79.07733709770849
 20
232.1350272623897
 30
0.0
 11
80.93014288841084
 21
231.7595544375858
 31
0.0
  0
LINE
  5
2B7
330
20
100
AcDbEntity
  8
0
100
AcDbLine
 10
78.63005303881101
 20
234.0187436269706
 30
0.0
 11
79.07733709770849
 21
232.1350272623897
 31
0.0
  0
LINE
  5
2B8
330
20
100
AcDbEntity
  8
0
100
AcDbLine
 10
73.63005303881101
 20
219.2595544375858
 30
0.0
 11
73.63005303881101
 21
225.2595544375858
 31
0.0
  0
LINE
  5
2B9
330
20
100
AcDbEntity
  8
0
100
AcDbLine
 10
74.830053038811
 20
219.2595544375858
 30
0.0
 11
74.830053038811
 21
225.2595544375858
 31
0.0
  0
ARC
  5
2BA
330
20
100
AcDbEntity
  8
0
100
AcDbCircle
 10
74.38005303881095
 20
201.7595544375858
 30
0.0
 40
0.5
100
AcDbArc
 50
90.0
 51
180.0
  0
LINE
  5
2BB
330
20
100
AcDbEntity
  8
0
100
AcDbLine
 10
66.37991018166828
 20
185.6595544375858
 30
0.0
 11
66.37991018166828
 21
195.3595544375858
 31
0.0
  0
LINE
  5
2BC
330
20
100
AcDbEntity
  8
0
100
AcDbLine
 10
60.28850204598604
 20
158.0099376062831
 30
0.0
 11
53.57964599661142
 21
159.2620589531126
 31
0.0
  0
ARC
  5
2BD
330
20
100
AcDbEntity
  8
0
100
AcDbCircle
 10
57.88005303881114
 20
166.7595544375857
 30
0.0
 40
2.75
100
AcDbArc
 50
270.0000000000001
 51
317.6263980970297
  0
LINE
  5
2BE
330
20
100
AcDbEntity
  8
0
100
AcDbLine
 10
53.14117041189616
 20
170.0595544375858
 30
0.0
 11
53.86174754849009
 21
169.6435290338014
 31
0.0
  0
CIRCLE
  5
2BF
330
20
100
AcDbEntity
  8
0
100
AcDbCircle
 10
84.63005303881084
 20
231.7595544375858
 30
0.0
 40
2.0
  0
CIRCLE
  5
2C0
330
20
100
AcDbEntity
  8
0
100
AcDbCircle
 10
53.63005303881091
 20
202.7595544375857
 30
0.0
 40
2.0
  0
CIRCLE
  5
2C1
330
20
100
AcDbEntity
  8
0
100
AcDbCircle
 10
53.63005303881091
 20
202.7595544375857
 30
0.0
 40
1.75
  0
LINE
  5
2C2
330
20
100
AcDbEntity
  8
T
100
AcDbLine
 10
57.72402743985265
 20
202.7595544375857
 30
0.0
 11
48.89029437143683
 21
202.7595544375857
 31
0.0
  0
LINE
  5
2C3
330
20
100
AcDbEntity
  8
T
100
AcDbLine
 10
53.63005303881091
 20
199.2278833190211
 30
0.0
 11
53.63005303881091
 21
206.6728119392199
 31
0.0
  0
ARC
  5
2C4
330
20
100
AcDbEntity
  8
0
100
AcDbCircle
 10
54.36174754849009
 20
170.5095544375858
 30
0.0
 40
1.0
100
AcDbArc
 50
240.0000000000003
 51
270.0000000000001
  0
ARC
  5
2C5
330
20
100
AcDbEntity
  8
0
100
AcDbCircle
 10
52.13005303881102
 20
163.0095544375857
 30
0.0
 40
1.0
100
AcDbArc
 50
90.0
 51
180.0000000000005
  0
ARC
  5
2C6
330
20
100
AcDbEntity
  8
0
100
AcDbCircle
 10
57.88005303881114
 20
166.7595544375857
 30
0.0
 40
2.75
100
AcDbArc
 50
48.62921414554278
 51
90.0
  0
LINE
  5
2C7
330
20
100
AcDbEntity
  8
0
100
AcDbLine
 10
54.36174754849009
 20
169.5095544375858
 30
0.0
 11
58.13005303881102
 21
169.5095544375858
 31
0.0
  0
LINE
  5
2C8
330
20
100
AcDbEntity
  8
0
100
AcDbLine
 10
52.13005303881102
 20
164.0095544375857
 30
0.0
 11
58.13005303881102
 21
164.0095544375857
 31
0.0
  0
ARC
  5
2C9
330
20
100
AcDbEntity
  8
0
100
AcDbCircle
 10
54.13005303881102
 20
162.2111354336225
 30
0.0
 40
3.0
100
AcDbArc
 50
180.0000000000007
 51
259.4281143421038
  0
LINE
  5
2CA
330
20
100
AcDbEntity
  8
0
100
AcDbLine
 10
51.13005303881102
 20
163.0095544375857
 30
0.0
 11
51.13005303881102
 21
162.2111354336225
 31
0.0
  0
LINE
  5
2CB
330
20
100
AcDbEntity
  8
0
100
AcDbLine
 10
73.58005303881106
 20
179.8595544375858
 30
0.0
 11
74.88005303881101
 21
179.8595544375858
 31
0.0
  0
LINE
  5
2CC
330
20
100
AcDbEntity
  8
0
100
AcDbLine
 10
73.58005303881106
 20
174.6595544375858
 30
0.0
 11
73.58005303881106
 21
179.8595544375858
 31
0.0
  0
LINE
  5
2CD
330
20
100
AcDbEntity
  8
0
100
AcDbLine
 10
74.88005303881101
 20
174.6595544375858
 30
0.0
 11
73.58005303881106
 21
174.6595544375858
 31
0.0
  0
LINE
  5
2CE
330
20
100
AcDbEntity
  8
0
100
AcDbLine
 10
74.88005303881101
 20
179.8595544375858
 30
0.0
 11
74.88005303881101
 21
174.6595544375858
 31
0.0
  0
CIRCLE
  5
2CF
330
20
100
AcDbEntity
  8
0
100
AcDbCircle
 10
84.63005303881107
 20
158.2595544375857
 30
0.0
 40
2.0
  0
CIRCLE
  5
2D0
330
20
100
AcDbEntity
  8
0
100
AcDbCircle
 10
84.63005303881107
 20
158.2595544375857
 30
0.0
 40
1.75
  0
CIRCLE
  5
2D1
330
20
100
AcDbEntity
  8
0
100
AcDbCircle
 10
84.63005303881079
 20
231.7595544375858
 30
0.0
 40
1.75
  0
ARC
  5
2D2
330
20
100
AcDbEntity
  8
0
100
AcDbCircle
 10
49.13005303881107
 20
168.2595544375857
 30
0.0
 40
0.5
100
AcDbArc
 50
180.0000000000002
 51
270.0000000000001
  0
ARC
  5
2D3
330
20
100
AcDbEntity
  8
0
100
AcDbCircle
 10
49.63010640223002
 20
168.2595544375857
 30
0.0
 40
0.5
100
AcDbArc
 50
270.0000000000001
 51
345.0000000000003
  0
LINE
  5
2D4
330
20
100
AcDbEntity
  8
0
100
AcDbLine
 10
49.63010640223002
 20
167.7595544375857
 30
0.0
 11
49.13005303881107
 21
167.7595544375857
 31
0.0
  0
ARC
  5
2D5
330
20
100
AcDbEntity
  8
0
100
AcDbCircle
 10
49.13005303881091
 20
205.7595544375858
 30
0.0
 40
0.5
100
AcDbArc
 50
180.0000000000002
 51
270.0000000000001
  0
ARC
  5
2D6
330
20
100
AcDbEntity
  8
0
100
AcDbCircle
 10
49.13005303881096
 20
198.7595544375857
 30
0.0
 40
0.5
100
AcDbArc
 50
90.0
 51
180.0000000000004
  0
ARC
  5
2D7
330
20
100
AcDbEntity
  8
0
100
AcDbCircle
 10
49.13005303881102
 20
184.3595544375857
 30
0.0
 40
0.5
100
AcDbArc
 50
180.0000000000004
 51
270.0000000000001
  0
ARC
  5
2D8
330
20
100
AcDbEntity
  8
0
100
AcDbCircle
 10
49.13005303881107
 20
178.1595544375858
 30
0.0
 40
0.5
100
AcDbArc
 50
90.0
 51
180.0000000000001
  0
LINE
  5
2D9
330
20
100
AcDbEntity
  8
0
100
AcDbLine
 10
48.63005303881102
 20
184.3595544375857
 30
0.0
 11
48.63005303881096
 21
198.7595544375857
 31
0.0
  0
LINE
  5
2DA
330
20
100
AcDbEntity
  8
0
100
AcDbLine
 10
48.63005303881091
 20
205.7595544375858
 30
0.0
 11
48.63005303881079
 21
239.7595544375858
 31
0.0
  0
ARC
  5
2DB
330
20
100
AcDbEntity
  8
0
100
AcDbCircle
 10
84.23005303881097
 20
152.2595544375858
 30
0.0
 40
0.5
100
AcDbArc
 50
180.0
 51
270.0000000000001
  0
ARC
  5
2DC
330
20
100
AcDbEntity
  8
0
100
AcDbCircle
 10
78.03005303881104
 20
152.2595544375858
 30
0.0
 40
0.5
100
AcDbArc
 50
270.0000000000001
 51
0.000000000000007
  0
LINE
  5
2DD
330
20
100
AcDbEntity
  8
0
100
AcDbLine
 10
78.03005303881104
 20
151.7595544375858
 30
0.0
 11
61.57690014472451
 21
151.7595544375858
 31
0.0
  0
ARC
  5
2DE
330
20
100
AcDbEntity
  8
0
100
AcDbCircle
 10
50.63005303881079
 20
239.7595544375858
 30
0.0
 40
2.0
100
AcDbArc
 50
90.00000000000007
 51
180.0000000000002
  0
CIRCLE
  5
2DF
330
20
100
AcDbEntity
  8
0
100
AcDbCircle
 10
78.63005303881101
 20
158.2595544375857
 30
0.0
 40
3.1
  0
LINE
  5
2E0
330
20
100
AcDbEntity
  8
0
100
AcDbLine
 10
74.830053038811
 20
174.7595544375857
 30
0.0
 11
73.63005303881101
 21
174.7595544375857
 31
0.0
  0
LINE
  5
2E1
330
20
100
AcDbEntity
  8
0
100
AcDbLine
 10
74.830053038811
 20
179.7595544375857
 30
0.0
 11
73.63005303881101
 21
179.7595544375857
 31
0.0
  0
ARC
  5
2E2
330
20
100
AcDbEntity
  8
0
100
AcDbCircle
 10
83.38005303881095
 20
201.7595544375858
 30
0.0
 40
0.5
100
AcDbArc
 50
0.0000000000001597
 51
90.0
  0
ARC
  5
2E3
330
20
100
AcDbEntity
  8
0
100
AcDbCircle
 10
74.38005303881095
 20
201.7595544375858
 30
0.0
 40
0.5
100
AcDbArc
 50
180.0
 51
180.0000000000002
  0
ARC
  5
2E4
330
20
100
AcDbEntity
  8
0
100
AcDbCircle
 10
74.38005303881102
 20
191.7595544375857
 30
0.0
 40
0.5
100
AcDbArc
 50
180.0
 51
270.0000000000001
  0
ARC
  5
2E5
330
20
100
AcDbEntity
  8
0
100
AcDbCircle
 10
83.38005303881102
 20
191.7595544375857
 30
0.0
 40
0.5
100
AcDbArc
 50
270.0000000000001
 51
0.000000000000007
  0
LINE
  5
2E6
330
20
100
AcDbEntity
  8
0
100
AcDbLine
 10
74.38005303881095
 20
202.2595544375858
 30
0.0
 11
83.38005303881095
 21
202.2595544375858
 31
0.0
  0
LINE
  5
2E7
330
20
100
AcDbEntity
  8
0
100
AcDbLine
 10
73.88005303881101
 20
191.7595544375857
 30
0.0
 11
73.88005303881095
 21
201.7595544375858
 31
0.0
  0
LINE
  5
2E8
330
20
100
AcDbEntity
  8
0
100
AcDbLine
 10
83.38005303881102
 20
191.2595544375857
 30
0.0
 11
74.38005303881102
 21
191.2595544375857
 31
0.0
  0
LINE
  5
2E9
330
20
100
AcDbEntity
  8
0
100
AcDbLine
 10
83.88005303881095
 20
201.7595544375858
 30
0.0
 11
83.88005303881101
 21
191.7595544375857
 31
0.0
  0
LINE
  5
2EA
330
20
100
AcDbEntity
  8
0
100
AcDbLine
 10
49.13005303881091
 20
205.2595544375857
 30
0.0
 11
49.88005303881091
 21
205.2595544375857
 31
0.0
  0
LINE
  5
2EB
330
20
100
AcDbEntity
  8
0
100
AcDbLine
 10
49.88005303881091
 20
199.2595544375857
 30
0.0
 11
49.13005303881096
 21
199.2595544375857
 31
0.0
  0
LINE
  5
2EC
330
20
100
AcDbEntity
  8
0
100
AcDbLine
 10
49.88005303881091
 20
205.2595544375857
 30
0.0
 11
49.88005303881091
 21
199.2595544375857
 31
0.0
  0
LINE
  5
2ED
330
20
100
AcDbEntity
  8
0
100
AcDbLine
 10
49.13005303881102
 20
183.8595544375858
 30
0.0
 11
49.88005303881102
 21
183.8595544375858
 31
0.0
  0
LINE
  5
2EE
330
20
100
AcDbEntity
  8
0
100
AcDbLine
 10
49.88005303881102
 20
178.6595544375858
 30
0.0
 11
49.13005303881107
 21
178.6595544375858
 31
0.0
  0
LINE
  5
2EF
330
20
100
AcDbEntity
  8
0
100
AcDbLine
 10
49.88005303881102
 20
183.8595544375858
 30
0.0
 11
49.88005303881102
 21
178.6595544375858
 31
0.0
  0
LINE
  5
2F0
330
20
100
AcDbEntity
  8
0
100
AcDbLine
 10
64.77991018166831
 20
195.3595544375858
 30
0.0
 11
66.4799101816683
 21
195.3595544375858
 31
0.0
  0
LINE
  5
2F1
330
20
100
AcDbEntity
  8
0
100
AcDbLine
 10
64.77991018166831
 20
185.6595544375858
 30
0.0
 11
64.77991018166831
 21
195.3595544375858
 31
0.0
  0
LINE
  5
2F2
330
20
100
AcDbEntity
  8
0
100
AcDbLine
 10
66.4799101816683
 20
185.6595544375858
 30
0.0
 11
64.77991018166831
 21
185.6595544375858
 31
0.0
  0
LINE
  5
2F3
330
20
100
AcDbEntity
  8
0
100
AcDbLine
 10
66.4799101816683
 20
195.3595544375858
 30
0.0
 11
66.4799101816683
 21
185.6595544375858
 31
0.0
  0
LINE
  5
2F4
330
20
100
AcDbEntity
  8
0
100
AcDbLine
 10
73.58005303881106
 20
225.2595544375858
 30
0.0
 11
74.88005303881101
 21
225.2595544375858
 31
0.0
  0
LINE
  5
2F5
330
20
100
AcDbEntity
  8
0
100
AcDbLine
 10
73.58005303881106
 20
219.2595544375858
 30
0.0
 11
73.58005303881106
 21
225.2595544375858
 31
0.0
  0
LINE
  5
2F6
330
20
100
AcDbEntity
  8
0
100
AcDbLine
 10
74.88005303881101
 20
219.2595544375858
 30
0.0
 11
73.58005303881106
 21
219.2595544375858
 31
0.0
  0
LINE
  5
2F7
330
20
100
AcDbEntity
  8
0
100
AcDbLine
 10
74.88005303881101
 20
225.2595544375858
 30
0.0
 11
74.88005303881101
 21
219.2595544375858
 31
0.0
  0
LINE
  5
2F8
330
20
100
AcDbEntity
  8
0
100
AcDbLine
 10
80.88005303881095
 20
215.3595544375858
 30
0.0
 11
82.58005303881089
 21
215.3595544375858
 31
0.0
  0
LINE
  5
2F9
330
20
100
AcDbEntity
  8
0
100
AcDbLine
 10
80.88005303881095
 20
209.1595544375858
 30
0.0
 11
80.88005303881095
 21
215.3595544375858
 31
0.0
  0
LINE
  5
2FA
330
20
100
AcDbEntity
  8
0
100
AcDbLine
 10
82.58005303881089
 20
209.1595544375858
 30
0.0
 11
80.88005303881095
 21
209.1595544375858
 31
0.0
  0
LINE
  5
2FB
330
20
100
AcDbEntity
  8
0
100
AcDbLine
 10
82.58005303881089
 20
215.3595544375858
 30
0.0
 11
82.58005303881089
 21
209.1595544375858
 31
0.0
  0
LINE
  5
2FC
330
20
100
AcDbEntity
  8
0
100
AcDbLine
 10
80.88005303881095
 20
171.8595544375857
 30
0.0
 11
82.58005303881089
 21
171.8595544375857
 31
0.0
  0
LINE
  5
2FD
330
20
100
AcDbEntity
  8
0
100
AcDbLine
 10
80.88005303881095
 20
166.6595544375858
 30
0.0
 11
80.88005303881095
 21
171.8595544375857
 31
0.0
  0
LINE
  5
2FE
330
20
100
AcDbEntity
  8
0
100
AcDbLine
 10
82.58005303881089
 20
166.6595544375858
 30
0.0
 11
80.88005303881095
 21
166.6595544375858
 31
0.0
  0
LINE
  5
2FF
330
20
100
AcDbEntity
  8
0
100
AcDbLine
 10
82.58005303881089
 20
171.8595544375857
 30
0.0
 11
82.58005303881089
 21
166.6595544375858
 31
0.0
  0
LINE
  5
300
330
20
100
AcDbEntity
  8
0
100
AcDbLine
 10
78.53005303881104
 20
153.0095544375857
 30
0.0
 11
83.73005303881104
 21
153.0095544375858
 31
0.0
  0
LINE
  5
301
330
20
100
AcDbEntity
  8
0
100
AcDbLine
 10
78.53005303881104
 20
152.2595544375858
 30
0.0
 11
78.53005303881104
 21
153.0095544375857
 31
0.0
  0
LINE
  5
302
330
20
100
AcDbEntity
  8
0
100
AcDbLine
 10
83.73005303881104
 20
153.0095544375858
 30
0.0
 11
83.73005303881098
 21
152.2595544375858
 31
0.0
  0
ARC
  5
303
330
20
100
AcDbEntity
  8
0
100
AcDbCircle
 10
78.63005303881073
 20
239.7595544375858
 30
0.0
 40
0.5
100
AcDbArc
 50
270.0000000000001
 51
0.000000000000007
  0
ARC
  5
304
330
20
100
AcDbEntity
  8
0
100
AcDbCircle
 10
74.63005303881073
 20
239.7595544375858
 30
0.0
 40
0.5
100
AcDbArc
 50
180.0000000000009
 51
270.0000000000001
  0
ARC
  5
305
330
20
100
AcDbEntity
  8
0
100
AcDbCircle
 10
63.63005303881074
 20
239.7595544375858
 30
0.0
 40
0.5
100
AcDbArc
 50
270.0000000000001
 51
359.9999999999996
  0
ARC
  5
306
330
20
100
AcDbEntity
  8
0
100
AcDbCircle
 10
59.63005303881073
 20
239.7595544375858
 30
0.0
 40
0.5
100
AcDbArc
 50
180.0000000000004
 51
270.0000000000001
  0
ARC
  5
307
330
20
100
AcDbEntity
  8
0
100
AcDbCircle
 10
58.63005303881074
 20
241.2595544375858
 30
0.0
 40
0.5
100
AcDbArc
 50
0.0000000000003124
 51
90.00000000000005
  0
ARC
  5
308
330
20
100
AcDbEntity
  8
0
100
AcDbCircle
 10
64.63005303881074
 20
241.2595544375858
 30
0.0
 40
0.5
100
AcDbArc
 50
90.00000000000005
 51
180.0
  0
ARC
  5
309
330
20
100
AcDbEntity
  8
0
100
AcDbCircle
 10
73.63005303881067
 20
241.2595544375858
 30
0.0
 40
0.5
100
AcDbArc
 50
0.0000000000006686
 51
90.00000000000005
  0
ARC
  5
30A
330
20
100
AcDbEntity
  8
0
100
AcDbCircle
 10
79.63005303881073
 20
241.2595544375858
 30
0.0
 40
0.5
100
AcDbArc
 50
90.0
 51
180.0
  0
LINE
  5
30B
330
20
100
AcDbEntity
  8
0
100
AcDbLine
 10
73.63005303881067
 20
241.7595544375858
 30
0.0
 11
64.63005303881074
 21
241.7595544375858
 31
0.0
  0
LINE
  5
30C
330
20
100
AcDbEntity
  8
0
100
AcDbLine
 10
63.63005303881074
 20
239.2595544375858
 30
0.0
 11
59.63005303881073
 21
239.2595544375858
 31
0.0
  0
LINE
  5
30D
330
20
100
AcDbEntity
  8
0
100
AcDbLine
 10
58.63005303881074
 20
241.7595544375858
 30
0.0
 11
50.63005303881079
 21
241.7595544375858
 31
0.0
  0
LINE
  5
30E
330
20
100
AcDbEntity
  8
0
100
AcDbLine
 10
78.63005303881073
 20
239.2595544375858
 30
0.0
 11
74.63005303881073
 21
239.2595544375858
 31
0.0
  0
LINE
  5
30F
330
20
100
AcDbEntity
  8
0
100
AcDbLine
 10
59.13005303881074
 20
239.7595544375858
 30
0.0
 11
59.13005303881074
 21
241.2595544375858
 31
0.0
  0
LINE
  5
310
330
20
100
AcDbEntity
  8
0
100
AcDbLine
 10
79.13005303881073
 20
239.7595544375858
 30
0.0
 11
79.13005303881073
 21
241.2595544375858
 31
0.0
  0
LINE
  5
311
330
20
100
AcDbEntity
  8
0
100
AcDbLine
 10
74.13005303881073
 20
239.7595544375858
 30
0.0
 11
74.13005303881067
 21
241.2595544375858
 31
0.0
  0
LINE
  5
312
330
20
100
AcDbEntity
  8
0
100
AcDbLine
 10
64.13005303881075
 20
239.7595544375858
 30
0.0
 11
64.13005303881075
 21
241.2595544375858
 31
0.0
  0
ARC
  5
313
330
20
100
AcDbEntity
  8
0
100
AcDbCircle
 10
61.57690014472451
 20
152.7595544375858
 30
0.0
 40
1.0
100
AcDbArc
 50
183.1278061212861
 51
270.0000000000001
  0
ARC
  5
314
330
20
100
AcDbEntity
  8
0
100
AcDbCircle
 10
58.68320593289759
 20
169.0595544375858
 30
0.0
 40
1.0
100
AcDbArc
 50
3.127806121286119
 51
89.99999999999998
  0
LINE
  5
315
330
20
100
AcDbEntity
  8
0
100
AcDbLine
 10
59.68171624073455
 20
169.1141178423856
 30
0.0
 11
60.57838983688754
 21
152.7049910327859
 31
0.0
  0
LINE
  5
316
330
20
100
AcDbEntity
  8
0
100
AcDbLine
 10
74.830053038811
 20
219.7595544375857
 30
0.0
 11
73.63005303881101
 21
219.7595544375857
 31
0.0
  0
LINE
  5
317
330
20
100
AcDbEntity
  8
0
100
AcDbLine
 10
74.830053038811
 20
224.7595544375858
 30
0.0
 11
73.63005303881101
 21
224.7595544375858
 31
0.0
  0
CIRCLE
  5
318
330
20
100
AcDbEntity
  8
0
100
AcDbCircle
 10
53.63005303881096
 20
192.7595544375857
 30
0.0
 40
3.1
  0
CIRCLE
  5
319
330
20
100
AcDbEntity
  8
0
100
AcDbCircle
 10
78.63005303881101
 20
231.7595544375858
 30
0.0
 40
3.1
  0
ARC
  5
31A
330
20
100
AcDbEntity
  8
0
100
AcDbCircle
 10
86.63005303881073
 20
239.7595544375858
 30
0.0
 40
2.0
100
AcDbArc
 50
0.0000000000002615
 51
90.0
  0
ARC
  5
31B
330
20
100
AcDbEntity
  8
0
100
AcDbCircle
 10
86.63005303881112
 20
153.7595544375858
 30
0.0
 40
2.0
100
AcDbArc
 50
270.0000000000001
 51
0.0000000000002615
  0
ARC
  5
31C
330
20
100
AcDbEntity
  8
0
100
AcDbCircle
 10
51.39738002679003
 20
169.0595544375858
 30
0.0
 40
1.0
100
AcDbArc
 50
90.0
 51
165.0000000000001
  0
LINE
  5
31D
330
20
100
AcDbEntity
  8
0
100
AcDbLine
 10
50.43145420050093
 20
169.3183734826883
 30
0.0
 11
50.11306931537457
 21
168.1301449150345
 31
0.0
  0
LINE
  5
31E
330
20
100
AcDbEntity
  8
0
100
AcDbLine
 10
58.68320593289759
 20
170.0595544375858
 30
0.0
 11
51.39738002679003
 21
170.0595544375858
 31
0.0
  0
LINE
  5
31F
330
20
100
AcDbEntity
  8
0
100
AcDbLine
 10
86.63005303881073
 20
241.7595544375858
 30
0.0
 11
79.63005303881073
 21
241.7595544375858
 31
0.0
  0
LINE
  5
320
330
20
100
AcDbEntity
  8
0
100
AcDbLine
 10
88.63005303881113
 20
153.7595544375858
 30
0.0
 11
88.63005303881072
 21
239.7595544375858
 31
0.0
  0
LINE
  5
321
330
20
100
AcDbEntity
  8
0
100
AcDbLine
 10
48.63005303881108
 20
168.2595544375857
 30
0.0
 11
48.63005303881108
 21
178.1595544375858
 31
0.0
  0
LINE
  5
322
330
20
100
AcDbEntity
  8
0
100
AcDbLine
 10
86.63005303881112
 20
151.7595544375858
 30
0.0
 11
84.23005303881097
 21
151.7595544375858
 31
0.0
  0
LINE
  5
323
330
20
100
AcDbEntity
  8
T
100
AcDbLine
 10
84.63005303881081
 20
234.8510736200442
 30
0.0
 11
84.63005303881084
 21
228.1913118729675
 31
0.0
  0
LINE
  5
324
330
20
100
AcDbEntity
  8
0
100
AcDbLine
 10
78.63005303881101
 20
227.0542793795641
 30
0.0
 11
78.63005303881101
 21
236.4212613490298
 31
0.0
  0
LINE
  5
325
330
20
100
AcDbEntity
  8
T
100
AcDbLine
 10
73.51620152969013
 20
231.7595544375858
 30
0.0
 11
89.03865574312948
 21
231.7595544375858
 31
0.0
  0
LINE
  5
326
330
20
100
AcDbEntity
  8
T
100
AcDbLine
 10
84.63005303881113
 20
154.9009412557615
 30
0.0
 11
84.63005303881113
 21
161.445662872098
 31
0.0
  0
LINE
  5
327
330
20
100
AcDbEntity
  8
T
100
AcDbLine
 10
40.05861876500523
 20
183.1595544375857
 30
0.0
 11
51.62956307210592
 21
183.1595544375857
 31
0.0
  0
LINE
  5
328
330
20
100
AcDbEntity
  8
0
100
AcDbLine
 10
48.63005303881096
 20
183.7595544375857
 30
0.0
 11
49.83005303881098
 21
183.7595544375857
 31
0.0
  0
LINE
  5
329
330
20
100
AcDbEntity
  8
0
100
AcDbLine
 10
48.63005303881102
 20
178.7595544375857
 30
0.0
 11
49.83005303881101
 21
178.7595544375857
 31
0.0
  0
LINE
  5
32A
330
20
100
AcDbEntity
  8
0
100
AcDbLine
 10
41.63005303881096
 20
182.1595544375857
 30
0.0
 11
41.63005303881096
 21
184.1595544375857
 31
0.0
  0
LINE
  5
32B
330
20
100
AcDbEntity
  8
0
100
AcDbLine
 10
48.63005303881102
 20
180.1595544375857
 30
0.0
 11
43.63005303881096
 21
180.1595544375857
 31
0.0
  0
LINE
  5
32C
330
20
100
AcDbEntity
  8
0
100
AcDbLine
 10
48.63005303881096
 20
186.1595544375857
 30
0.0
 11
43.63005303881096
 21
186.1595544375857
 31
0.0
  0
ARC
  5
32D
330
20
100
AcDbEntity
  8
0
100
AcDbCircle
 10
43.63005303881096
 20
182.1595544375857
 30
0.0
 40
2.0
100
AcDbArc
 50
180.0
 51
270.0000000000001
  0
ARC
  5
32E
330
20
100
AcDbEntity
  8
0
100
AcDbCircle
 10
43.63005303881096
 20
184.1595544375857
 30
0.0
 40
2.0
100
AcDbArc
 50
90.0
 51
180.0
  0
LINE
  5
32F
330
20
100
AcDbEntity
  8
0
100
AcDbLine
 10
48.63005303881102
 20
178.7595544375857
 30
0.0
 11
48.63005303881084
 21
204.7595544375858
 31
0.0
  0
LINE
  5
330
330
20
100
AcDbEntity
  8
0
100
AcDbLine
 10
49.83005303881095
 20
199.7595544375857
 30
0.0
 11
48.63005303881091
 21
199.7595544375857
 31
0.0
  0
LINE
  5
331
330
20
100
AcDbEntity
  8
0
100
AcDbLine
 10
49.83005303881089
 20
204.7595544375858
 30
0.0
 11
48.63005303881084
 21
204.7595544375858
 31
0.0
  0
LINE
  5
332
330
20
100
AcDbEntity
  8
0
100
AcDbLine
 10
47.6300530388109
 20
192.7595544375857
 30
0.0
 11
59.6300530388109
 21
192.7595544375857
 31
0.0
  0
LINE
  5
333
330
20
100
AcDbEntity
  8
0
100
AcDbLine
 10
53.63005303881091
 20
198.7595544375857
 30
0.0
 11
53.63005303881091
 21
186.7595544375857
 31
0.0
  0
LINE
  5
334
330
20
100
AcDbEntity
  8
0
100
AcDbLine
 10
47.6300530388109
 20
192.7595544375857
 30
0.0
 11
59.6300530388109
 21
192.7595544375857
 31
0.0
  0
LINE
  5
335
330
20
100
AcDbEntity
  8
0
100
AcDbLine
 10
53.63005303881091
 20
198.7595544375857
 30
0.0
 11
53.63005303881091
 21
186.7595544375857
 31
0.0
  0
LINE
  5
336
330
20
100
AcDbEntity
  8
0
100
AcDbLine
 10
66.37991018166828
 20
185.6595544375858
 30
0.0
 11
64.87991018166834
 21
185.6595544375858
 31
0.0
  0
LINE
  5
337
330
20
100
AcDbEntity
  8
0
100
AcDbLine
 10
64.87991018166834
 20
185.6595544375858
 30
0.0
 11
64.87991018166828
 21
195.3595544375858
 31
0.0
  0
LINE
  5
338
330
20
100
AcDbEntity
  8
0
100
AcDbLine
 10
66.37991018166828
 20
191.6595544375858
 30
0.0
 11
64.87991018166834
 21
191.6595544375858
 31
0.0
  0
LINE
  5
339
330
20
100
AcDbEntity
  8
0
100
AcDbLine
 10
83.84514406129472
 20
158.2595544375857
 30
0.0
 11
72.23088559986468
 21
158.2595544375857
 31
0.0
  0
LINE
  5
33A
330
20
100
AcDbEntity
  8
T
100
AcDbLine
 10
78.63005303881101
 20
227.3791458062508
 30
0.0
 11
78.63005303881101
 21
236.3129725401342
 31
0.0
  0
LINE
  5
33B
330
20
100
AcDbEntity
  8
T
100
AcDbLine
 10
47.43005303881097
 20
192.7595544375857
 30
0.0
 11
59.83005303881095
 21
192.7595544375857
 31
0.0
  0
LINE
  5
33C
330
20
100
AcDbEntity
  8
T
100
AcDbLine
 10
53.63005303881091
 20
198.9595544375857
 30
0.0
 11
53.63005303881091
 21
186.5595544375857
 31
0.0
  0
LINE
  5
33D
330
20
100
AcDbEntity
  8
0
100
AcDbLine
 10
60.530053038811
 20
166.7595544375857
 30
0.0
 11
70.73005303881105
 21
166.7595544375857
 31
0.0
  0
LINE
  5
33E
330
20
100
AcDbEntity
  8
0
100
AcDbLine
 10
65.63005303881102
 20
171.8595544375857
 30
0.0
 11
65.63005303881102
 21
161.6595544375857
 31
0.0
  0
LINE
  5
33F
330
20
100
AcDbEntity
  8
T
100
AcDbLine
 10
78.63005303881101
 20
153.6351049556908
 30
0.0
 11
78.63005303881101
 21
162.7482634750063
 31
0.0
  0
LINE
  5
340
330
20
100
AcDbEntity
  8
T
100
AcDbLine
 10
73.94649021746634
 20
158.2595544375857
 30
0.0
 11
89.64552509864914
 21
158.2595544375857
 31
0.0
  0
LINE
  5
341
330
20
100
AcDbEntity
  8
T
100
AcDbLine
 10
65.63005303881102
 20
173.7595544375857
 30
0.0
 11
65.63005303881102
 21
171.7595544375857
 31
0.0
  0
LINE
  5
342
330
20
100
AcDbEntity
  8
0
100
AcDbLine
 10
65.63005303881102
 20
162.9535996158398
 30
0.0
 11
65.63005303881102
 21
170.4218850239738
 31
0.0
  0
LINE
  5
343
330
20
100
AcDbEntity
  8
0
100
AcDbLine
 10
82.53005303881094
 20
209.7595544375858
 30
0.0
 11
80.93005303881097
 21
209.7595544375858
 31
0.0
  0
LINE
  5
344
330
20
100
AcDbEntity
  8
0
100
AcDbLine
 10
82.53005303881094
 20
214.7595544375858
 30
0.0
 11
80.93005303881097
 21
214.7595544375858
 31
0.0
  0
LINE
  5
345
330
20
100
AcDbEntity
  8
0
100
AcDbLine
 10
65.63005303881102
 20
162.4075330826852
 30
0.0
 11
65.63005303881102
 21
171.1592690805914
 31
0.0
  0
LINE
  5
346
330
20
100
AcDbEntity
  8
0
100
AcDbLine
 10
76.3500498601611
 20
200.0588925504043
 30
0.0
 11
75.08323062355481
 21
202.2595544375858
 31
0.0
  0
LINE
  5
347
330
20
100
AcDbEntity
  8
0
100
AcDbLine
 10
75.3707566065658
 20
199.373488656498
 30
0.0
 11
73.88005303881095
 21
201.1469554172031
 31
0.0
  0
CIRCLE
  5
348
330
20
100
AcDbEntity
  8
0
100
AcDbCircle
 10
75.83005303881089
 20
199.7595544375857
 30
0.0
 40
0.6
  0
CIRCLE
  5
349
330
20
100
AcDbEntity
  8
0
100
AcDbCircle
 10
76.43005303881091
 20
194.2595544375857
 30
0.0
 40
1.0
  0
CIRCLE
  5
34A
330
20
100
AcDbEntity
  8
0
100
AcDbCircle
 10
80.23005303881086
 20
199.7595544375857
 30
0.0
 40
0.75
  0
LINE
  5
34B
330
20
100
AcDbEntity
  8
0
100
AcDbLine
 10
78.86623235171874
 20
199.7595544375857
 30
0.0
 11
81.5438737578097
 21
199.7595544375857
 31
0.0
  0
LINE
  5
34C
330
20
100
AcDbEntity
  8
0
100
AcDbLine
 10
76.43005303881091
 20
192.4190851676706
 30
0.0
 11
76.43005303881091
 21
195.7486786523339
 31
0.0
  0
LINE
  5
34D
330
20
100
AcDbEntity
  8
0
100
AcDbLine
 10
77.87836464850068
 20
194.2595544375857
 30
0.0
 11
74.55081027976621
 21
194.2595544375857
 31
0.0
  0
LINE
  5
34E
330
20
100
AcDbEntity
  8
0
100
AcDbLine
 10
74.93005303881091
 20
200.7595544375857
 30
0.0
 11
80.9300530388109
 21
200.7595544375857
 31
0.0
  0
LINE
  5
34F
330
20
100
AcDbEntity
  8
0
100
AcDbLine
 10
74.93005303881091
 20
192.7595544375857
 30
0.0
 11
74.93005303881091
 21
200.7595544375857
 31
0.0
  0
LINE
  5
350
330
20
100
AcDbEntity
  8
0
100
AcDbLine
 10
80.9300530388109
 20
192.7595544375857
 30
0.0
 11
74.93005303881091
 21
192.7595544375857
 31
0.0
  0
LINE
  5
351
330
20
100
AcDbEntity
  8
0
100
AcDbLine
 10
80.23005303881086
 20
199.2595544375857
 30
0.0
 11
85.13005303881085
 21
199.2595544375857
 31
0.0
  0
LINE
  5
352
330
20
100
AcDbEntity
  8
0
100
AcDbLine
 10
80.23005303881086
 20
194.2595544375857
 30
0.0
 11
85.13005303881085
 21
194.2595544375857
 31
0.0
  0
LINE
  5
353
330
20
100
AcDbEntity
  8
0
100
AcDbLine
 10
83.88005303881095
 20
199.6595544375857
 30
0.0
 11
80.9300530388109
 21
199.6595544375857
 31
0.0
  0
LINE
  5
354
330
20
100
AcDbEntity
  8
0
100
AcDbLine
 10
80.9300530388109
 20
198.8595544375858
 30
0.0
 11
83.88005303881101
 21
198.8595544375858
 31
0.0
  0
LINE
  5
355
330
20
100
AcDbEntity
  8
0
100
AcDbLine
 10
83.88005303881101
 20
197.1595544375857
 30
0.0
 11
80.9300530388109
 21
197.1595544375857
 31
0.0
  0
LINE
  5
356
330
20
100
AcDbEntity
  8
0
100
AcDbLine
 10
80.9300530388109
 20
196.3595544375858
 30
0.0
 11
83.88005303881101
 21
196.3595544375858
 31
0.0
  0
LINE
  5
357
330
20
100
AcDbEntity
  8
0
100
AcDbLine
 10
83.88005303881101
 20
194.6595544375857
 30
0.0
 11
80.9300530388109
 21
194.6595544375857
 31
0.0
  0
LINE
  5
358
330
20
100
AcDbEntity
  8
0
100
AcDbLine
 10
80.9300530388109
 20
193.8595544375857
 30
0.0
 11
83.88005303881101
 21
193.8595544375857
 31
0.0
  0
LINE
  5
359
330
20
100
AcDbEntity
  8
0
100
AcDbLine
 10
80.9300530388109
 20
202.2595544375858
 30
0.0
 11
80.9300530388109
 21
191.2595544375857
 31
0.0
  0
LINE
  5
35A
330
20
100
AcDbEntity
  8
0
100
AcDbLine
 10
75.7549157715518
 20
202.2595544375858
 30
0.0
 11
76.4079459368811
 21
199.9209229548375
 31
0.0
  0
LINE
  5
35B
330
20
100
AcDbEntity
  8
0
100
AcDbLine
 10
74.0289795255681
 20
202.1155704320251
 30
0.0
 11
75.28951422634384
 21
199.4991359432028
 31
0.0
  0
LINE
  5
35C
330
20
100
AcDbEntity
  8
T
100
AcDbLine
 10
61.31143297210132
 20
166.7595544375857
 30
0.0
 11
69.86310385373106
 21
166.7595544375857
 31
0.0
  0
LINE
  5
35D
330
20
100
AcDbEntity
  8
0
100
AcDbLine
 10
78.03005303881104
 20
151.7595544375858
 30
0.0
 11
84.23005303881097
 21
151.7595544375858
 31
0.0
  0
LINE
  5
35E
330
20
100
AcDbEntity
  8
0
100
AcDbLine
 10
78.63005303881101
 20
151.7595544375858
 30
0.0
 11
78.63005303881104
 21
153.0095544375857
 31
0.0
  0
LINE
  5
35F
330
20
100
AcDbEntity
  8
0
100
AcDbLine
 10
83.630053038811
 20
151.7595544375858
 30
0.0
 11
83.63005303881104
 21
153.0095544375858
 31
0.0
  0
LWPOLYLINE
  5
360
330
20
100
AcDbEntity
  8
0
100
AcDbPolyline
 90
       16
 70
     1
 43
0.0
 10
81.24863716979936
 20
55.05411751379796
 42
0.0554126108584769
 10
81.32809245964235
 20
54.33937662193002
 42
0.0692093214080953
 10
81.53107014863158
 20
53.79950165643951
 42
0.1058274332142485
 10
81.8802895631817
 20
53.39213198814605
 42
0.1642628795780698
 10
82.21292367658969
 20
53.27982275275329
 42
0.1642628795780616
 10
82.54555778999767
 20
53.39213198814604
 42
0.1058274332142542
 10
82.89477720454781
 20
53.79950165643951
 42
0.0692093214081042
 10
83.09775489353704
 20
54.33937662193006
 42
0.0554126108584889
 10
83.17721018338003
 20
55.05411751379796
 42
0.0554126108584949
 10
83.09775489353702
 20
55.76885840566592
 42
0.0692093214081002
 10
82.89477720454781
 20
56.30873337115641
 42
0.1058274332142545
 10
82.54555778999767
 20
56.71610303944987
 42
0.1642628795780616
 10
82.21292367658969
 20
56.82841227484264
 42
0.1642628795780634
 10
81.88028956318174
 20
56.71610303944988
 42
0.1058274332142599
 10
81.53107014863158
 20
56.30873337115641
 42
0.0692093214081064
 10
81.32809245964235
 20
55.76885840566585
 42
0.0554126108584796
  0
LWPOLYLINE
  5
372
330
20
100
AcDbEntity
  8
0
100
AcDbPolyline
 90
       16
 70
     1
 43
0.0
 10
82.79808899267614
 20
55.05411751379796
 42
0.0554126108584769
 10
82.87754428251913
 20
54.33937662193002
 42
0.0692093214080953
 10
83.08052197150834
 20
53.79950165643951
 42
0.1058274332142485
 10
83.42974138605848
 20
53.39213198814605
 42
0.1642628795780698
 10
83.76237549946647
 20
53.27982275275329
 42
0.1642628795780616
 10
84.09500961287445
 20
53.39213198814604
 42
0.1058274332142542
 10
84.44422902742459
 20
53.79950165643951
 42
0.0692093214081042
 10
84.64720671641382
 20
54.33937662193006
 42
0.0554126108584889
 10
84.72666200625681
 20
55.05411751379796
 42
0.0554126108584949
 10
84.6472067164138
 20
55.76885840566592
 42
0.0692093214081002
 10
84.44422902742459
 20
56.30873337115641
 42
0.1058274332142545
 10
84.09500961287445
 20
56.71610303944987
 42
0.1642628795780616
 10
83.76237549946647
 20
56.82841227484264
 42
0.1642628795780634
 10
83.42974138605852
 20
56.71610303944988
 42
0.1058274332142599
 10
83.08052197150834
 20
56.30873337115641
 42
0.0692093214081064
 10
82.87754428251913
 20
55.76885840566585
 42
0.0554126108584796
  0
LWPOLYLINE
  5
384
330
20
100
AcDbEntity
  8
0
100
AcDbPolyline
 90
       16
 70
     1
 43
0.0
 10
84.36402434558353
 20
55.05411751379796
 42
0.0554126108584769
 10
84.44347963542652
 20
54.33937662193002
 42
0.0692093214080953
 10
84.64645732441573
 20
53.79950165643951
 42
0.1058274332142485
 10
84.99567673896587
 20
53.39213198814605
 42
0.1642628795780698
 10
85.32831085237386
 20
53.27982275275329
 42
0.1642628795780616
 10
85.66094496578184
 20
53.39213198814604
 42
0.1058274332142542
 10
86.01016438033198
 20
53.79950165643951
 42
0.0692093214081042
 10
86.21314206932121
 20
54.33937662193006
 42
0.0554126108584889
 10
86.2925973591642
 20
55.05411751379796
 42
0.0554126108584949
 10
86.21314206932119
 20
55.76885840566592
 42
0.0692093214081002
 10
86.01016438033198
 20
56.30873337115641
 42
0.1058274332142545
 10
85.66094496578184
 20
56.71610303944987
 42
0.1642628795780616
 10
85.32831085237386
 20
56.82841227484264
 42
0.1642628795780634
 10
84.9956767389659
 20
56.71610303944988
 42
0.1058274332142599
 10
84.64645732441573
 20
56.30873337115641
 42
0.0692093214081064
 10
84.44347963542652
 20
55.76885840566585
 42
0.0554126108584796
  0
LWPOLYLINE
  5
396
330
20
100
AcDbEntity
  8
0
100
AcDbPolyline
 90
       16
 70
     1
 43
0.0
 10
85.97941028858272
 20
55.05411751379796
 42
0.0554126108584769
 10
86.05886557842572
 20
54.33937662193002
 42
0.0692093214080953
 10
86.26184326741492
 20
53.79950165643951
 42
0.1058274332142485
 10
86.61106268196506
 20
53.39213198814605
 42
0.1642628795780698
 10
86.94369679537306
 20
53.27982275275329
 42
0.1642628795780616
 10
87.27633090878104
 20
53.39213198814604
 42
0.1058274332142542
 10
87.62555032333118
 20
53.79950165643951
 42
0.0692093214081042
 10
87.8285280123204
 20
54.33937662193006
 42
0.0554126108584889
 10
87.9079833021634
 20
55.05411751379796
 42
0.0554126108584949
 10
87.82852801232039
 20
55.76885840566592
 42
0.0692093214081002
 10
87.62555032333118
 20
56.30873337115641
 42
0.1058274332142545
 10
87.27633090878104
 20
56.71610303944987
 42
0.1642628795780616
 10
86.94369679537306
 20
56.82841227484264
 42
0.1642628795780634
 10
86.6110626819651
 20
56.71610303944988
 42
0.1058274332142599
 10
86.26184326741492
 20
56.30873337115641
 42
0.0692093214081064
 10
86.05886557842572
 20
55.76885840566585
 42
0.0554126108584796
  0
LWPOLYLINE
  5
3A8
330
20
100
AcDbEntity
  8
0
100
AcDbPolyline
 90
       16
 70
     1
 43
0.0
 10
87.59479623158192
 20
55.05411751379796
 42
0.0554126108584769
 10
87.67425152142491
 20
54.33937662193002
 42
0.0692093214080953
 10
87.87722921041412
 20
53.79950165643951
 42
0.1058274332142485
 10
88.22644862496426
 20
53.39213198814605
 42
0.1642628795780698
 10
88.55908273837226
 20
53.27982275275329
 42
0.1642628795780616
 10
88.89171685178023
 20
53.39213198814604
 42
0.1058274332142542
 10
89.24093626633037
 20
53.79950165643951
 42
0.0692093214081042
 10
89.4439139553196
 20
54.33937662193006
 42
0.0554126108584889
 10
89.52336924516259
 20
55.05411751379796
 42
0.0554126108584949
 10
89.44391395531958
 20
55.76885840566592
 42
0.0692093214081002
 10
89.24093626633037
 20
56.30873337115641
 42
0.1058274332142545
 10
88.89171685178023
 20
56.71610303944987
 42
0.1642628795780616
 10
88.55908273837226
 20
56.82841227484264
 42
0.1642628795780634
 10
88.2264486249643
 20
56.71610303944988
 42
0.1058274332142599
 10
87.87722921041412
 20
56.30873337115641
 42
0.0692093214081064
 10
87.67425152142491
 20
55.76885840566585
 42
0.0554126108584796
  0
LWPOLYLINE
  5
3BA
330
20
100
AcDbEntity
  8
0
100
AcDbPolyline
 90
       16
 70
     1
 43
0.0
 10
88.84754451390783
 20
55.05411751379796
 42
0.0554126108584769
 10
88.92699980375082
 20
54.33937662193002
 42
0.0692093214080953
 10
89.12997749274003
 20
53.79950165643951
 42
0.1058274332142485
 10
89.47919690729017
 20
53.39213198814605
 42
0.1642628795780698
 10
89.81183102069817
 20
53.27982275275329
 42
0.1642628795780616
 10
90.14446513410614
 20
53.39213198814604
 42
0.1058274332142542
 10
90.49368454865629
 20
53.79950165643951
 42
0.0692093214081042
 10
90.69666223764551
 20
54.33937662193006
 42
0.0554126108584889
 10
90.7761175274885
 20
55.05411751379796
 42
0.0554126108584949
 10
90.69666223764549
 20
55.76885840566592
 42
0.0692093214081002
 10
90.49368454865629
 20
56.30873337115641
 42
0.1058274332142545
 10
90.14446513410614
 20
56.71610303944987
 42
0.1642628795780616
 10
89.81183102069817
 20
56.82841227484264
 42
0.1642628795780634
 10
89.47919690729021
 20
56.71610303944988
 42
0.1058274332142599
 10
89.12997749274003
 20
56.30873337115641
 42
0.0692093214081064
 10
88.92699980375082
 20
55.76885840566585
 42
0.0554126108584796
  0
LINE
  5
3CC
330
20
100
AcDbEntity
  8
0
  6
H5
100
AcDbLine
 10
206.0642708485467
 20
185.2468545554854
 30
0.0
 11
206.0642708485467
 21
183.7468545554855
 31
0.0
  0
LINE
  5
3CD
330
20
100
AcDbEntity
  8
0
  6
H2
100
AcDbLine
 10
197.8141279914041
 20
176.3468545554854
 30
0.0
 11
199.4141279914041
 21
176.3468545554854
 31
0.0
  0
LINE
  5
3CE
330
20
100
AcDbEntity
  8
0
  6
H2
100
AcDbLine
 10
197.814127991404
 20
179.3468545554854
 30
0.0
 11
197.8141279914041
 21
181.1370540132345
 31
0.0
  0
LINE
  5
3CF
330
20
100
AcDbEntity
  8
0
  6
H2
100
AcDbLine
 10
198.314127991404
 20
178.8468545554854
 30
0.0
 11
198.914127991404
 21
178.8468545554854
 31
0.0
  0
ARC
  5
3D0
330
20
100
AcDbEntity
  8
0
  6
H2
100
AcDbCircle
 10
202.8141279914041
 20
181.1370540132345
 30
0.0
 40
5.0
100
AcDbArc
 50
99.59406822685881
 51
180.0
  0
ARC
  5
3D1
330
20
100
AcDbEntity
  8
0
  6
H2
100
AcDbCircle
 10
198.314127991404
 20
179.3468545554854
 30
0.0
 40
0.5
100
AcDbArc
 50
180.0
 51
270.0
  0
ARC
  5
3D2
330
20
100
AcDbEntity
  8
0
100
AcDbCircle
 10
198.914127991404
 20
178.3468545554854
 30
0.0
 40
0.5
100
AcDbArc
 50
0.0
 51
90.0
  0
LINE
  5
3D3
330
20
100
AcDbEntity
  8
0
100
AcDbLine
 10
203.314127991404
 20
173.5633086126013
 30
0.0
 11
203.314127991404
 21
181.051039491403
 31
0.0
  0
LINE
  5
3D4
330
20
100
AcDbEntity
  8
0
100
AcDbLine
 10
210.0783482121059
 20
172.124346645235
 30
0.0
 11
216.2119382685621
 21
176.4191326390537
 31
0.0
  0
CIRCLE
  5
3D5
330
20
100
AcDbEntity
  8
0
100
AcDbCircle
 10
203.314127991404
 20
177.1635083818776
 30
0.0
 40
1.0
  0
ARC
  5
3D6
330
20
100
AcDbEntity
  8
0
100
AcDbCircle
 10
205.314127991404
 20
166.3468545554854
 30
0.0
 40
9.0
100
AcDbArc
 50
45.47568169638973
 51
100.4756816963896
  0
ARC
  5
3D7
330
20
100
AcDbEntity
  8
0
100
AcDbCircle
 10
205.314127991404
 20
166.3468545554854
 30
0.0
 40
13.0
100
AcDbArc
 50
45.47568169638966
 51
100.4756816963897
  0
ARC
  5
3D8
330
20
100
AcDbEntity
  8
0
100
AcDbCircle
 10
203.314127991404
 20
177.1635083818776
 30
0.0
 40
2.0
100
AcDbArc
 50
100.4756816963897
 51
280.4756816963902
  0
ARC
  5
3D9
330
20
100
AcDbEntity
  8
0
100
AcDbCircle
 10
213.0274592129574
 20
174.1893363990484
 30
0.0
 40
2.0
100
AcDbArc
 50
225.4756816963892
 51
45.47568169638987
  0
ARC
  5
3DA
330
20
100
AcDbEntity
  8
0
100
AcDbCircle
 10
205.314127991404
 20
166.3468545554854
 30
0.0
 40
11.0
100
AcDbArc
 50
30.47022041078696
 51
115.3511387992983
  0
TEXT
  5
3DB
330
20
100
AcDbEntity
  8
0
100
AcDbText
 10
140.7415580414447
 20
202.9412490492412
 30
0.0
 40
2.0
  1
1
  7
SIMPLEX
100
AcDbText
  0
TEXT
  5
3DC
330
20
100
AcDbEntity
  8
0
100
AcDbText
 10
140.441007497966
 20
187.2949413446119
 30
0.0
 40
2.0
  1
7
  7
SIMPLEX
100
AcDbText
  0
ARC
  5
3DD
330
20
100
AcDbEntity
  8
0
100
AcDbCircle
 10
57.91672181725757
 20
174.6020362811487
 30
0.0
 40
2.0
100
AcDbArc
 50
134.5243183036101
 51
314.5243183036108
  0
ARC
  5
3DE
330
20
100
AcDbEntity
  8
0
100
AcDbCircle
 10
67.63005303881103
 20
177.5762082639779
 30
0.0
 40
2.0
100
AcDbArc
 50
259.5243183036098
 51
79.52431830361028
  0
ARC
  5
3DF
330
20
100
AcDbEntity
  8
0
100
AcDbCircle
 10
65.63005303881102
 20
166.7595544375857
 30
0.0
 40
13.0
100
AcDbArc
 50
79.5243183036103
 51
134.5243183036103
  0
ARC
  5
3E0
330
20
100
AcDbEntity
  8
0
100
AcDbCircle
 10
65.63005303881102
 20
166.7595544375857
 30
0.0
 40
9.0
100
AcDbArc
 50
79.52431830361039
 51
134.5243183036102
  0
LINE
  5
3E1
330
20
100
AcDbEntity
  8
0
100
AcDbLine
 10
136.1237481459336
 20
71.582763040382
 30
0.0
 11
137.3237481459336
 21
71.582763040382
 31
0.0
  0
LINE
  5
3E2
330
20
100
AcDbEntity
  8
0
100
AcDbLine
 10
137.3237481459336
 20
71.582763040382
 30
0.0
 11
137.3237481459336
 21
78.582763040382
 31
0.0
  0
LINE
  5
3E3
330
20
100
AcDbEntity
  8
0
100
AcDbLine
 10
136.1237481459336
 20
71.582763040382
 30
0.0
 11
136.1237481459336
 21
78.582763040382
 31
0.0
  0
LINE
  5
3E4
330
20
100
AcDbEntity
  8
0
100
AcDbLine
 10
136.1237481459336
 20
98.58276304038197
 30
0.0
 11
136.1237481459336
 21
99.58276304038195
 31
0.0
  0
LINE
  5
3E5
330
20
100
AcDbEntity
  8
0
100
AcDbLine
 10
137.3237481459336
 20
98.58276304038197
 30
0.0
 11
137.3237481459336
 21
99.58276304038195
 31
0.0
  0
LINE
  5
3E6
330
20
100
AcDbEntity
  8
0
100
AcDbLine
 10
137.3237481459336
 20
82.58276304038199
 30
0.0
 11
137.3237481459336
 21
92.58276304038195
 31
0.0
  0
LINE
  5
3E7
330
20
100
AcDbEntity
  8
0
100
AcDbLine
 10
136.1237481459336
 20
82.58276304038199
 30
0.0
 11
136.1237481459336
 21
92.58276304038195
 31
0.0
  0
LINE
  5
3E8
330
20
100
AcDbEntity
  8
0
100
AcDbLine
 10
130.8237481459335
 20
82.58276304038201
 30
0.0
 11
142.6237481459335
 21
82.58276304038201
 31
0.0
  0
LINE
  5
3E9
330
20
100
AcDbEntity
  8
0
100
AcDbLine
 10
129.9237481459335
 20
81.082763040382
 30
0.0
 11
129.9237481459335
 21
78.582763040382
 31
0.0
  0
LINE
  5
3EA
330
20
100
AcDbEntity
  8
0
100
AcDbLine
 10
143.5237481459335
 20
81.082763040382
 30
0.0
 11
143.5237481459335
 21
78.582763040382
 31
0.0
  0
LINE
  5
3EB
330
20
100
AcDbEntity
  8
0
100
AcDbLine
 10
138.2237481459336
 20
99.58276304038195
 30
0.0
 11
138.2237481459336
 21
103.582763040382
 31
0.0
  0
LINE
  5
3EC
330
20
100
AcDbEntity
  8
0
100
AcDbLine
 10
135.2237481459336
 20
99.58276304038195
 30
0.0
 11
135.2237481459336
 21
103.582763040382
 31
0.0
  0
LINE
  5
3ED
330
20
100
AcDbEntity
  8
0
100
AcDbLine
 10
138.2237481459336
 20
99.58276304038195
 30
0.0
 11
135.2237481459336
 21
99.58276304038195
 31
0.0
  0
LINE
  5
3EE
330
20
100
AcDbEntity
  8
0
100
AcDbLine
 10
138.2237481459336
 20
103.0827630403819
 30
0.0
 11
142.6237481459336
 21
103.0827630403819
 31
0.0
  0
LINE
  5
3EF
330
20
100
AcDbEntity
  8
0
100
AcDbLine
 10
138.2237481459336
 20
101.4827630403819
 30
0.0
 11
142.6237481459335
 21
101.4827630403819
 31
0.0
  0
LINE
  5
3F0
330
20
100
AcDbEntity
  8
0
100
AcDbLine
 10
138.7463677757839
 20
78.84332999062464
 30
0.0
 11
139.8216597477412
 21
99.07308971492746
 31
0.0
  0
LINE
  5
3F1
330
20
100
AcDbEntity
  8
0
100
AcDbLine
 10
139.8216597477412
 20
99.07308971492746
 30
0.0
 11
140.4441972051901
 21
91.78038620937632
 31
0.0
  0
LINE
  5
3F2
330
20
100
AcDbEntity
  8
0
100
AcDbLine
 10
140.4441972051901
 20
91.78038620937632
 30
0.0
 11
141.1233289769526
 21
99.17298976294871
 31
0.0
  0
LINE
  5
3F3
330
20
100
AcDbEntity
  8
0
100
AcDbLine
 10
141.1233289769526
 20
99.17298976294871
 30
0.0
 11
141.6326778057745
 21
91.58058611333382
 31
0.0
  0
LINE
  5
3F4
330
20
100
AcDbEntity
  8
0
100
AcDbLine
 10
141.6326778057745
 20
91.58058611333382
 30
0.0
 11
142.2552152632234
 21
99.22293978695932
 31
0.0
  0
LINE
  5
3F5
330
20
100
AcDbEntity
  8
0
100
AcDbLine
 10
142.2552152632234
 20
99.22293978695932
 30
0.0
 11
142.4815925204775
 21
91.78038620937632
 31
0.0
  0
LINE
  5
3F6
330
20
100
AcDbEntity
  8
0
100
AcDbLine
 10
139.0459448700896
 20
78.82740627977096
 30
0.0
 11
140.1212368420469
 21
99.05716600407378
 31
0.0
  0
LINE
  5
3F7
330
20
100
AcDbEntity
  8
0
100
AcDbLine
 10
140.1205726228109
 20
99.09860624128878
 30
0.0
 11
140.7431100802599
 21
91.80590273573763
 31
0.0
  0
LINE
  5
3F8
330
20
100
AcDbEntity
  8
0
100
AcDbLine
 10
141.4226561546565
 20
99.19307061671176
 30
0.0
 11
141.9320049834783
 21
91.60066696709689
 31
0.0
  0
LINE
  5
3F9
330
20
100
AcDbEntity
  8
0
100
AcDbLine
 10
141.9316873999639
 20
91.55622913111747
 30
0.0
 11
142.5542248574128
 21
99.19858280474299
 31
0.0
  0
LINE
  5
3FA
330
20
100
AcDbEntity
  8
0
100
AcDbLine
 10
140.7429392470218
 20
91.7529418576403
 30
0.0
 11
141.4220710187843
 21
99.14554541121269
 31
0.0
  0
LINE
  5
3FB
330
20
100
AcDbEntity
  8
0
100
AcDbLine
 10
136.1237481459336
 20
91.78276304038201
 30
0.0
 11
137.3237481459336
 21
91.78276304038201
 31
0.0
  0
LINE
  5
3FC
330
20
100
AcDbEntity
  8
0
100
AcDbLine
 10
137.9540473753944
 20
91.98018630541881
 30
0.0
 11
135.2375202883445
 21
91.98018630541881
 31
0.0
  0
LINE
  5
3FD
330
20
100
AcDbEntity
  8
0
100
AcDbLine
 10
135.2375202883445
 20
91.98018630541881
 30
0.0
 11
137.5783114161859
 21
92.58276304038195
 31
0.0
  0
LINE
  5
3FE
330
20
100
AcDbEntity
  8
0
100
AcDbLine
 10
135.4073032312851
 20
98.52363945081059
 30
0.0
 11
138.2370189469621
 21
99.07308971492746
 31
0.0
  0
LINE
  5
3FF
330
20
100
AcDbEntity
  8
0
100
AcDbLine
 10
138.2370189469621
 20
99.07308971492746
 30
0.0
 11
135.4073032312851
 21
99.37278985899119
 31
0.0
  0
LINE
  5
400
330
20
100
AcDbEntity
  8
0
100
AcDbLine
 10
135.4073032312851
 20
99.37278985899119
 30
0.0
 11
136.4825952032424
 21
99.57258995503371
 31
0.0
  0
LINE
  5
45E
330
20
100
AcDbEntity
  8
0
100
AcDbLine
 10
222.3141279914039
 20
187.2468545554854
 30
0.0
 11
222.3141279914039
 21
197.3555541199707
 31
0.0
  0
TEXT
  5
66A
330
20
100
AcDbEntity
  8
0
100
AcDbText
 10
292.930803937582
 20
16.05555411997073
 30
0.0
 40
4.0
  1
dCù
  7
SIMPLEX
100
AcDbText
  0
TEXT
  5
66B
330
20
100
AcDbEntity
  8
0
100
AcDbText
 10
292.930803937582
 20
7.055554119970735
 30
0.0
 40
4.0
  1
MF30A-03
  7
SIMPLEX
100
AcDbText
  0
LINE
  5
6DE
330
20
100
AcDbEntity
  8
0
100
AcDbLine
 10
6.730803937582183
 20
4.355554119970689
 30
0.0
 11
-9.431954731937423
 21
4.355554119970689
 31
0.0
  0
LINE
  5
6DF
330
20
100
AcDbEntity
  8
0
100
AcDbLine
 10
6.730803937582183
 20
4.355554119970689
 30
0.0
 11
6.730803937582183
 21
-9.517804600314367
 31
0.0
  0
LINE
  5
6E0
330
20
100
AcDbEntity
  8
0
100
AcDbLine
 10
391.1308039375823
 20
274.7555541199707
 30
0.0
 11
404.3182975880143
 21
274.7555541199707
 31
0.0
  0
LINE
  5
6E1
330
20
100
AcDbEntity
  8
0
100
AcDbLine
 10
391.1308039375823
 20
274.7555541199707
 30
0.0
 11
391.1308039375823
 21
289.0012954988858
 31
0.0
  0
LINE
  5
791
330
20
100
AcDbEntity
  8
0
100
AcDbLine
 10
212.288297501689
 20
170.1468545554855
 30
0.0
 11
219.5468010034249
 21
170.1468545554855
 31
0.0
  0
LINE
  5
792
330
20
100
AcDbEntity
  8
0
100
AcDbLine
 10
220.512726829714
 20
169.405673600588
 30
0.0
 11
220.965086311056
 21
167.7174450329341
 31
0.0
  0
ARC
  5
793
330
20
100
AcDbEntity
  8
0
100
AcDbCircle
 10
221.4480492242005
 20
167.8468545554854
 30
0.0
 40
0.5
100
AcDbArc
 50
194.9999999999997
 51
270.0
  0
ARC
  5
794
330
20
100
AcDbEntity
  8
0
100
AcDbCircle
 10
219.5468010034249
 20
169.1468545554855
 30
0.0
 40
1.0
100
AcDbArc
 50
14.99999999999927
 51
90.0
  0
ARC
  5
795
330
20
100
AcDbEntity
  8
0
100
AcDbCircle
 10
212.288297501689
 20
169.1468545554855
 30
0.0
 40
1.0
100
AcDbArc
 50
90.0
 51
176.8721938787138
  0
INSERT
  5
87B
330
20
100
AcDbEntity
  8
0
100
AcDbBlockReference
  2
SUG-AR01
 10
134.1782855482274
 20
230.4482535689475
 30
0.0
 41
0.5
 42
0.5
 43
0.5
 50
104.6029997794117
  0
LINE
  5
8B9
330
20
100
AcDbEntity
  8
0
100
AcDbLine
 10
139.3499672590754
 20
92.58276304038195
 30
0.0
 11
139.3499672590754
 21
98.58276304038197
 31
0.0
  0
INSERT
  5
8C6
330
20
100
AcDbEntity
  8
0
100
AcDbBlockReference
  2
SUG-AR01
 10
140.1041404304835
 20
232.3156448133559
 30
0.0
 41
0.5
 42
0.5
 43
0.5
 50
89.1883640842655
  0
TEXT
  5
900
330
20
100
AcDbEntity
  8
0
100
AcDbText
 10
94.2070041185841
 20
84.93702756714929
 30
0.0
 40
2.0
  1
1
  7
SIMPLEX
100
AcDbText
  0
TEXT
  5
901
330
20
100
AcDbEntity
  8
0
100
AcDbText
 10
76.48219710241533
 20
85.02202531184964
 30
0.0
 40
2.0
  1
2
  7
SIMPLEX
100
AcDbText
  0
TEXT
  5
902
330
20
100
AcDbEntity
  8
0
100
AcDbText
 10
70.6060382546637
 20
84.85202982244892
 30
0.0
 40
2.0
  1
3
  7
SIMPLEX
100
AcDbText
  0
TEXT
  5
903
330
20
100
AcDbEntity
  8
0
100
AcDbText
 10
63.38125278611665
 20
85.02202531184966
 30
0.0
 40
2.0
  1
4
  7
SIMPLEX
100
AcDbText
  0
TEXT
  5
904
330
20
100
AcDbEntity
  8
0
100
AcDbText
 10
49.99131705107611
 20
85.02202531184964
 30
0.0
 40
2.0
  1
5
  7
SIMPLEX
100
AcDbText
  0
TEXT
  5
905
330
20
100
AcDbEntity
  8
0
100
AcDbText
 10
33.90412807444465
 20
85.10702305655001
 30
0.0
 40
2.0
  1
6
  7
SIMPLEX
100
AcDbText
  0
TEXT
  5
906
330
20
100
AcDbEntity
  8
0
100
AcDbText
 10
24.27108078304856
 20
85.27701854595076
 30
0.0
 40
2.0
  1
7
  7
SIMPLEX
100
AcDbText
  0
LINE
  5
921
330
20
100
AcDbEntity
  8
0
100
AcDbLine
 10
139.3499672590754
 20
98.58276304038197
 30
0.0
 11
130.8237481459336
 21
98.58276304038197
 31
0.0
  0
LINE
  5
922
330
20
100
AcDbEntity
  8
0
100
AcDbLine
 10
139.3499672590754
 20
92.58276304038195
 30
0.0
 11
130.8237481459336
 21
92.58276304038195
 31
0.0
  0
LWPOLYLINE
  5
931
330
20
100
AcDbEntity
  8
0
100
AcDbPolyline
 90
        3
 70
     0
 43
0.0
 10
135.6750960036475
 20
216.1468545554854
 42
-0.0982150738034222
 10
135.605402708573
 20
233.1056516492435
 42
0.1038741633760543
 10
135.5357094134985
 20
237.656456179801
 42
7.79317429721813
  0
LWPOLYLINE
  5
936
330
20
100
AcDbEntity
  8
0
100
AcDbPolyline
 90
        3
 70
     0
 43
0.0
 10
138.1840546263308
 20
216.1468545554854
 42
-0.0739448678425849
 10
138.0446680361818
 20
233.3516410833277
 42
0.0698731966063496
 10
138.0446680361818
 20
237.717953538322
 42
16.97455399390593
  0
ARC
  5
93B
330
20
100
AcDbEntity
  8
0
100
AcDbCircle
 10
137.5495265790985
 20
237.6484198236401
 30
0.0
 40
0.5
100
AcDbArc
 50
7.993886007958622
 51
187.9938860079586
  0
ARC
  5
93C
330
20
100
AcDbEntity
  8
0
100
AcDbCircle
 10
135.0480150642612
 20
237.5462099929191
 30
0.0
 40
0.5
100
AcDbArc
 50
12.73795411109369
 51
192.7379541110936
  0
LINE
  5
93D
330
20
100
AcDbEntity
  8
0
100
AcDbLine
 10
137.1747629471285
 20
236.3468545554854
 30
0.0
 11
135.7502189860581
 21
236.3468545554854
 31
0.0
  0
LINE
  5
93E
330
20
100
AcDbEntity
  8
0
100
AcDbLine
 10
134.7444264421027
 20
236.3468545554854
 30
0.0
 11
128.7237481459336
 21
236.3468545554854
 31
0.0
  0
LWPOLYLINE
  5
93F
330
20
100
AcDbEntity
  8
0
100
AcDbPolyline
 90
        3
 70
     0
 43
0.0
 10
134.6552447500864
 20
216.1468545554854
 42
-0.097068612818631
 10
134.623719548974
 20
233.2961724464275
 42
0.1038741633760542
 10
134.5603207150238
 20
237.4359638060373
 42
0.1038741633760542
  0
LWPOLYLINE
  5
944
330
20
100
AcDbEntity
  8
0
100
AcDbPolyline
 90
        3
 70
     0
 43
0.0
 10
137.1720157597972
 20
216.1468545554854
 42
-0.0732816546436764
 10
137.0543851220153
 20
233.4907085126916
 42
0.0698731966063494
 10
137.0543851220153
 20
237.5788861089582
 42
0.0698731966063494
  0
LINE
  5
94A
330
20
100
AcDbEntity
  8
0
100
AcDbLine
 10
213.4943637372088
 20
158.127041575982
 30
0.0
 11
213.4943637372088
 21
148.2202992803198
 31
0.0
  0
LINE
  5
94B
330
20
100
AcDbEntity
  8
0
100
AcDbLine
 10
218.4943637372088
 20
159.3131170933535
 30
0.0
 11
218.4943637372088
 21
147.8452094752376
 31
0.0
  0
CIRCLE
  5
94C
330
20
100
AcDbEntity
  8
0
100
AcDbCircle
 10
27.69353809233664
 20
55.16327468204891
 30
0.0
 40
0.5
  0
CIRCLE
  5
94D
330
20
100
AcDbEntity
  8
0
100
AcDbCircle
 10
30.92072469540333
 20
55.16327468204891
 30
0.0
 40
0.5
  0
ENDSEC
  0
SECTION
  2
OBJECTS
  0
DICTIONARY
  5
C
330
0
100
AcDbDictionary
281
     1
  3
ACAD_COLOR
350
1B
  3
ACAD_GROUP
350
D
  3
ACAD_LAYOUT
350
19
  3
ACAD_MATERIAL
350
1A
  3
ACAD_MLINESTYLE
350
16
  3
ACAD_PLOTSETTINGS
350
18
  3
ACAD_PLOTSTYLENAME
350
E
  3
ACDBHEADERROUNDTRIPXREC
350
C07
  3
AcDbVariableDictionary
350
C02
  0
DICTIONARY
  5
984
330
2
100
AcDbDictionary
280
     1
281
     1
  3
ACAD_LAYERSTATES
360
985
  0
DICTIONARY
  5
1B
102
{ACAD_REACTORS
330
C
102
}
330
C
100
AcDbDictionary
281
     1
  0
DICTIONARY
  5
D
102
{ACAD_REACTORS
330
C
102
}
330
C
100
AcDbDictionary
281
     1
  3
*A1
350
983
  3
*A2
350
B0C
  0
DICTIONARY
  5
19
102
{ACAD_REACTORS
330
C
102
}
330
C
100
AcDbDictionary
281
     1
  3
Model
350
23
  3
CAEg1
350
1F
  0
DICTIONARY
  5
1A
102
{ACAD_REACTORS
330
C
102
}
330
C
100
AcDbDictionary
281
     1
  0
DICTIONARY
  5
16
102
{ACAD_REACTORS
330
C
102
}
330
C
100
AcDbDictionary
281
     1
  3
Standard
350
17
  0
DICTIONARY
  5
18
102
{ACAD_REACTORS
330
C
102
}
330
C
100
AcDbDictionary
281
     1
  0
ACDBDICTIONARYWDFLT
  5
E
102
{ACAD_REACTORS
330
C
102
}
330
C
100
AcDbDictionary
281
     1
  3
Normal
350
F
100
AcDbDictionaryWithDefault
340
F
  0
DICTIONARY
  5
C07
102
{ACAD_REACTORS
330
C
102
}
330
C
100
AcDbDictionary
281
     1
  3
COLORDICT
350
C09
  3
MATERIALDICT
350
C08
  0
DICTIONARY
  5
C02
102
{ACAD_REACTORS
330
C
102
}
330
C
100
AcDbDictionary
281
     1
  3
DIMASSOC
350
C04
  3
HIDETEXT
350
C03
  3
PROJECTNAME
350
C05
  0
DICTIONARY
  5
985
102
{ACAD_REACTORS
330
984
102
}
330
984
100
AcDbDictionary
281
     1
  3
OPNUS
350
986
  0
GROUP
  5
983
102
{ACAD_REACTORS
330
D
102
}
330
D
100
AcDbGroup
300

 70
     3
 71
     1
340
A47
340
A46
340
A45
340
A44
340
A43
340
A42
340
A41
340
A40
340
A3F
340
A3E
340
A3D
340
A3C
340
A3B
340
A3A
340
A39
340
A38
340
A37
340
A36
340
A35
340
A34
340
A33
340
A32
340
A31
340
A30
340
A2F
340
A2E
340
A2D
340
A2C
340
A2B
340
A2A
340
A29
340
A28
340
A27
340
A26
340
A25
340
A24
340
A23
340
A22
340
A21
340
A20
340
A1F
340
A1E
340
A1D
340
A1C
340
A1B
340
A1A
340
A19
340
A18
340
A17
340
A16
340
A15
340
A14
340
A13
340
A12
  0
GROUP
  5
B0C
102
{ACAD_REACTORS
330
D
102
}
330
D
100
AcDbGroup
300

 70
     1
 71
     1
  0
LAYOUT
  5
23
102
{ACAD_XDICTIONARY
360
C0C
102
}
102
{ACAD_REACTORS
330
19
102
}
330
19
100
AcDbPlotSettings
  1

  2
Adobe PDF
  4
A4
  6

 40
3.174999952316284
 41
3.174999952316284
 42
3.175003051757812
 43
3.17498779296875
 44
209.9098358154297
 45
297.0318298339844
 46
0.0
 47
0.0
 48
6.6333853713611
 49
4.334654787177669
140
391.3558160984717
141
274.4555998676164
142
1.0
143
1.326985492912873
 70
 11952
 72
     1
 73
     1
 74
     4
  7

 75
     0
147
0.7535877410422131
148
-6.6333853713611
149
-4.334654787177669
100
AcDbLayout
  1
Model
 70
     1
 71
     0
 10
0.0
 20
0.0
 11
12.0
 21
9.0
 12
0.0
 22
0.0
 32
0.0
 14
0.0
 24
0.0
 34
0.0
 15
0.0
 25
0.0
 35
0.0
146
0.0
 13
0.0
 23
0.0
 33
0.0
 16
1.0
 26
0.0
 36
0.0
 17
0.0
 27
1.0
 37
0.0
 76
     0
330
20
  0
LAYOUT
  5
1F
102
{ACAD_XDICTIONARY
360
C0A
102
}
102
{ACAD_REACTORS
330
19
102
}
330
19
100
AcDbPlotSettings
  1

  2
\\OPNUS-FILE\Canon LBP-720
  4

  6

 40
0.0
 41
0.0
 42
0.0
 43
0.0
 44
0.0
 45
0.0
 46
0.0
 47
0.0
 48
0.0
 49
0.0
140
0.0
141
0.0
142
1.0
143
1.0
 70
   688
 72
     0
 73
     0
 74
     5
  7
monochrome.ctb
 75
    16
147
1.0
148
0.0
149
0.0
100
AcDbLayout
  1
CAEg1
 70
     0
 71
     1
 10
0.0
 20
0.0
 11
12.0
 21
9.0
 12
0.0
 22
0.0
 32
0.0
 14
1.000000000000000E+20
 24
1.000000000000000E+20
 34
1.000000000000000E+20
 15
-1.000000000000000E+20
 25
-1.000000000000000E+20
 35
-1.000000000000000E+20
146
0.0
 13
0.0
 23
0.0
 33
0.0
 16
1.0
 26
0.0
 36
0.0
 17
0.0
 27
1.0
 37
0.0
 76
     0
330
1C
  0
MLINESTYLE
  5
17
102
{ACAD_REACTORS
330
16
102
}
330
16
100
AcDbMlineStyle
  2
STANDARD
 70
     0
  3

 62
   256
 51
90.0
 52
90.0
 71
     2
 49
0.5
 62
   256
  6
BYLAYER
 49
-0.5
 62
   256
  6
BYLAYER
  0
ACDBPLACEHOLDER
  5
F
102
{ACAD_REACTORS
330
E
102
}
330
E
  0
XRECORD
  5
C09
102
{ACAD_REACTORS
330
C07
102
}
330
C07
100
AcDbXrecord
280
     1
340
1B
  0
XRECORD
  5
C08
102
{ACAD_REACTORS
330
C07
102
}
330
C07
100
AcDbXrecord
280
     1
340
1A
  0
DICTIONARYVAR
  5
C04
102
{ACAD_REACTORS
330
C02
102
}
330
C02
100
DictionaryVariables
280
     0
  1
2
  0
DICTIONARYVAR
  5
C03
102
{ACAD_REACTORS
330
C02
102
}
330
C02
100
DictionaryVariables
280
     0
  1
1
  0
DICTIONARYVAR
  5
C05
102
{ACAD_REACTORS
330
C02
102
}
330
C02
100
DictionaryVariables
280
     0
  1

  0
XRECORD
  5
986
102
{ACAD_REACTORS
330
985
102
}
330
985
100
AcDbXrecord
280
     1
 91
       16
330
0
 90
        8
 62
     7
370
    15
331
15
  1
F_7
330
0
 90
        8
 62
     6
370
    15
331
15
  1
F_6
330
0
 90
        8
 62
     5
370
    15
331
15
  1
F_5
330
0
 90
        8
 62
     4
370
    30
331
15
  1
F_4
330
0
 90
        8
 62
     3
370
    30
331
15
  1
F_3
330
0
 90
        8
 62
     2
370
    30
331
15
  1
F_2
330
0
 90
        8
 62
     1
370
    30
331
15
  1
F_1
330
10
 90
        8
 62
     7
370
    30
331
15
  1
F_7
  0
DICTIONARY
  5
C0C
330
23
100
AcDbDictionary
280
     1
281
     1
  3
ACAD_XREC_ROUNDTRIP
360
C0D
  0
DICTIONARY
  5
C0A
330
1F
100
AcDbDictionary
280
     1
281
     1
  3
ACAD_XREC_ROUNDTRIP
360
C0B
  0
XRECORD
  5
C0D
102
{ACAD_REACTORS
330
C0C
102
}
330
C0C
100
AcDbXrecord
280
     1
102
SHADEPLOT
 70
     0
102
SHADEPLOTRESLEVEL
 70
     2
102
SHADEPLOTCUSTOMDPI
 70
   300
  0
XRECORD
  5
C0B
102
{ACAD_REACTORS
330
C0A
102
}
330
C0A
100
AcDbXrecord
280
     1
102
SHADEPLOT
 70
     0
102
SHADEPLOTRESLEVEL
 70
     2
102
SHADEPLOTCUSTOMDPI
 70
   300
  0
ENDSEC
  0
EOF
