  0
SECTION
  2
HEADER
  9
$ACADVER
  1
AC1015
  9
$ACADMAINTVER
 70
    20
  9
$DWGCODEPAGE
  3
ANSI_932
  9
$INSBASE
 10
0.0
 20
0.0
 30
0.0
  9
$EXTMIN
 10
-16.17063177955947
 20
-13.87808774382415
 30
-0.0000000000000058
  9
$EXTMAX
 10
397.6042780440108
 20
284.6597698196486
 30
0.0000000000000104
  9
$LIMMIN
 10
0.0
 20
0.0
  9
$LIMMAX
 10
285.0
 20
198.0
  9
$ORTHOMODE
 70
     0
  9
$REGENMODE
 70
     1
  9
$FILLMODE
 70
     1
  9
$QTEXTMODE
 70
     0
  9
$MIRRTEXT
 70
     0
  9
$LTSCALE
 40
0.7
  9
$ATTMODE
 70
     1
  9
$TEXTSIZE
 40
3.0
  9
$TRACEWID
 40
0.05
  9
$TEXTSTYLE
  7
OPNUS
  9
$CLAYER
  8
4
  9
$CELTYPE
  6
ByLayer
  9
$CECOLOR
 62
   256
  9
$CELTSCALE
 40
0.7
  9
$DISPSILH
 70
     0
  9
$DIMSCALE
 40
1.0
  9
$DIMASZ
 40
3.0
  9
$DIMEXO
 40
1.0
  9
$DIMDLI
 40
6.0
  9
$DIMRND
 40
0.0
  9
$DIMDLE
 40
0.0
  9
$DIMEXE
 40
1.0
  9
$DIMTP
 40
0.0
  9
$DIMTM
 40
0.0
  9
$DIMTXT
 40
3.0
  9
$DIMCEN
 40
0.0
  9
$DIMTSZ
 40
0.0
  9
$DIMTOL
 70
     0
  9
$DIMLIM
 70
     0
  9
$DIMTIH
 70
     0
  9
$DIMTOH
 70
     0
  9
$DIMSE1
 70
     0
  9
$DIMSE2
 70
     0
  9
$DIMTAD
 70
     1
  9
$DIMZIN
 70
     8
  9
$DIMBLK
  1

  9
$DIMASO
 70
     1
  9
$DIMSHO
 70
     1
  9
$DIMPOST
  1

  9
$DIMAPOST
  1

  9
$DIMALT
 70
     0
  9
$DIMALTD
 70
     2
  9
$DIMALTF
 40
25.4
  9
$DIMLFAC
 40
1.0
  9
$DIMTOFL
 70
     1
  9
$DIMTVP
 40
0.0
  9
$DIMTIX
 70
     0
  9
$DIMSOXD
 70
     0
  9
$DIMSAH
 70
     0
  9
$DIMBLK1
  1

  9
$DIMBLK2
  1

  9
$DIMSTYLE
  2
OPNUS
  9
$DIMCLRD
 70
     6
  9
$DIMCLRE
 70
     6
  9
$DIMCLRT
 70
     2
  9
$DIMTFAC
 40
1.0
  9
$DIMGAP
 40
0.5
  9
$DIMJUST
 70
     0
  9
$DIMSD1
 70
     0
  9
$DIMSD2
 70
     0
  9
$DIMTOLJ
 70
     1
  9
$DIMTZIN
 70
     0
  9
$DIMALTZ
 70
     0
  9
$DIMALTTZ
 70
     0
  9
$DIMUPT
 70
     0
  9
$DIMDEC
 70
     2
  9
$DIMTDEC
 70
     2
  9
$DIMALTU
 70
     2
  9
$DIMALTTD
 70
     2
  9
$DIMTXSTY
  7
OPNUS
  9
$DIMAUNIT
 70
     0
  9
$DIMADEC
 70
     2
  9
$DIMALTRND
 40
0.0
  9
$DIMAZIN
 70
     2
  9
$DIMDSEP
 70
    46
  9
$DIMATFIT
 70
     3
  9
$DIMFRAC
 70
     0
  9
$DIMLDRBLK
  1

  9
$DIMLUNIT
 70
     2
  9
$DIMLWD
 70
    15
  9
$DIMLWE
 70
    15
  9
$DIMTMOVE
 70
     0
  9
$LUNITS
 70
     2
  9
$LUPREC
 70
     3
  9
$SKETCHINC
 40
0.1
  9
$FILLETRAD
 40
0.0
  9
$AUNITS
 70
     0
  9
$AUPREC
 70
     2
  9
$MENU
  1
.
  9
$ELEVATION
 40
0.0
  9
$PELEVATION
 40
0.0
  9
$THICKNESS
 40
0.0
  9
$LIMCHECK
 70
     0
  9
$CHAMFERA
 40
0.0
  9
$CHAMFERB
 40
0.0
  9
$CHAMFERC
 40
0.0
  9
$CHAMFERD
 40
0.0
  9
$SKPOLY
 70
     0
  9
$TDCREATE
 40
2453193.683106725
  9
$TDUCREATE
 40
2453193.308106725
  9
$TDUPDATE
 40
2455127.471950590
  9
$TDUUPDATE
 40
2455127.096950590
  9
$TDINDWG
 40
0.0363322801
  9
$TDUSRTIMER
 40
0.0363322801
  9
$USRTIMER
 70
     1
  9
$ANGBASE
 50
0.0
  9
$ANGDIR
 70
     0
  9
$PDMODE
 70
     0
  9
$PDSIZE
 40
0.0
  9
$PLINEWID
 40
0.0
  9
$SPLFRAME
 70
     0
  9
$SPLINETYPE
 70
     6
  9
$SPLINESEGS
 70
     8
  9
$HANDSEED
  5
97F
  9
$SURFTAB1
 70
     6
  9
$SURFTAB2
 70
     6
  9
$SURFTYPE
 70
     6
  9
$SURFU
 70
     6
  9
$SURFV
 70
     6
  9
$UCSBASE
  2

  9
$UCSNAME
  2

  9
$UCSORG
 10
0.0
 20
0.0
 30
0.0
  9
$UCSXDIR
 10
1.0
 20
0.0
 30
0.0
  9
$UCSYDIR
 10
0.0
 20
1.0
 30
0.0
  9
$UCSORTHOREF
  2

  9
$UCSORTHOVIEW
 70
     0
  9
$UCSORGTOP
 10
0.0
 20
0.0
 30
0.0
  9
$UCSORGBOTTOM
 10
0.0
 20
0.0
 30
0.0
  9
$UCSORGLEFT
 10
0.0
 20
0.0
 30
0.0
  9
$UCSORGRIGHT
 10
0.0
 20
0.0
 30
0.0
  9
$UCSORGFRONT
 10
0.0
 20
0.0
 30
0.0
  9
$UCSORGBACK
 10
0.0
 20
0.0
 30
0.0
  9
$PUCSBASE
  2

  9
$PUCSNAME
  2

  9
$PUCSORG
 10
0.0
 20
0.0
 30
0.0
  9
$PUCSXDIR
 10
1.0
 20
0.0
 30
0.0
  9
$PUCSYDIR
 10
0.0
 20
1.0
 30
0.0
  9
$PUCSORTHOREF
  2

  9
$PUCSORTHOVIEW
 70
     0
  9
$PUCSORGTOP
 10
0.0
 20
0.0
 30
0.0
  9
$PUCSORGBOTTOM
 10
0.0
 20
0.0
 30
0.0
  9
$PUCSORGLEFT
 10
0.0
 20
0.0
 30
0.0
  9
$PUCSORGRIGHT
 10
0.0
 20
0.0
 30
0.0
  9
$PUCSORGFRONT
 10
0.0
 20
0.0
 30
0.0
  9
$PUCSORGBACK
 10
0.0
 20
0.0
 30
0.0
  9
$USERI1
 70
     1
  9
$USERI2
 70
     6
  9
$USERI3
 70
     0
  9
$USERI4
 70
     0
  9
$USERI5
 70
     0
  9
$USERR1
 40
2.0
  9
$USERR2
 40
1.5
  9
$USERR3
 40
0.0
  9
$USERR4
 40
5.0
  9
$USERR5
 40
1.0
  9
$WORLDVIEW
 70
     1
  9
$SHADEDGE
 70
     3
  9
$SHADEDIF
 70
    70
  9
$TILEMODE
 70
     1
  9
$MAXACTVP
 70
    64
  9
$PINSBASE
 10
0.0
 20
0.0
 30
0.0
  9
$PLIMCHECK
 70
     0
  9
$PEXTMIN
 10
0.0
 20
0.0
 30
0.0
  9
$PEXTMAX
 10
0.0
 20
0.0
 30
0.0
  9
$PLIMMIN
 10
0.0
 20
0.0
  9
$PLIMMAX
 10
12.0
 20
9.0
  9
$UNITMODE
 70
     0
  9
$VISRETAIN
 70
     1
  9
$PLINEGEN
 70
     0
  9
$PSLTSCALE
 70
     1
  9
$TREEDEPTH
 70
  3020
  9
$CMLSTYLE
  2
Standard
  9
$CMLJUST
 70
     0
  9
$CMLSCALE
 40
1.0
  9
$PROXYGRAPHICS
 70
     1
  9
$MEASUREMENT
 70
     1
  9
$CELWEIGHT
370
    -1
  9
$ENDCAPS
280
     0
  9
$JOINSTYLE
280
     0
  9
$LWDISPLAY
290
     0
  9
$INSUNITS
 70
     1
  9
$HYPERLINKBASE
  1

  9
$STYLESHEET
  1
monochrome.ctb
  9
$XEDIT
290
     1
  9
$CEPSNTYPE
380
     0
  9
$PSTYLEMODE
290
     1
  9
$FINGERPRINTGUID
  2
{FDEAD576-A652-11D2-9A35-0060089B3A3F}
  9
$VERSIONGUID
  2
{BD2BC713-7D4A-4F37-851F-2555AB68732B}
  9
$EXTNAMES
290
     1
  9
$PSVPSCALE
 40
0.0
  9
$OLESTARTUP
290
     0
  0
ENDSEC
  0
SECTION
  2
CLASSES
  0
CLASS
  1
ACDBDICTIONARYWDFLT
  2
AcDbDictionaryWithDefault
  3
ObjectDBX Classes
 90
        0
280
     0
281
     0
  0
CLASS
  1
ACDBPLACEHOLDER
  2
AcDbPlaceHolder
  3
ObjectDBX Classes
 90
        0
280
     0
281
     0
  0
CLASS
  1
LAYOUT
  2
AcDbLayout
  3
ObjectDBX Classes
 90
        0
280
     0
281
     0
  0
CLASS
  1
DICTIONARYVAR
  2
AcDbDictionaryVar
  3
ObjectDBX Classes
 90
        0
280
     0
281
     0
  0
ENDSEC
  0
SECTION
  2
TABLES
  0
TABLE
  2
VPORT
  5
8
330
0
100
AcDbSymbolTable
 70
     3
  0
VPORT
  5
977
330
8
100
AcDbSymbolTableRecord
100
AcDbViewportTableRecord
  2
*Active
 70
     0
 10
0.0
 20
0.0
 11
1.0
 21
1.0
 12
194.9111656622556
 22
139.9532237479045
 13
0.0
 23
0.0
 14
0.5
 24
0.5
 15
0.5
 25
0.5
 16
0.0
 26
0.0
 36
1.0
 17
0.0
 27
0.0
 37
0.0
 40
292.1799547030621
 41
1.785714285714285
 42
50.0
 43
0.0
 44
0.0
 50
0.0
 51
0.0
 71
     0
 72
  1000
 73
     1
 74
     3
 75
     0
 76
     0
 77
     0
 78
     0
281
     0
 65
     1
110
0.0
120
0.0
130
0.0
111
1.0
121
0.0
131
0.0
112
0.0
122
1.0
132
0.0
 79
     0
146
0.0
  0
ENDTAB
  0
TABLE
  2
LTYPE
  5
5
330
0
100
AcDbSymbolTable
 70
    12
  0
LTYPE
  5
14
330
5
100
AcDbSymbolTableRecord
100
AcDbLinetypeTableRecord
  2
ByBlock
 70
     0
  3

 72
    65
 73
     0
 40
0.0
  0
LTYPE
  5
15
330
5
100
AcDbSymbolTableRecord
100
AcDbLinetypeTableRecord
  2
ByLayer
 70
     0
  3

 72
    65
 73
     0
 40
0.0
  0
LTYPE
  5
16
330
5
100
AcDbSymbolTableRecord
100
AcDbLinetypeTableRecord
  2
Continuous
 70
     0
  3
Solid line
 72
    65
 73
     0
 40
0.0
  0
LTYPE
  5
10C
330
5
100
AcDbSymbolTableRecord
100
AcDbLinetypeTableRecord
  2
CENTER2
 70
     0
  3
Center (.5x) ___ _ ___ _ ___ _ ___ _ ___ _ ___
 72
    65
 73
     4
 40
28.575
 49
19.05
 74
     0
 49
-3.174999999999999
 74
     0
 49
3.174999999999999
 74
     0
 49
-3.174999999999999
 74
     0
  0
LTYPE
  5
274
330
5
100
AcDbSymbolTableRecord
100
AcDbLinetypeTableRecord
  2
H2
 70
     0
  3
\\@\\@\\@\\@\\@\\@\\@\\
 72
    65
 73
     2
 40
1.36
 49
0.8
 74
     0
 49
-0.5600000000000001
 74
     0
  0
LTYPE
  5
275
330
5
100
AcDbSymbolTableRecord
100
AcDbLinetypeTableRecord
  2
H5
 70
     0
  3
\\\\\@@@\\\\\@@@\\\\\@@
 72
    65
 73
     2
 40
3.8
 49
2.2
 74
     0
 49
-1.6
 74
     0
  0
LTYPE
  5
276
330
5
100
AcDbSymbolTableRecord
100
AcDbLinetypeTableRecord
  2
P5
 70
     0
  3
\\\\\  - -  \\\\\  - -  \\\\\  -
 72
    65
 73
     6
 40
16.5
 49
11.0
 74
     0
 49
-1.1
 74
     0
 49
1.1
 74
     0
 49
-1.1
 74
     0
 49
1.1
 74
     0
 49
-1.1
 74
     0
  0
LTYPE
  5
277
330
5
100
AcDbSymbolTableRecord
100
AcDbLinetypeTableRecord
  2
H0
 70
     0
  3
- - - - - - - - - - - - - - - - - - - - - - - -
 72
    65
 73
     2
 40
0.6800000000000001
 49
0.4
 74
     0
 49
-0.28
 74
     0
  0
LTYPE
  5
278
330
5
100
AcDbSymbolTableRecord
100
AcDbLinetypeTableRecord
  2
P6
 70
     0
  3
\\\\\\  - -  \\\\\\  - -  \\\\
 72
    65
 73
     6
 40
24.0
 49
16.0
 74
     0
 49
-1.6
 74
     0
 49
1.6
 74
     0
 49
-1.6
 74
     0
 49
1.6
 74
     0
 49
-1.6
 74
     0
  0
LTYPE
  5
279
330
5
100
AcDbSymbolTableRecord
100
AcDbLinetypeTableRecord
  2
P4
 70
     0
  3
\\\\  ¥ ¥  \\\\  ¥ ¥  \\\\  ¥ ¥ \
 72
    65
 73
     6
 40
12.0
 49
8.0
 74
     0
 49
-0.8
 74
     0
 49
0.8
 74
     0
 49
-0.8
 74
     0
 49
0.8
 74
     0
 49
-0.8
 74
     0
  0
ENDTAB
  0
TABLE
  2
LAYER
  5
2
102
{ACAD_XDICTIONARY
360
9F
102
}
330
0
100
AcDbSymbolTable
 70
    12
  0
LAYER
  5
10
330
2
100
AcDbSymbolTableRecord
100
AcDbLayerTableRecord
  2
0
 70
     0
 62
     7
  6
Continuous
370
    15
390
F
  0
LAYER
  5
92
330
2
100
AcDbSymbolTableRecord
100
AcDbLayerTableRecord
  2
4
 70
     0
 62
     4
  6
Continuous
370
    30
390
F
  0
LAYER
  5
B1
330
2
100
AcDbSymbolTableRecord
100
AcDbLayerTableRecord
  2
T
 70
     0
 62
     5
  6
CENTER2
370
    15
390
F
  0
LAYER
  5
B2
330
2
100
AcDbSymbolTableRecord
100
AcDbLayerTableRecord
  2
W
 70
     0
 62
     7
  6
Continuous
370
    15
390
F
  0
LAYER
  5
E0
330
2
100
AcDbSymbolTableRecord
100
AcDbLayerTableRecord
  2
Defpoints
 70
     0
 62
     7
  6
Continuous
290
     0
370
    -3
390
F
  0
ENDTAB
  0
TABLE
  2
STYLE
  5
3
330
0
100
AcDbSymbolTable
 70
     6
  0
STYLE
  5
11
330
3
100
AcDbSymbolTableRecord
100
AcDbTextStyleTableRecord
  2
Standard
 70
     0
 40
0.0
 41
1.0
 50
0.0
 71
     0
 42
0.2
  3
MS Mincho.ttf
  4

1001
ACAD
1000
MS Mincho
1071
    32785
  0
STYLE
  5
BC
330
3
100
AcDbSymbolTableRecord
100
AcDbTextStyleTableRecord
  2
OPNUS
 70
     0
 40
0.0
 41
1.0
 50
0.0
 71
     0
 42
3.0
  3
MS PGothic.ttf
  4

1001
ACAD
1000
MS PGothic
1071
    32818
  0
STYLE
  5
27A
330
3
100
AcDbSymbolTableRecord
100
AcDbTextStyleTableRecord
  2
SIMPLEX
 70
     0
 40
0.0
 41
1.0
 50
0.0
 71
     0
 42
2.0
  3
T:SIMPLEX
  4
T:SUG-BIG1
  0
ENDTAB
  0
TABLE
  2
VIEW
  5
6
330
0
100
AcDbSymbolTable
 70
     0
  0
ENDTAB
  0
TABLE
  2
UCS
  5
7
330
0
100
AcDbSymbolTable
 70
     0
  0
ENDTAB
  0
TABLE
  2
APPID
  5
9
330
0
100
AcDbSymbolTable
 70
     1
  0
APPID
  5
12
330
9
100
AcDbSymbolTableRecord
100
AcDbRegAppTableRecord
  2
ACAD
 70
     0
  0
ENDTAB
  0
TABLE
  2
DIMSTYLE
  5
A
330
0
100
AcDbSymbolTable
 70
     3
100
AcDbDimStyleTable
 71
     2
340
BB
340
27
  0
DIMSTYLE
105
27
330
A
100
AcDbSymbolTableRecord
100
AcDbDimStyleTableRecord
  2
Standard
 70
     0
340
11
  0
DIMSTYLE
105
BB
330
A
100
AcDbSymbolTableRecord
100
AcDbDimStyleTableRecord
  2
OPNUS
 70
     0
 41
3.0
 42
1.0
 43
6.0
 44
1.0
 73
     0
 74
     0
 77
     1
 78
     8
 79
     2
140
3.0
141
0.0
147
0.5
172
     1
176
     6
177
     6
178
     2
179
     2
271
     2
272
     2
340
BC
371
    15
372
    15
  0
ENDTAB
  0
TABLE
  2
BLOCK_RECORD
  5
1
330
0
100
AcDbSymbolTable
 70
     3
  0
BLOCK_RECORD
  5
1F
330
1
100
AcDbSymbolTableRecord
100
AcDbBlockTableRecord
  2
*Model_Space
340
22
  0
BLOCK_RECORD
  5
58
330
1
100
AcDbSymbolTableRecord
100
AcDbBlockTableRecord
  2
*Paper_Space
340
59
  0
BLOCK_RECORD
  5
220
330
1
100
AcDbSymbolTableRecord
100
AcDbBlockTableRecord
  2
SUG-AR01
340
0
102
{BLKREFS
331
604
331
605
331
6D9
331
6E1
331
6E8
331
6E9
331
6EE
331
6EF
102
}
  0
BLOCK_RECORD
  5
226
330
1
100
AcDbSymbolTableRecord
100
AcDbBlockTableRecord
  2
*X1
340
0
102
{BLKREFS
331
6B2
102
}
  0
BLOCK_RECORD
  5
24C
330
1
100
AcDbSymbolTableRecord
100
AcDbBlockTableRecord
  2
*X2
340
0
102
{BLKREFS
331
7B0
102
}
  0
ENDTAB
  0
ENDSEC
  0
SECTION
  2
BLOCKS
  0
BLOCK
  5
20
330
1F
100
AcDbEntity
  8
0
100
AcDbBlockBegin
  2
*Model_Space
 70
     0
 10
0.0
 20
0.0
 30
0.0
  3
*Model_Space
  1

  0
ENDBLK
  5
21
330
1F
100
AcDbEntity
  8
0
100
AcDbBlockEnd
  0
BLOCK
  5
5A
330
58
100
AcDbEntity
 67
     1
  8
0
100
AcDbBlockBegin
  2
*Paper_Space
 70
     0
 10
0.0
 20
0.0
 30
0.0
  3
*Paper_Space
  1

  0
ENDBLK
  5
5B
330
58
100
AcDbEntity
 67
     1
  8
0
100
AcDbBlockEnd
  0
BLOCK
  5
221
330
220
100
AcDbEntity
  8
0
100
AcDbBlockBegin
  2
SUG-AR01
 70
     0
 10
0.0
 20
0.0
 30
0.0
  3
SUG-AR01
  1

  0
LINE
  5
222
330
220
100
AcDbEntity
  8
0
100
AcDbLine
 10
0.0
 20
0.0
 30
0.0
 11
5.0
 21
1.339745962155659
 31
0.0
  0
LINE
  5
223
330
220
100
AcDbEntity
  8
0
100
AcDbLine
 10
5.0
 20
-1.339745962155659
 30
0.0
 11
5.0
 21
1.339745962155659
 31
0.0
  0
LINE
  5
224
330
220
100
AcDbEntity
  8
0
100
AcDbLine
 10
0.0
 20
0.0
 30
0.0
 11
5.0
 21
-1.339745962155659
 31
0.0
  0
ENDBLK
  5
225
330
220
100
AcDbEntity
  8
0
100
AcDbBlockEnd
  0
BLOCK
  5
227
330
226
100
AcDbEntity
  8
0
100
AcDbBlockBegin
  2
*X1
 70
     1
 10
0.0
 20
0.0
 30
0.0
  3
*X1
  1

  0
LINE
  5
228
330
226
100
AcDbEntity
  8
0
 62
     0
100
AcDbLine
 10
314.8451539781301
 20
238.11234890975
 30
0.0
 11
313.9382285661123
 21
239.0192743217678
 31
0.0
  0
LINE
  5
229
330
226
100
AcDbEntity
  8
0
 62
     0
100
AcDbLine
 10
315.6148692112175
 20
238.7568472390358
 30
0.0
 11
314.7600058903906
 21
239.6117105598626
 31
0.0
  0
LINE
  5
22A
330
226
100
AcDbEntity
  8
0
 62
     0
100
AcDbLine
 10
312.22509280127
 20
242.1466236489833
 30
0.0
 11
310.2611947290397
 21
244.1105217212135
 31
0.0
  0
LINE
  5
22B
330
226
100
AcDbEntity
  8
0
 62
     0
100
AcDbLine
 10
316.119593788228
 20
239.6663362243984
 30
0.0
 11
315.0503755233059
 21
240.7355544893204
 31
0.0
  0
LINE
  5
22C
330
226
100
AcDbEntity
  8
0
 62
     0
100
AcDbLine
 10
311.4611947290397
 20
244.3247352835866
 30
0.0
 11
310.2611947290397
 21
245.5247352835866
 31
0.0
  0
LINE
  5
22D
330
226
100
AcDbEntity
  8
0
 62
     0
100
AcDbLine
 10
313.6505001647742
 20
242.1354298478521
 30
0.0
 11
312.439306363643
 21
243.3466236489833
 31
0.0
  0
LINE
  5
22E
330
226
100
AcDbEntity
  8
0
 62
     0
100
AcDbLine
 10
316.2292369224066
 20
240.9709066525929
 30
0.0
 11
313.8858523280465
 21
243.3142912469529
 31
0.0
  0
LINE
  5
22F
330
226
100
AcDbEntity
  8
0
 62
     0
100
AcDbLine
 10
311.4611947290397
 20
245.7389488459597
 30
0.0
 11
310.2611947290397
 21
246.9389488459597
 31
0.0
  0
LINE
  5
230
330
226
100
AcDbEntity
  8
0
 62
     0
100
AcDbLine
 10
311.4611947290397
 20
247.1531624083328
 30
0.0
 11
310.2611947290397
 21
248.3531624083328
 31
0.0
  0
LINE
  5
231
330
226
100
AcDbEntity
  8
0
 62
     0
100
AcDbLine
 10
311.4611947290397
 20
248.5673759707059
 30
0.0
 11
310.2611947290397
 21
249.7673759707059
 31
0.0
  0
LINE
  5
232
330
226
100
AcDbEntity
  8
0
 62
     0
100
AcDbLine
 10
311.4611947290397
 20
249.981589533079
 30
0.0
 11
310.2611947290397
 21
251.181589533079
 31
0.0
  0
LINE
  5
233
330
226
100
AcDbEntity
  8
0
 62
     0
100
AcDbLine
 10
311.4611947290397
 20
251.3958030954521
 30
0.0
 11
310.2611947290397
 21
252.5958030954521
 31
0.0
  0
LINE
  5
234
330
226
100
AcDbEntity
  8
0
 62
     0
100
AcDbLine
 10
311.4611947290397
 20
252.8100166578252
 30
0.0
 11
310.2611947290397
 21
254.0100166578252
 31
0.0
  0
LINE
  5
235
330
226
100
AcDbEntity
  8
0
 62
     0
100
AcDbLine
 10
311.4611947290397
 20
254.2242302201983
 30
0.0
 11
310.2611947290397
 21
255.4242302201983
 31
0.0
  0
LINE
  5
236
330
226
100
AcDbEntity
  8
0
 62
     0
100
AcDbLine
 10
311.4611947290397
 20
255.6384437825714
 30
0.0
 11
310.2611947290397
 21
256.8384437825714
 31
0.0
  0
LINE
  5
237
330
226
100
AcDbEntity
  8
0
 62
     0
100
AcDbLine
 10
311.4611947290397
 20
257.0526573449445
 30
0.0
 11
310.2611947290397
 21
258.2526573449445
 31
0.0
  0
LINE
  5
238
330
226
100
AcDbEntity
  8
0
 62
     0
100
AcDbLine
 10
311.4611947290397
 20
258.4668709073176
 30
0.0
 11
310.2611947290397
 21
259.6668709073176
 31
0.0
  0
LINE
  5
239
330
226
100
AcDbEntity
  8
0
 62
     0
100
AcDbLine
 10
311.4611947290397
 20
259.8810844696907
 30
0.0
 11
310.2611947290397
 21
261.0810844696906
 31
0.0
  0
LINE
  5
23A
330
226
100
AcDbEntity
  8
0
 62
     0
100
AcDbLine
 10
311.4611947290397
 20
261.2952980320638
 30
0.0
 11
310.2611947290397
 21
262.4952980320638
 31
0.0
  0
LINE
  5
23B
330
226
100
AcDbEntity
  8
0
 62
     0
100
AcDbLine
 10
311.4611947290397
 20
262.7095115944369
 30
0.0
 11
311.4240826744935
 21
262.7466236489831
 31
0.0
  0
LINE
  5
23C
330
226
100
AcDbEntity
  8
0
 62
     0
100
AcDbLine
 10
313.7786537219426
 20
237.7646356035644
 30
0.0
 11
312.5966656765239
 21
238.9466236489832
 31
0.0
  0
LINE
  5
23D
330
226
100
AcDbEntity
  8
0
 62
     0
100
AcDbLine
 10
312.3824521141506
 20
237.7466236489834
 30
0.0
 11
311.1824521141506
 21
238.9466236489833
 31
0.0
  0
LINE
  5
23E
330
226
100
AcDbEntity
  8
0
 62
     0
100
AcDbLine
 10
310.9682385517776
 20
237.7466236489834
 30
0.0
 11
309.7682385517775
 21
238.9466236489834
 31
0.0
  0
LINE
  5
23F
330
226
100
AcDbEntity
  8
0
 62
     0
100
AcDbLine
 10
309.5540249894045
 20
237.7466236489833
 30
0.0
 11
308.3540249894043
 21
238.9466236489834
 31
0.0
  0
LINE
  5
240
330
226
100
AcDbEntity
  8
0
 62
     0
100
AcDbLine
 10
308.1398114270314
 20
237.7466236489833
 30
0.0
 11
306.9398114270311
 21
238.9466236489835
 31
0.0
  0
LINE
  5
241
330
226
100
AcDbEntity
  8
0
 62
     0
100
AcDbLine
 10
306.7255978646583
 20
237.7466236489833
 30
0.0
 11
305.525597864658
 21
238.9466236489836
 31
0.0
  0
LINE
  5
242
330
226
100
AcDbEntity
  8
0
 62
     0
100
AcDbLine
 10
305.3113843022852
 20
237.7466236489833
 30
0.0
 11
303.3113843022853
 21
239.7466236489832
 31
0.0
  0
LINE
  5
243
330
226
100
AcDbEntity
  8
0
 62
     0
100
AcDbLine
 10
303.0971707399075
 20
238.5466236489879
 30
0.0
 11
301.8971707399122
 21
239.7466236489832
 31
0.0
  0
LINE
  5
244
330
226
100
AcDbEntity
  8
0
 62
     0
100
AcDbLine
 10
301.6829571775351
 20
238.5466236489872
 30
0.0
 11
300.4829571775391
 21
239.7466236489832
 31
0.0
  0
LINE
  5
245
330
226
100
AcDbEntity
  8
0
 62
     0
100
AcDbLine
 10
300.2687436151626
 20
238.5466236489866
 30
0.0
 11
299.068743615166
 21
239.7466236489832
 31
0.0
  0
LINE
  5
246
330
226
100
AcDbEntity
  8
0
 62
     0
100
AcDbLine
 10
298.8545300527901
 20
238.5466236489859
 30
0.0
 11
297.6545300527929
 21
239.7466236489832
 31
0.0
  0
LINE
  5
247
330
226
100
AcDbEntity
  8
0
 62
     0
100
AcDbLine
 10
297.4403164904177
 20
238.5466236489853
 30
0.0
 11
296.2403164904198
 21
239.7466236489832
 31
0.0
  0
LINE
  5
248
330
226
100
AcDbEntity
  8
0
 62
     0
100
AcDbLine
 10
296.0261029280453
 20
238.5466236489846
 30
0.0
 11
294.8261029280467
 21
239.7466236489832
 31
0.0
  0
LINE
  5
249
330
226
100
AcDbEntity
  8
0
 62
     0
100
AcDbLine
 10
294.6118893656728
 20
238.5466236489839
 30
0.0
 11
293.4118893656736
 21
239.7466236489832
 31
0.0
  0
LINE
  5
24A
330
226
100
AcDbEntity
  8
0
 62
     0
100
AcDbLine
 10
293.1976758033004
 20
238.5466236489833
 30
0.0
 11
292.7615693244371
 21
238.9827301278466
 31
0.0
  0
ENDBLK
  5
24B
330
226
100
AcDbEntity
  8
0
100
AcDbBlockEnd
  0
BLOCK
  5
24D
330
24C
100
AcDbEntity
  8
0
100
AcDbBlockBegin
  2
*X2
 70
     1
 10
0.0
 20
0.0
 30
0.0
  3
*X2
  1

  0
LINE
  5
24E
330
24C
100
AcDbEntity
  8
0
 62
     0
100
AcDbLine
 10
298.6611947290397
 20
145.9261299927453
 30
0.0
 11
299.8611947290397
 21
147.1261299927453
 31
0.0
  0
LINE
  5
24F
330
24C
100
AcDbEntity
  8
0
 62
     0
100
AcDbLine
 10
307.4559412847742
 20
154.7208765484798
 30
0.0
 11
308.6559412847742
 21
155.9208765484799
 31
0.0
  0
LINE
  5
250
330
24C
100
AcDbEntity
  8
0
 62
     0
100
AcDbLine
 10
303.0559412847742
 20
150.3208765484799
 30
0.0
 11
304.2559412847741
 21
151.5208765484798
 31
0.0
  0
LINE
  5
251
330
24C
100
AcDbEntity
  8
0
 62
     0
100
AcDbLine
 10
298.6611947290397
 20
147.3403435551184
 30
0.0
 11
299.8611947290397
 21
148.5403435551184
 31
0.0
  0
LINE
  5
252
330
24C
100
AcDbEntity
  8
0
 62
     0
100
AcDbLine
 10
306.0417277224011
 20
154.7208765484798
 30
0.0
 11
307.2417277224011
 21
155.9208765484799
 31
0.0
  0
LINE
  5
253
330
24C
100
AcDbEntity
  8
0
 62
     0
100
AcDbLine
 10
301.6417277224011
 20
150.3208765484799
 30
0.0
 11
302.841727722401
 21
151.5208765484798
 31
0.0
  0
LINE
  5
254
330
24C
100
AcDbEntity
  8
0
 62
     0
100
AcDbLine
 10
298.6611947290397
 20
148.7545571174916
 30
0.0
 11
301.4275141600279
 21
151.5208765484798
 31
0.0
  0
LINE
  5
255
330
24C
100
AcDbEntity
  8
0
 62
     0
100
AcDbLine
 10
304.627514160028
 20
154.7208765484798
 30
0.0
 11
305.827514160028
 21
155.9208765484799
 31
0.0
  0
LINE
  5
256
330
24C
100
AcDbEntity
  8
0
 62
     0
100
AcDbLine
 10
299.0248611383876
 20
150.5324370892126
 30
0.0
 11
299.6496341883069
 21
151.1572101391319
 31
0.0
  0
LINE
  5
257
330
24C
100
AcDbEntity
  8
0
 62
     0
100
AcDbLine
 10
303.2133005976549
 20
154.7208765484798
 30
0.0
 11
304.4133005976549
 21
155.9208765484799
 31
0.0
  0
LINE
  5
258
330
24C
100
AcDbEntity
  8
0
 62
     0
100
AcDbLine
 10
301.7990870352817
 20
154.7208765484798
 30
0.0
 11
302.9990870352818
 21
155.9208765484799
 31
0.0
  0
LINE
  5
259
330
24C
100
AcDbEntity
  8
0
 62
     0
100
AcDbLine
 10
300.4279538343568
 20
154.7639569099279
 30
0.0
 11
301.5848734729087
 21
155.9208765484799
 31
0.0
  0
LINE
  5
25A
330
24C
100
AcDbEntity
  8
0
 62
     0
100
AcDbLine
 10
299.4680068356069
 20
155.2182234735512
 30
0.0
 11
300.3259578818064
 21
156.0761745197507
 31
0.0
  0
LINE
  5
25B
330
24C
100
AcDbEntity
  8
0
 62
     0
100
AcDbLine
 10
298.8545568920344
 20
156.0189870923518
 30
0.0
 11
299.8611947290397
 21
157.025624929357
 31
0.0
  0
LINE
  5
25C
330
24C
100
AcDbEntity
  8
0
 62
     0
100
AcDbLine
 10
298.6611947290397
 20
157.2398384917301
 30
0.0
 11
299.8611947290397
 21
158.4398384917301
 31
0.0
  0
LINE
  5
25D
330
24C
100
AcDbEntity
  8
0
 62
     0
100
AcDbLine
 10
298.6611947290397
 20
158.6540520541032
 30
0.0
 11
299.8611947290397
 21
159.8540520541032
 31
0.0
  0
LINE
  5
25E
330
24C
100
AcDbEntity
  8
0
 62
     0
100
AcDbLine
 10
298.6611947290397
 20
160.0682656164763
 30
0.0
 11
299.8611947290397
 21
161.2682656164763
 31
0.0
  0
LINE
  5
25F
330
24C
100
AcDbEntity
  8
0
 62
     0
100
AcDbLine
 10
298.6611947290396
 20
161.4824791788493
 30
0.0
 11
299.8611947290397
 21
162.6824791788494
 31
0.0
  0
LINE
  5
260
330
24C
100
AcDbEntity
  8
0
 62
     0
100
AcDbLine
 10
298.6611947290396
 20
162.8966927412224
 30
0.0
 11
299.4853785362971
 21
163.7208765484799
 31
0.0
  0
LINE
  5
261
330
24C
100
AcDbEntity
  8
0
 62
     0
100
AcDbLine
 10
298.6611947290397
 20
144.5119164303722
 30
0.0
 11
299.8611947290397
 21
145.7119164303722
 31
0.0
  0
LINE
  5
262
330
24C
100
AcDbEntity
  8
0
 62
     0
100
AcDbLine
 10
308.8701548471472
 20
154.7208765484798
 30
0.0
 11
310.0701548471473
 21
155.9208765484799
 31
0.0
  0
LINE
  5
263
330
24C
100
AcDbEntity
  8
0
 62
     0
100
AcDbLine
 10
304.4701548471473
 20
150.3208765484799
 30
0.0
 11
305.6701548471472
 21
151.5208765484798
 31
0.0
  0
LINE
  5
264
330
24C
100
AcDbEntity
  8
0
 62
     0
100
AcDbLine
 10
298.6611947290396
 20
143.0977028679991
 30
0.0
 11
299.8611947290397
 21
144.2977028679991
 31
0.0
  0
LINE
  5
265
330
24C
100
AcDbEntity
  8
0
 62
     0
100
AcDbLine
 10
310.2843684095203
 20
154.7208765484798
 30
0.0
 11
311.4843684095204
 21
155.9208765484799
 31
0.0
  0
LINE
  5
266
330
24C
100
AcDbEntity
  8
0
 62
     0
100
AcDbLine
 10
305.8843684095204
 20
150.3208765484799
 30
0.0
 11
307.0843684095203
 21
151.5208765484798
 31
0.0
  0
LINE
  5
267
330
24C
100
AcDbEntity
  8
0
 62
     0
100
AcDbLine
 10
298.6611947290396
 20
141.683489305626
 30
0.0
 11
299.8611947290397
 21
142.883489305626
 31
0.0
  0
LINE
  5
268
330
24C
100
AcDbEntity
  8
0
 62
     0
100
AcDbLine
 10
311.6985819718934
 20
154.7208765484798
 30
0.0
 11
312.8983405114413
 21
155.9206350880277
 31
0.0
  0
LINE
  5
269
330
24C
100
AcDbEntity
  8
0
 62
     0
100
AcDbLine
 10
307.2985819718935
 20
150.3208765484799
 30
0.0
 11
308.4985819718934
 21
151.5208765484798
 31
0.0
  0
LINE
  5
26A
330
24C
100
AcDbEntity
  8
0
 62
     0
100
AcDbLine
 10
299.7127955342666
 20
141.3208765484799
 30
0.0
 11
299.8611947290397
 21
141.469275743253
 31
0.0
  0
LINE
  5
26B
330
24C
100
AcDbEntity
  8
0
 62
     0
100
AcDbLine
 10
313.0955888999035
 20
154.7036699141168
 30
0.0
 11
314.0486878190135
 21
155.6567688332268
 31
0.0
  0
LINE
  5
26C
330
24C
100
AcDbEntity
  8
0
 62
     0
100
AcDbLine
 10
308.7127955342666
 20
150.3208765484799
 30
0.0
 11
309.9127955342665
 21
151.5208765484798
 31
0.0
  0
LINE
  5
26D
330
24C
100
AcDbEntity
  8
0
 62
     0
100
AcDbLine
 10
310.1270090966397
 20
150.3208765484799
 30
0.0
 11
311.3270090966395
 21
151.5208765484798
 31
0.0
  0
LINE
  5
26E
330
24C
100
AcDbEntity
  8
0
 62
     0
100
AcDbLine
 10
314.025186822642
 20
154.2190542744822
 30
0.0
 11
314.8739178143581
 21
155.0677852661983
 31
0.0
  0
LINE
  5
26F
330
24C
100
AcDbEntity
  8
0
 62
     0
100
AcDbLine
 10
311.5412226590128
 20
150.3208765484799
 30
0.0
 11
312.7412226590126
 21
151.5208765484798
 31
0.0
  0
LINE
  5
270
330
24C
100
AcDbEntity
  8
0
 62
     0
100
AcDbLine
 10
314.45734955495
 20
153.2370034444171
 30
0.0
 11
315.4378753687932
 21
154.2175292582603
 31
0.0
  0
LINE
  5
271
330
24C
100
AcDbEntity
  8
0
 62
     0
100
AcDbLine
 10
312.9570651695725
 20
150.3225054966665
 30
0.0
 11
315.6599403762505
 21
153.0253807033445
 31
0.0
  0
ENDBLK
  5
272
330
24C
100
AcDbEntity
  8
0
100
AcDbBlockEnd
  0
ENDSEC
  0
SECTION
  2
ENTITIES
  0
LINE
  5
27D
330
1F
100
AcDbEntity
  8
0
  6
H0
100
AcDbLine
 10
312.4611947290397
 20
230.1466236489833
 30
0.0
 11
312.4611947290397
 21
231.3466236489833
 31
0.0
  0
ARC
  5
27E
330
1F
100
AcDbEntity
  8
0
100
AcDbCircle
 10
304.7615693244371
 20
226.7466236489833
 30
0.0
 40
1.0
100
AcDbArc
 50
191.536959032525
 51
270.0
  0
LINE
  5
27F
330
1F
100
AcDbEntity
  8
0
100
AcDbLine
 10
304.7615693244371
 20
225.7466236489833
 30
0.0
 11
313.461569324437
 21
225.7466236489833
 31
0.0
  0
LINE
  5
280
330
1F
100
AcDbEntity
  8
0
100
AcDbLine
 10
311.4611947290397
 20
231.3466236489833
 30
0.0
 11
313.461569324437
 21
231.3466236489833
 31
0.0
  0
ARC
  5
281
330
1F
100
AcDbEntity
  8
0
100
AcDbCircle
 10
313.461569324437
 20
228.5466236489833
 30
0.0
 40
2.799999999999999
100
AcDbArc
 50
270.0
 51
90.0
  0
ARC
  5
282
330
1F
100
AcDbEntity
  8
0
100
AcDbCircle
 10
313.461569324437
 20
228.5466236489833
 30
0.0
 40
1.599999999999999
100
AcDbArc
 50
270.0
 51
90.0
  0
LINE
  5
283
330
1F
100
AcDbEntity
  8
0
100
AcDbLine
 10
304.8929401743221
 20
226.9466236489832
 30
0.0
 11
313.461569324437
 21
226.9466236489832
 31
0.0
  0
LINE
  5
284
330
1F
100
AcDbEntity
  8
0
100
AcDbLine
 10
311.4611947290397
 20
230.1466236489833
 30
0.0
 11
313.461569324437
 21
230.1466236489833
 31
0.0
  0
LINE
  5
285
330
1F
100
AcDbEntity
  8
0
100
AcDbLine
 10
311.4611947290397
 20
231.3466236489833
 30
0.0
 11
311.4611947290397
 21
250.7466236489831
 31
0.0
  0
LINE
  5
286
330
1F
100
AcDbEntity
  8
0
100
AcDbLine
 10
310.2611947290396
 20
231.3466236489833
 30
0.0
 11
310.2611947290396
 21
250.7466236489831
 31
0.0
  0
LINE
  5
287
330
1F
100
AcDbEntity
  8
0
  6
H0
100
AcDbLine
 10
310.2615693244371
 20
225.7466236489833
 30
0.0
 11
310.2615693244371
 21
226.9466236489832
 31
0.0
  0
LINE
  5
288
330
1F
100
AcDbEntity
  8
0
  6
H0
100
AcDbLine
 10
303.7615693244371
 20
227.7466236489832
 30
0.0
 11
303.7615693244371
 21
226.5466236489832
 31
0.0
  0
LINE
  5
289
330
1F
100
AcDbEntity
  8
0
100
AcDbLine
 10
303.7817734273132
 20
226.5466236489832
 30
0.0
 11
292.7615693244371
 21
226.5466236489831
 31
0.0
  0
LINE
  5
28A
330
1F
100
AcDbEntity
  8
0
100
AcDbLine
 10
303.7615693244371
 20
227.7466236489832
 30
0.0
 11
292.7615693244371
 21
227.7466236489832
 31
0.0
  0
LINE
  5
28B
330
1F
100
AcDbEntity
  8
0
100
AcDbLine
 10
292.7615693244371
 20
226.5466236489831
 30
0.0
 11
292.7615693244371
 21
227.7466236489832
 31
0.0
  0
ARC
  5
28C
330
1F
100
AcDbEntity
  8
0
100
AcDbCircle
 10
303.7615693244371
 20
226.5466236489832
 30
0.0
 40
1.199999999999999
100
AcDbArc
 50
19.4712206345113
 51
90.00000000000033
  0
LINE
  5
28D
330
1F
100
AcDbEntity
  8
0
100
AcDbLine
 10
310.2611947290396
 20
250.7466236489831
 30
0.0
 11
311.4611947290397
 21
250.7466236489831
 31
0.0
  0
LINE
  5
28E
330
1F
100
AcDbEntity
  8
0
  6
H0
100
AcDbLine
 10
310.2611947290396
 20
242.7466236489832
 30
0.0
 11
311.4611947290397
 21
242.7466236489832
 31
0.0
  0
ARC
  5
28F
330
1F
100
AcDbEntity
  8
0
100
AcDbCircle
 10
311.4611947290397
 20
231.3466236489833
 30
0.0
 40
1.199999999999999
100
AcDbArc
 50
180.0
 51
270.0
  0
ARC
  5
290
330
1F
100
AcDbEntity
  8
0
100
AcDbCircle
 10
312.8674388969298
 20
234.367218574813
 30
0.0
 40
2.0
100
AcDbArc
 50
121.1239390488245
 51
157.9938366946654
  0
LINE
  5
291
330
1F
100
AcDbEntity
  8
0
100
AcDbLine
 10
311.8336568065446
 20
236.0793209635733
 30
0.0
 11
316.7745921886612
 21
239.0627000776466
 31
0.0
  0
ARC
  5
292
330
1F
100
AcDbEntity
  8
0
100
AcDbCircle
 10
311.8209588143328
 20
222.2598024778575
 30
0.0
 40
2.0
100
AcDbArc
 50
131.2189970743995
 51
203.4509903816504
  0
ARC
  5
293
330
1F
100
AcDbEntity
  8
0
100
AcDbCircle
 10
312.2006428268727
 20
221.4466236489837
 30
0.0
 40
2.0
100
AcDbArc
 50
206.6060025466015
 51
270.0
  0
ARC
  5
294
330
1F
100
AcDbEntity
  8
0
100
AcDbCircle
 10
315.7745921886613
 20
217.7466236489837
 30
0.0
 40
8.0
100
AcDbArc
 50
90.0
 51
131.218997074399
  0
ARC
  5
295
330
1F
100
AcDbEntity
  8
0
100
AcDbCircle
 10
326.7745921886614
 20
228.7466236489834
 30
0.0
 40
18.3
100
AcDbArc
 50
203.450990381649
 51
206.6060025466001
  0
ARC
  5
296
330
1F
100
AcDbEntity
  8
0
100
AcDbCircle
 10
326.7745921886625
 20
228.7466236489831
 30
0.0
 40
18.3
100
AcDbArc
 50
203.4509903816465
 51
206.6060025465974
  0
ARC
  5
297
330
1F
100
AcDbEntity
  8
0
100
AcDbCircle
 10
311.2826588038313
 20
232.7466236489837
 30
0.0
 40
1.0
100
AcDbArc
 50
165.5224878140703
 51
270.0
  0
ARC
  5
298
330
1F
100
AcDbEntity
  8
0
100
AcDbCircle
 10
326.7745921886614
 20
228.7466236489837
 30
0.0
 40
17.0
100
AcDbArc
 50
157.9938366946647
 51
165.5224878140705
  0
CIRCLE
  5
299
330
1F
100
AcDbEntity
  8
0
  6
H5
100
AcDbCircle
 10
326.7745921886617
 20
228.7466236489837
 30
0.0
 40
2.5
  0
ARC
  5
29A
330
1F
100
AcDbEntity
  8
0
  6
H5
100
AcDbCircle
 10
335.2745921886616
 20
230.2466236489836
 30
0.0
 40
0.5
100
AcDbArc
 50
90.0
 51
180.0
  0
LINE
  5
29B
330
1F
100
AcDbEntity
  8
0
  6
H5
100
AcDbLine
 10
340.0410913500835
 20
230.7466236489836
 30
0.0
 11
335.2745921886616
 21
230.7466236489836
 31
0.0
  0
LINE
  5
29C
330
1F
100
AcDbEntity
  8
0
100
AcDbLine
 10
314.7745921886614
 20
220.7466236489837
 30
0.0
 11
313.4745921886613
 21
219.4466236489837
 31
0.0
  0
LINE
  5
29D
330
1F
100
AcDbEntity
  8
0
100
AcDbLine
 10
312.2006428268727
 20
219.4466236489837
 30
0.0
 11
313.4745921886613
 21
219.4466236489837
 31
0.0
  0
LINE
  5
29E
330
1F
100
AcDbEntity
  8
0
100
AcDbLine
 10
311.2826588038313
 20
231.7466236489837
 30
0.0
 11
316.7745921886612
 21
231.7466236489837
 31
0.0
  0
LINE
  5
29F
330
1F
100
AcDbEntity
  8
0
100
AcDbLine
 10
315.7745921886613
 20
225.7466236489837
 30
0.0
 11
317.7745921886613
 21
225.7466236489837
 31
0.0
  0
LINE
  5
2A0
330
1F
100
AcDbEntity
  8
0
100
AcDbLine
 10
314.7745921886615
 20
220.7466236489837
 30
0.0
 11
316.7745921886612
 21
220.7466236489837
 31
0.0
  0
ARC
  5
2A1
330
1F
100
AcDbEntity
  8
0
  6
H5
100
AcDbCircle
 10
326.7745921886614
 20
228.7466236489837
 30
0.0
 40
8.0
100
AcDbArc
 50
270.0
 51
0.0
  0
LINE
  5
2A2
330
1F
100
AcDbEntity
  8
0
  6
H5
100
AcDbLine
 10
334.7745921886616
 20
228.7466236489837
 30
0.0
 11
334.7745921886616
 21
230.2466236489836
 31
0.0
  0
ARC
  5
2A3
330
1F
100
AcDbEntity
  8
0
  6
H5
100
AcDbCircle
 10
326.7745921886614
 20
228.7466236489836
 30
0.0
 40
14.0
100
AcDbArc
 50
10.67192928576174
 51
121.1239390488241
  0
ARC
  5
2A4
330
1F
100
AcDbEntity
  8
0
100
AcDbCircle
 10
63.66119472903972
 20
158.4547985003763
 30
0.0
 40
2.0
100
AcDbArc
 50
180.0
 51
247.687863704998
  0
ARC
  5
2A5
330
1F
100
AcDbEntity
  8
0
100
AcDbCircle
 10
63.66119472903972
 20
183.7608127196095
 30
0.0
 40
2.0
100
AcDbArc
 50
111.847991410652
 51
180.0
  0
LINE
  5
2A6
330
1F
100
AcDbEntity
  8
0
100
AcDbLine
 10
62.90189047429783
 20
156.6045398566373
 30
0.0
 11
70.76119472903974
 21
152.7636932992666
 31
0.0
  0
LINE
  5
2A7
330
1F
100
AcDbEntity
  8
0
100
AcDbLine
 10
62.91690390411634
 20
185.6171616005946
 30
0.0
 11
70.76119472903974
 21
189.3636932992667
 31
0.0
  0
LINE
  5
2A8
330
1F
100
AcDbEntity
  8
0
100
AcDbLine
 10
61.66119472903972
 20
158.6136932992668
 30
0.0
 11
61.66119472903972
 21
158.4547985003763
 31
0.0
  0
LINE
  5
2A9
330
1F
100
AcDbEntity
  8
0
100
AcDbLine
 10
61.66119472903972
 20
183.6136932992667
 30
0.0
 11
61.66119472903972
 21
183.7608127196095
 31
0.0
  0
LINE
  5
2AA
330
1F
100
AcDbEntity
  8
0
100
AcDbLine
 10
60.26119472903975
 20
158.6136932992667
 30
0.0
 11
61.66119472903972
 21
158.6136932992667
 31
0.0
  0
LINE
  5
2AB
330
1F
100
AcDbEntity
  8
0
100
AcDbLine
 10
60.26119472903975
 20
183.6136932992667
 30
0.0
 11
61.66119472903972
 21
183.6136932992667
 31
0.0
  0
ARC
  5
2AC
330
1F
100
AcDbEntity
  8
0
100
AcDbCircle
 10
31.30181544588758
 20
174.4646737856739
 30
0.0
 40
5.0
100
AcDbArc
 50
101.3099324740201
 51
179.9999999999996
  0
ARC
  5
2AD
330
1F
100
AcDbEntity
  8
0
100
AcDbCircle
 10
31.30181544588747
 20
167.6627128128595
 30
0.0
 40
5.0
100
AcDbArc
 50
179.9999999999997
 51
258.6900675259798
  0
LINE
  5
2AE
330
1F
100
AcDbEntity
  8
0
100
AcDbLine
 10
38.80181544588725
 20
161.0636932992667
 30
0.0
 11
42.30181544588747
 21
158.5636932992667
 31
0.0
  0
LINE
  5
2AF
330
1F
100
AcDbEntity
  8
0
100
AcDbLine
 10
38.80181544588747
 20
181.0636932992667
 30
0.0
 11
42.30181544588758
 21
183.5636932992667
 31
0.0
  0
LINE
  5
2B0
330
1F
100
AcDbEntity
  8
0
100
AcDbLine
 10
30.32123477019654
 20
162.7598094344049
 30
0.0
 11
38.80181544588747
 21
161.0636932992667
 31
0.0
  0
LINE
  5
2B1
330
1F
100
AcDbEntity
  8
0
100
AcDbLine
 10
30.32123477019665
 20
179.3675771641285
 30
0.0
 11
38.8018154458877
 21
181.0636932992667
 31
0.0
  0
LINE
  5
2B2
330
1F
100
AcDbEntity
  8
0
100
AcDbLine
 10
42.30181544588758
 20
185.0636932992668
 30
0.0
 11
43.80181544588758
 21
185.0636932992667
 31
0.0
  0
LINE
  5
2B3
330
1F
100
AcDbEntity
  8
0
100
AcDbLine
 10
42.30181544588747
 20
157.0636932992667
 30
0.0
 11
43.80181544588736
 21
157.0636932992667
 31
0.0
  0
LINE
  5
2B4
330
1F
100
AcDbEntity
  8
0
100
AcDbLine
 10
42.30181544588747
 20
158.5636932992667
 30
0.0
 11
43.80181544588736
 21
158.5636932992667
 31
0.0
  0
LINE
  5
2B5
330
1F
100
AcDbEntity
  8
0
100
AcDbLine
 10
42.30181544588758
 20
183.5636932992667
 30
0.0
 11
43.80181544588758
 21
183.5636932992667
 31
0.0
  0
LINE
  5
2B6
330
1F
100
AcDbEntity
  8
0
100
AcDbLine
 10
84.76119472903963
 20
151.4636932992666
 30
0.0
 11
84.76119472903963
 21
145.4636932992666
 31
0.0
  0
LINE
  5
2B7
330
1F
100
AcDbEntity
  8
0
100
AcDbLine
 10
76.76119472903974
 20
152.7036932992667
 30
0.0
 11
76.76119472903974
 21
146.2236932992666
 31
0.0
  0
ARC
  5
2B8
330
1F
100
AcDbEntity
  8
0
100
AcDbCircle
 10
84.76119472903963
 20
196.1136932992667
 30
0.0
 40
9.5
100
AcDbArc
 50
347.6368975035534
 51
102.3631024964172
  0
LINE
  5
2B9
330
1F
100
AcDbEntity
  8
0
100
AcDbLine
 10
75.48149629299587
 20
198.1477033622077
 30
0.0
 11
75.61435480622417
 21
198.280561875436
 31
0.0
  0
LINE
  5
2BA
330
1F
100
AcDbEntity
  8
0
100
AcDbLine
 10
86.79520479198458
 20
186.8339948632269
 30
0.0
 11
86.92806330520863
 21
186.966853376451
 31
0.0
  0
ARC
  5
2BB
330
1F
100
AcDbEntity
  8
0
100
AcDbCircle
 10
84.76119472903963
 20
196.1136932992667
 30
0.0
 40
9.5
100
AcDbArc
 50
167.6368975035825
 51
282.3631024964458
  0
ARC
  5
2BC
330
1F
100
AcDbEntity
  8
0
100
AcDbCircle
 10
75.01119472903963
 20
147.8136932992667
 30
0.0
 40
2.0
100
AcDbArc
 50
179.9999999999993
 51
270.0
  0
ARC
  5
2BD
330
1F
100
AcDbEntity
  8
0
100
AcDbCircle
 10
75.01119472903974
 20
221.8136932992667
 30
0.0
 40
2.0
100
AcDbArc
 50
90.0
 51
180.0
  0
ARC
  5
2BE
330
1F
100
AcDbEntity
  8
0
100
AcDbCircle
 10
91.36119472903965
 20
168.2136932992668
 30
0.0
 40
0.5
100
AcDbArc
 50
180.0
 51
270.0
  0
ARC
  5
2BF
330
1F
100
AcDbEntity
  8
0
100
AcDbCircle
 10
91.36119472903965
 20
174.0136932992666
 30
0.0
 40
0.5
100
AcDbArc
 50
90.00000000000072
 51
180.0
  0
ARC
  5
2C0
330
1F
100
AcDbEntity
  8
0
100
AcDbCircle
 10
109.3611947290397
 20
176.6136932992667
 30
0.0
 40
0.5
100
AcDbArc
 50
0.0
 51
90.0
  0
ARC
  5
2C1
330
1F
100
AcDbEntity
  8
0
100
AcDbCircle
 10
109.3611947290396
 20
164.1136932992667
 30
0.0
 40
0.5
100
AcDbArc
 50
270.0000000000002
 51
0.0
  0
LINE
  5
2C2
330
1F
100
AcDbEntity
  8
0
100
AcDbLine
 10
109.8611947290396
 20
164.1136932992667
 30
0.0
 11
109.8611947290397
 21
176.6136932992667
 31
0.0
  0
LINE
  5
2C3
330
1F
100
AcDbEntity
  8
0
100
AcDbLine
 10
90.86119472903964
 20
168.2136932992668
 30
0.0
 11
90.86119472903964
 21
174.0136932992666
 31
0.0
  0
LINE
  5
2C4
330
1F
100
AcDbEntity
  8
0
100
AcDbLine
 10
74.76119472903963
 20
172.7636932992666
 30
0.0
 11
74.76119472903963
 21
174.4636932992666
 31
0.0
  0
LINE
  5
2C5
330
1F
100
AcDbEntity
  8
0
100
AcDbLine
 10
81.26119472903964
 20
172.7636932992666
 30
0.0
 11
81.26119472903964
 21
174.4636932992667
 31
0.0
  0
LINE
  5
2C6
330
1F
100
AcDbEntity
  8
0
100
AcDbLine
 10
81.26119472903951
 20
167.6636932992668
 30
0.0
 11
81.26119472903964
 21
169.3636932992666
 31
0.0
  0
LINE
  5
2C7
330
1F
100
AcDbEntity
  8
0
100
AcDbLine
 10
74.76119472903963
 20
167.6636932992668
 30
0.0
 11
74.76119472903963
 21
169.3636932992666
 31
0.0
  0
CIRCLE
  5
2C8
330
1F
100
AcDbEntity
  8
0
100
AcDbCircle
 10
76.76119472903974
 20
220.0636932992667
 30
0.0
 40
2.7
  0
CIRCLE
  5
2C9
330
1F
100
AcDbEntity
  8
0
100
AcDbCircle
 10
76.76119472903974
 20
220.0636932992667
 30
0.0
 40
1.35
  0
CIRCLE
  5
2CA
330
1F
100
AcDbEntity
  8
0
100
AcDbCircle
 10
76.76119472903974
 20
149.5636932992667
 30
0.0
 40
2.7
  0
CIRCLE
  5
2CB
330
1F
100
AcDbEntity
  8
0
100
AcDbCircle
 10
76.76119472903974
 20
149.5636932992667
 30
0.0
 40
1.35
  0
LINE
  5
2CC
330
1F
100
AcDbEntity
  8
0
100
AcDbLine
 10
43.80181544588746
 20
152.5136932992667
 30
0.0
 11
42.30181544588747
 21
152.5136932992667
 31
0.0
  0
LINE
  5
2CD
330
1F
100
AcDbEntity
  8
0
100
AcDbLine
 10
43.80181544588746
 20
189.3136932992667
 30
0.0
 11
42.30181544588747
 21
189.3136932992668
 31
0.0
  0
ARC
  5
2CE
330
1F
100
AcDbEntity
  8
0
100
AcDbCircle
 10
92.76119472903975
 20
167.2136932992668
 30
0.0
 40
0.5
100
AcDbArc
 50
0.0
 51
90.00000000000067
  0
ARC
  5
2CF
330
1F
100
AcDbEntity
  8
0
100
AcDbCircle
 10
93.76119472903974
 20
164.1136932992667
 30
0.0
 40
0.5
100
AcDbArc
 50
180.0
 51
270.0000000000002
  0
LINE
  5
2D0
330
1F
100
AcDbEntity
  8
0
100
AcDbLine
 10
92.76119472903975
 20
167.7136932992669
 30
0.0
 11
91.36119472903965
 21
167.7136932992669
 31
0.0
  0
LINE
  5
2D1
330
1F
100
AcDbEntity
  8
0
100
AcDbLine
 10
93.76119472903974
 20
163.6136932992667
 30
0.0
 11
109.3611947290396
 21
163.6136932992667
 31
0.0
  0
LINE
  5
2D2
330
1F
100
AcDbEntity
  8
0
100
AcDbLine
 10
70.76119472903974
 20
189.3636932992667
 30
0.0
 11
73.01119472903963
 21
189.3636932992667
 31
0.0
  0
LINE
  5
2D3
330
1F
100
AcDbEntity
  8
0
100
AcDbLine
 10
70.76119472903974
 20
152.7636932992666
 30
0.0
 11
73.01119472903974
 21
152.7636932992666
 31
0.0
  0
LINE
  5
2D4
330
1F
100
AcDbEntity
  8
0
  6
H5
100
AcDbLine
 10
61.66119472903972
 20
183.6136932992667
 30
0.0
 11
61.66119472903972
 21
158.6136932992668
 31
0.0
  0
LINE
  5
2D5
330
1F
100
AcDbEntity
  8
0
100
AcDbLine
 10
60.26119472903975
 20
183.6136932992667
 30
0.0
 11
60.26119472903975
 21
158.6136932992667
 31
0.0
  0
LINE
  5
2D6
330
1F
100
AcDbEntity
  8
0
100
AcDbLine
 10
306.1611947290397
 20
235.2466236489833
 30
0.0
 11
307.6611947290397
 21
235.2466236489833
 31
0.0
  0
ARC
  5
2D7
330
1F
100
AcDbEntity
  8
0
100
AcDbCircle
 10
307.6611947290397
 20
219.2466236489833
 30
0.0
 40
1.5
100
AcDbArc
 50
180.0
 51
270.0
  0
LINE
  5
2D8
330
1F
100
AcDbEntity
  8
0
100
AcDbLine
 10
307.6611947290397
 20
217.7466236489833
 30
0.0
 11
307.6611947290397
 21
235.2466236489833
 31
0.0
  0
LINE
  5
2D9
330
1F
100
AcDbEntity
  8
0
100
AcDbLine
 10
306.1611947290397
 20
219.2466236489833
 30
0.0
 11
306.1611947290397
 21
235.2466236489833
 31
0.0
  0
LINE
  5
2DA
330
1F
100
AcDbEntity
  8
0
100
AcDbLine
 10
114.7611947290398
 20
205.6136932992667
 30
0.0
 11
114.5111947290396
 21
205.6136932992667
 31
0.0
  0
LINE
  5
2DB
330
1F
100
AcDbEntity
  8
0
100
AcDbLine
 10
114.7611947290398
 20
215.6136932992668
 30
0.0
 11
114.5111947290396
 21
215.6136932992668
 31
0.0
  0
ARC
  5
2DC
330
1F
100
AcDbEntity
  8
0
100
AcDbCircle
 10
92.76119472903975
 20
175.0136932992667
 30
0.0
 40
0.5
100
AcDbArc
 50
270.0
 51
0.0000000000001908
  0
LINE
  5
2DD
330
1F
100
AcDbEntity
  8
0
100
AcDbLine
 10
93.26119472903974
 20
167.2136932992668
 30
0.0
 11
93.26119472903974
 21
164.1136932992667
 31
0.0
  0
LINE
  5
2DE
330
1F
100
AcDbEntity
  8
0
100
AcDbLine
 10
91.36119472903965
 20
174.5136932992666
 30
0.0
 11
92.76119472903975
 21
174.5136932992667
 31
0.0
  0
LINE
  5
2DF
330
1F
100
AcDbEntity
  8
0
100
AcDbLine
 10
99.46119472903957
 20
163.6136932992667
 30
0.0
 11
99.46119472903957
 21
145.8136932992666
 31
0.0
  0
LINE
  5
2E0
330
1F
100
AcDbEntity
  8
0
100
AcDbLine
 10
99.46119472903957
 20
223.8136932992667
 30
0.0
 11
99.46119472903957
 21
177.1136932992667
 31
0.0
  0
LINE
  5
2E1
330
1F
100
AcDbEntity
  8
0
100
AcDbLine
 10
97.46119472903968
 20
177.1136932992667
 30
0.0
 11
97.46119472903968
 21
223.8136932992667
 31
0.0
  0
LINE
  5
2E2
330
1F
100
AcDbEntity
  8
0
100
AcDbLine
 10
97.46119472903968
 20
145.8136932992666
 30
0.0
 11
97.46119472903968
 21
163.6136932992667
 31
0.0
  0
LINE
  5
2E3
330
1F
100
AcDbEntity
  8
0
100
AcDbLine
 10
114.5111947290396
 20
151.1136932992667
 30
0.0
 11
114.5111947290396
 21
147.8136932992667
 31
0.0
  0
LINE
  5
2E4
330
1F
100
AcDbEntity
  8
0
100
AcDbLine
 10
114.5111947290396
 20
205.6136932992667
 30
0.0
 11
114.5111947290396
 21
161.1136932992667
 31
0.0
  0
LINE
  5
2E5
330
1F
100
AcDbEntity
  8
0
100
AcDbLine
 10
115.2611947290397
 20
151.1136932992667
 30
0.0
 11
114.5111947290396
 21
151.1136932992667
 31
0.0
  0
LINE
  5
2E6
330
1F
100
AcDbEntity
  8
0
100
AcDbLine
 10
115.2611947290397
 20
161.1136932992667
 30
0.0
 11
114.5111947290396
 21
161.1136932992667
 31
0.0
  0
LINE
  5
2E7
330
1F
100
AcDbEntity
  8
0
  6
H2
100
AcDbLine
 10
115.2611947290397
 20
205.6136932992667
 30
0.0
 11
114.7611947290398
 21
205.6136932992667
 31
0.0
  0
LINE
  5
2E8
330
1F
100
AcDbEntity
  8
0
  6
H2
100
AcDbLine
 10
115.2611947290397
 20
215.6136932992668
 30
0.0
 11
114.7611947290398
 21
215.6136932992668
 31
0.0
  0
ARC
  5
2E9
330
1F
100
AcDbEntity
  8
0
100
AcDbCircle
 10
93.76119472903974
 20
176.6136932992667
 30
0.0
 40
0.5
100
AcDbArc
 50
90.0
 51
180.0
  0
LINE
  5
2EA
330
1F
100
AcDbEntity
  8
0
100
AcDbLine
 10
73.01119472903974
 20
152.7636932992666
 30
0.0
 11
73.01119472903963
 21
147.8136932992667
 31
0.0
  0
LINE
  5
2EB
330
1F
100
AcDbEntity
  8
0
100
AcDbLine
 10
109.3611947290397
 20
177.1136932992667
 30
0.0
 11
93.76119472903974
 21
177.1136932992667
 31
0.0
  0
LINE
  5
2EC
330
1F
100
AcDbEntity
  8
0
100
AcDbLine
 10
93.26119472903974
 20
176.6136932992667
 30
0.0
 11
93.26119472903974
 21
175.0136932992667
 31
0.0
  0
ARC
  5
2ED
330
1F
100
AcDbEntity
  8
0
100
AcDbCircle
 10
81.26119472903964
 20
146.8136932992667
 30
0.0
 40
1.0
100
AcDbArc
 50
270.0
 51
0.0
  0
ARC
  5
2EE
330
1F
100
AcDbEntity
  8
0
100
AcDbCircle
 10
88.26119472903952
 20
146.8136932992667
 30
0.0
 40
1.0
100
AcDbArc
 50
180.0
 51
270.0
  0
LINE
  5
2EF
330
1F
100
AcDbEntity
  8
0
100
AcDbLine
 10
81.26119472903964
 20
145.8136932992666
 30
0.0
 11
75.01119472903963
 21
145.8136932992666
 31
0.0
  0
LINE
  5
2F0
330
1F
100
AcDbEntity
  8
0
100
AcDbLine
 10
87.26119472903951
 20
148.5636932992667
 30
0.0
 11
87.26119472903951
 21
146.8136932992667
 31
0.0
  0
LINE
  5
2F1
330
1F
100
AcDbEntity
  8
0
100
AcDbLine
 10
82.26119472903963
 20
148.5636932992667
 30
0.0
 11
82.26119472903963
 21
146.8136932992667
 31
0.0
  0
ARC
  5
2F2
330
1F
100
AcDbEntity
  8
0
100
AcDbCircle
 10
88.26119472903974
 20
222.8136932992667
 30
0.0
 40
1.0
100
AcDbArc
 50
90.0
 51
180.0
  0
ARC
  5
2F3
330
1F
100
AcDbEntity
  8
0
100
AcDbCircle
 10
81.26119472903951
 20
222.8136932992667
 30
0.0
 40
1.0
100
AcDbArc
 50
0.0
 51
90.0000000000001
  0
LINE
  5
2F4
330
1F
100
AcDbEntity
  8
0
100
AcDbLine
 10
88.26119472903974
 20
223.8136932992667
 30
0.0
 11
103.7611947290397
 21
223.8136932992667
 31
0.0
  0
LINE
  5
2F5
330
1F
100
AcDbEntity
  8
0
100
AcDbLine
 10
87.26119472903974
 20
221.0636932992667
 30
0.0
 11
87.26119472903974
 21
222.8136932992667
 31
0.0
  0
LINE
  5
2F6
330
1F
100
AcDbEntity
  8
0
100
AcDbLine
 10
82.26119472903951
 20
221.0636932992667
 30
0.0
 11
82.26119472903951
 21
222.8136932992667
 31
0.0
  0
ARC
  5
2F7
330
1F
100
AcDbEntity
  8
0
100
AcDbCircle
 10
84.76119472903963
 20
148.5636932992667
 30
0.0
 40
2.5
100
AcDbArc
 50
0.0
 51
180.0
  0
ARC
  5
2F8
330
1F
100
AcDbEntity
  8
0
100
AcDbCircle
 10
84.76119472903963
 20
221.0636932992667
 30
0.0
 40
2.5
100
AcDbArc
 50
180.0
 51
0.0
  0
ARC
  5
2F9
330
1F
100
AcDbEntity
  8
0
100
AcDbCircle
 10
112.5111947290396
 20
147.8136932992667
 30
0.0
 40
2.0
100
AcDbArc
 50
270.0
 51
0.0
  0
LINE
  5
2FA
330
1F
100
AcDbEntity
  8
0
100
AcDbLine
 10
73.01119472903974
 20
221.8136932992667
 30
0.0
 11
73.01119472903963
 21
189.3636932992667
 31
0.0
  0
LINE
  5
2FB
330
1F
100
AcDbEntity
  8
0
100
AcDbLine
 10
112.5111947290396
 20
145.8136932992666
 30
0.0
 11
88.26119472903952
 21
145.8136932992666
 31
0.0
  0
LINE
  5
2FC
330
1F
100
AcDbEntity
  8
0
100
AcDbLine
 10
75.01119472903974
 20
223.8136932992667
 30
0.0
 11
81.26119472903951
 21
223.8136932992667
 31
0.0
  0
LINE
  5
2FD
330
1F
100
AcDbEntity
  8
0
100
AcDbLine
 10
114.5111947290396
 20
220.1136932992667
 30
0.0
 11
114.5111947290396
 21
215.6136932992668
 31
0.0
  0
LINE
  5
2FE
330
1F
100
AcDbEntity
  8
0
100
AcDbLine
 10
81.26119472903964
 20
167.6636932992668
 30
0.0
 11
74.76119472903963
 21
167.6636932992668
 31
0.0
  0
LINE
  5
2FF
330
1F
100
AcDbEntity
  8
0
100
AcDbLine
 10
81.26119472903964
 20
169.3636932992666
 30
0.0
 11
74.76119472903963
 21
169.3636932992666
 31
0.0
  0
LINE
  5
300
330
1F
100
AcDbEntity
  8
0
100
AcDbLine
 10
74.76119472903963
 20
172.7636932992666
 30
0.0
 11
81.26119472903964
 21
172.7636932992666
 31
0.0
  0
LINE
  5
301
330
1F
100
AcDbEntity
  8
0
100
AcDbLine
 10
74.76119472903963
 20
174.4636932992666
 30
0.0
 11
81.26119472903964
 21
174.4636932992667
 31
0.0
  0
ARC
  5
302
330
1F
100
AcDbEntity
  8
0
100
AcDbCircle
 10
153.3776600447272
 20
225.1136932992666
 30
0.0
 40
1.0
100
AcDbArc
 50
0.0
 51
90.0
  0
ARC
  5
303
330
1F
100
AcDbEntity
  8
0
100
AcDbCircle
 10
153.3776600447272
 20
144.6136932992666
 30
0.0
 40
1.0
100
AcDbArc
 50
270.0
 51
0.0
  0
ARC
  5
304
330
1F
100
AcDbEntity
  8
0
100
AcDbCircle
 10
361.7611947290397
 20
222.7466236489834
 30
0.0
 40
1.0
100
AcDbArc
 50
359.9999999999995
 51
90.0
  0
LINE
  5
305
330
1F
100
AcDbEntity
  8
0
100
AcDbLine
 10
198.8420898113426
 20
161.6136932992666
 30
0.0
 11
198.8420898113426
 21
150.6136932992666
 31
0.0
  0
LINE
  5
306
330
1F
100
AcDbEntity
  8
0
100
AcDbLine
 10
198.8420898113426
 20
216.1136932992667
 30
0.0
 11
198.8420898113426
 21
205.1136932992667
 31
0.0
  0
LINE
  5
307
330
1F
100
AcDbEntity
  8
0
100
AcDbLine
 10
115.2611947290397
 20
150.5636932992668
 30
0.0
 11
114.7611947290397
 21
150.5636932992668
 31
0.0
  0
LINE
  5
308
330
1F
100
AcDbEntity
  8
0
100
AcDbLine
 10
115.2611947290397
 20
161.5636932992668
 30
0.0
 11
114.7611947290397
 21
161.5636932992668
 31
0.0
  0
LINE
  5
309
330
1F
100
AcDbEntity
  8
0
100
AcDbLine
 10
115.2611947290397
 20
205.0636932992667
 30
0.0
 11
114.7611947290397
 21
205.0636932992667
 31
0.0
  0
LINE
  5
30A
330
1F
100
AcDbEntity
  8
0
100
AcDbLine
 10
115.2611947290397
 20
216.0636932992669
 30
0.0
 11
114.7611947290397
 21
216.0636932992669
 31
0.0
  0
LINE
  5
30B
330
1F
100
AcDbEntity
  8
0
100
AcDbLine
 10
115.2611947290397
 20
161.5636932992668
 30
0.0
 11
115.2611947290397
 21
150.5636932992668
 31
0.0
  0
LINE
  5
30C
330
1F
100
AcDbEntity
  8
0
100
AcDbLine
 10
115.2611947290397
 20
216.0636932992669
 30
0.0
 11
115.2611947290397
 21
205.0636932992667
 31
0.0
  0
LINE
  5
30D
330
1F
100
AcDbEntity
  8
0
100
AcDbLine
 10
197.3420898113426
 20
216.1136932992667
 30
0.0
 11
199.3420898113427
 21
216.1136932992667
 31
0.0
  0
LINE
  5
30E
330
1F
100
AcDbEntity
  8
0
100
AcDbLine
 10
197.3420898113426
 20
205.1136932992667
 30
0.0
 11
199.3420898113426
 21
205.1136932992667
 31
0.0
  0
LINE
  5
30F
330
1F
100
AcDbEntity
  8
0
100
AcDbLine
 10
197.3420898113426
 20
161.6136932992666
 30
0.0
 11
199.3420898113426
 21
161.6136932992666
 31
0.0
  0
LINE
  5
310
330
1F
100
AcDbEntity
  8
0
100
AcDbLine
 10
197.3420898113426
 20
150.6136932992666
 30
0.0
 11
199.3420898113426
 21
150.6136932992666
 31
0.0
  0
ARC
  5
311
330
1F
100
AcDbEntity
  8
0
100
AcDbCircle
 10
200.3420898113426
 20
146.6136932992666
 30
0.0
 40
3.0
100
AcDbArc
 50
180.0
 51
270.0000000000001
  0
ARC
  5
312
330
1F
100
AcDbEntity
  8
0
100
AcDbCircle
 10
200.3420898113426
 20
223.1136932992666
 30
0.0
 40
3.0
100
AcDbArc
 50
90.0
 51
180.0
  0
LINE
  5
313
330
1F
100
AcDbEntity
  8
0
100
AcDbLine
 10
197.3420898113426
 20
223.1136932992666
 30
0.0
 11
197.3420898113426
 21
146.6136932992666
 31
0.0
  0
LINE
  5
314
330
1F
100
AcDbEntity
  8
0
100
AcDbLine
 10
154.3776600447271
 20
219.1136932992666
 30
0.0
 11
154.3776600447271
 21
216.1136932992668
 31
0.0
  0
LINE
  5
315
330
1F
100
AcDbEntity
  8
0
100
AcDbLine
 10
154.3776600447271
 20
150.6136932992666
 30
0.0
 11
154.3776600447271
 21
144.6136932992666
 31
0.0
  0
LINE
  5
316
330
1F
100
AcDbEntity
  8
0
100
AcDbLine
 10
154.3776600447271
 20
205.1136932992667
 30
0.0
 11
154.3776600447271
 21
161.6136932992666
 31
0.0
  0
LINE
  5
317
330
1F
100
AcDbEntity
  8
0
100
AcDbLine
 10
152.5776600447271
 20
161.6136932992666
 30
0.0
 11
152.5776600447271
 21
150.6136932992666
 31
0.0
  0
LINE
  5
318
330
1F
100
AcDbEntity
  8
0
100
AcDbLine
 10
152.5776600447271
 20
216.1136932992667
 30
0.0
 11
152.5776600447271
 21
205.1136932992667
 31
0.0
  0
LINE
  5
319
330
1F
100
AcDbEntity
  8
0
100
AcDbLine
 10
154.3776600447271
 20
225.1136932992666
 30
0.0
 11
154.3776600447271
 21
223.1136932992666
 31
0.0
  0
LINE
  5
31A
330
1F
100
AcDbEntity
  8
0
100
AcDbLine
 10
358.0590336366789
 20
223.7466236489833
 30
0.0
 11
361.7611947290397
 21
223.7466236489833
 31
0.0
  0
LINE
  5
31B
330
1F
100
AcDbEntity
  8
0
100
AcDbLine
 10
362.7611947290396
 20
217.7466236489835
 30
0.0
 11
362.7611947290398
 21
222.7466236489834
 31
0.0
  0
ARC
  5
31C
330
1F
100
AcDbEntity
  8
0
100
AcDbCircle
 10
113.7611947290397
 20
146.5636932992667
 30
0.0
 40
1.0
100
AcDbArc
 50
269.9999999999999
 51
360.0
  0
ARC
  5
31D
330
1F
100
AcDbEntity
  8
0
100
AcDbCircle
 10
113.7611947290396
 20
146.5636932992668
 30
0.0
 40
3.0
100
AcDbArc
 50
269.9999999999999
 51
360.0
  0
ARC
  5
31E
330
1F
100
AcDbEntity
  8
0
100
AcDbCircle
 10
113.7611947290397
 20
223.0636932992668
 30
0.0
 40
1.0
100
AcDbArc
 50
0.0
 51
90.0000000000001
  0
ARC
  5
31F
330
1F
100
AcDbEntity
  8
0
100
AcDbCircle
 10
113.7611947290397
 20
223.0636932992668
 30
0.0
 40
3.0
100
AcDbArc
 50
0.0
 51
90.0
  0
LINE
  5
320
330
1F
100
AcDbEntity
  8
0
100
AcDbLine
 10
116.7611947290397
 20
223.0636932992668
 30
0.0
 11
116.7611947290396
 21
146.5636932992668
 31
0.0
  0
LINE
  5
321
330
1F
100
AcDbEntity
  8
T
100
AcDbLine
 10
330.7611947290396
 20
205.5529248838973
 30
0.0
 11
330.7611947290396
 21
251.9848299196991
 31
0.0
  0
LINE
  5
322
330
1F
100
AcDbEntity
  8
T
100
AcDbLine
 10
141.2291874660809
 20
171.1136932992668
 30
0.0
 11
181.7349210832895
 21
171.1136932992668
 31
0.0
  0
LINE
  5
323
330
1F
100
AcDbEntity
  8
0
100
AcDbLine
 10
116.7611947290397
 20
219.1136932992665
 30
0.0
 11
114.5111947290396
 21
219.1136932992666
 31
0.0
  0
LINE
  5
324
330
1F
100
AcDbEntity
  8
0
100
AcDbLine
 10
116.7607780334334
 20
223.1136932992666
 30
0.0
 11
113.2599439468114
 21
223.1136932992666
 31
0.0
  0
ARC
  5
325
330
1F
100
AcDbEntity
  8
0
  6
H5
100
AcDbCircle
 10
74.26119472903964
 20
174.0636932992667
 30
0.0
 40
1.0
100
AcDbArc
 50
180.0
 51
269.9999999999997
  0
ARC
  5
326
330
1F
100
AcDbEntity
  8
0
100
AcDbCircle
 10
338.2745921886607
 20
241.7466236489834
 30
0.0
 40
3.0
100
AcDbArc
 50
90.0
 51
180.0000000000018
  0
ARC
  5
327
330
1F
100
AcDbEntity
  8
0
100
AcDbCircle
 10
154.3776600447271
 20
221.1136932992666
 30
0.0
 40
2.0
100
AcDbArc
 50
270.0
 51
90.0
  0
LINE
  5
328
330
1F
100
AcDbEntity
  8
0
100
AcDbLine
 10
154.3776600447271
 20
219.1136932992666
 30
0.0
 11
148.3776600447272
 21
219.1136932992666
 31
0.0
  0
LINE
  5
329
330
1F
100
AcDbEntity
  8
0
100
AcDbLine
 10
154.3776600447271
 20
223.1136932992666
 30
0.0
 11
148.3776600447272
 21
223.1136932992666
 31
0.0
  0
LINE
  5
32A
330
1F
100
AcDbEntity
  8
0
100
AcDbLine
 10
151.0776600447272
 20
161.6136932992666
 30
0.0
 11
151.0776600447272
 21
150.6136932992666
 31
0.0
  0
LINE
  5
32B
330
1F
100
AcDbEntity
  8
0
100
AcDbLine
 10
151.0776600447272
 20
216.1136932992666
 30
0.0
 11
151.0776600447272
 21
205.1136932992667
 31
0.0
  0
ARC
  5
32C
330
1F
100
AcDbEntity
  8
0
100
AcDbCircle
 10
17.80181544588753
 20
168.1136932992667
 30
0.0
 40
1.0
100
AcDbArc
 50
89.99999999999987
 51
180.0
  0
ARC
  5
32D
330
1F
100
AcDbEntity
  8
0
100
AcDbCircle
 10
17.80181544588753
 20
174.1136932992668
 30
0.0
 40
1.0
100
AcDbArc
 50
180.0
 51
270.0
  0
LINE
  5
32E
330
1F
100
AcDbEntity
  8
0
100
AcDbLine
 10
42.20181544588745
 20
158.6351218706953
 30
0.0
 11
42.20181544588745
 21
152.6136932992666
 31
0.0
  0
LINE
  5
32F
330
1F
100
AcDbEntity
  8
0
100
AcDbLine
 10
18.80181544588753
 20
173.1136932992667
 30
0.0
 11
18.80181544588753
 21
169.1136932992666
 31
0.0
  0
LINE
  5
330
330
1F
100
AcDbEntity
  8
0
100
AcDbLine
 10
26.3018154458875
 20
169.1136932992666
 30
0.0
 11
17.80181544588753
 21
169.1136932992667
 31
0.0
  0
LINE
  5
331
330
1F
100
AcDbEntity
  8
0
100
AcDbLine
 10
26.30181544588757
 20
173.1136932992668
 30
0.0
 11
17.80181544588753
 21
173.1136932992668
 31
0.0
  0
LINE
  5
332
330
1F
100
AcDbEntity
  8
0
100
AcDbLine
 10
43.80181544588747
 20
143.6136932992666
 30
0.0
 11
43.80181544588747
 21
226.1136932992666
 31
0.0
  0
LINE
  5
333
330
1F
100
AcDbEntity
  8
0
100
AcDbLine
 10
42.20181544588745
 20
152.6136932992666
 30
0.0
 11
43.80181544588747
 21
152.6136932992666
 31
0.0
  0
LINE
  5
334
330
1F
100
AcDbEntity
  8
0
100
AcDbLine
 10
42.20181544588745
 20
189.6136932992666
 30
0.0
 11
42.20181544588747
 21
183.492264727838
 31
0.0
  0
LINE
  5
335
330
1F
100
AcDbEntity
  8
0
100
AcDbLine
 10
43.80181544588747
 20
189.6136932992666
 30
0.0
 11
42.20181544588745
 21
189.6136932992666
 31
0.0
  0
LINE
  5
336
330
1F
100
AcDbEntity
  8
0
100
AcDbLine
 10
42.20181544588745
 20
154.6136932992665
 30
0.0
 11
37.80181544588748
 21
154.6136932992665
 31
0.0
  0
ARC
  5
337
330
1F
100
AcDbEntity
  8
0
100
AcDbCircle
 10
19.80181544588765
 20
156.1136932992633
 30
0.0
 40
3.0
100
AcDbArc
 50
180.0
 51
269.9999999999998
  0
ARC
  5
338
330
1F
100
AcDbEntity
  8
0
100
AcDbCircle
 10
19.80181544588753
 20
213.5136932992666
 30
0.0
 40
3.0
100
AcDbArc
 50
90.00000000000017
 51
180.0
  0
LINE
  5
339
330
1F
100
AcDbEntity
  8
0
100
AcDbLine
 10
37.80181544588742
 20
153.1136932992632
 30
0.0
 11
19.80181544588765
 21
153.1136932992633
 31
0.0
  0
LINE
  5
33A
330
1F
100
AcDbEntity
  8
0
100
AcDbLine
 10
37.80181544588742
 20
216.5136932992667
 30
0.0
 11
19.80181544588753
 21
216.5136932992666
 31
0.0
  0
ARC
  5
33B
330
1F
100
AcDbEntity
  8
0
100
AcDbCircle
 10
317.7745921886613
 20
222.7466236489834
 30
0.0
 40
1.0
100
AcDbArc
 50
90.0
 51
180.0
  0
LINE
  5
33C
330
1F
100
AcDbEntity
  8
T
100
AcDbLine
 10
229.3420898113425
 20
227.3254758315282
 30
0.0
 11
229.3420898113425
 21
136.3349373423866
 31
0.0
  0
LINE
  5
33D
330
1F
100
AcDbEntity
  8
0
100
AcDbLine
 10
229.3420898113425
 20
223.8136932992667
 30
0.0
 11
229.3420898113425
 21
218.4136932992667
 31
0.0
  0
LINE
  5
33E
330
1F
100
AcDbEntity
  8
0
100
AcDbLine
 10
229.3420898113426
 20
223.8136932992667
 30
0.0
 11
229.3420898113426
 21
218.4136932992667
 31
0.0
  0
LINE
  5
33F
330
1F
100
AcDbEntity
  8
0
100
AcDbLine
 10
243.3420898113426
 20
152.6136932992665
 30
0.0
 11
243.3420898113426
 21
146.6136932992666
 31
0.0
  0
LINE
  5
340
330
1F
100
AcDbEntity
  8
T
100
AcDbLine
 10
256.5398531029818
 20
171.1136932992666
 30
0.0
 11
190.440886392676
 21
171.1136932992666
 31
0.0
  0
ARC
  5
341
330
1F
100
AcDbEntity
  8
0
100
AcDbCircle
 10
202.3420898113426
 20
146.6136932992666
 30
0.0
 40
3.0
100
AcDbArc
 50
180.0
 51
270.0000000000001
  0
ARC
  5
342
330
1F
100
AcDbEntity
  8
0
100
AcDbCircle
 10
202.3420898113426
 20
223.1136932992667
 30
0.0
 40
3.0
100
AcDbArc
 50
90.0
 51
180.0
  0
LINE
  5
343
330
1F
100
AcDbEntity
  8
0
100
AcDbLine
 10
200.3420898113426
 20
143.6136932992666
 30
0.0
 11
240.3420898113426
 21
143.6136932992667
 31
0.0
  0
LINE
  5
344
330
1F
100
AcDbEntity
  8
0
100
AcDbLine
 10
240.3420898113426
 20
226.1136932992666
 30
0.0
 11
200.3420898113426
 21
226.1136932992666
 31
0.0
  0
LINE
  5
345
330
1F
100
AcDbEntity
  8
0
100
AcDbLine
 10
199.3420898113426
 20
223.1136932992667
 30
0.0
 11
199.3420898113426
 21
146.6136932992666
 31
0.0
  0
LINE
  5
346
330
1F
100
AcDbEntity
  8
0
100
AcDbLine
 10
243.3420898113426
 20
223.1136932992666
 30
0.0
 11
243.3420898113426
 21
189.6136932992666
 31
0.0
  0
LINE
  5
347
330
1F
100
AcDbEntity
  8
0
100
AcDbLine
 10
240.8420898113426
 20
187.6136932992666
 30
0.0
 11
240.8420898113426
 21
174.1136932992667
 31
0.0
  0
LINE
  5
348
330
1F
100
AcDbEntity
  8
0
100
AcDbLine
 10
241.3420898113426
 20
154.6136932992665
 30
0.0
 11
240.8420898113426
 21
154.6136932992665
 31
0.0
  0
LINE
  5
349
330
1F
100
AcDbEntity
  8
0
100
AcDbLine
 10
241.3420898113426
 20
187.6136932992666
 30
0.0
 11
240.8420898113426
 21
187.6136932992666
 31
0.0
  0
ARC
  5
34A
330
1F
100
AcDbEntity
  8
0
100
AcDbCircle
 10
241.3420898113426
 20
189.6136932992666
 30
0.0
 40
2.0
100
AcDbArc
 50
270.0000000000001
 51
0.000000000000007
  0
ARC
  5
34B
330
1F
100
AcDbEntity
  8
0
100
AcDbCircle
 10
241.3420898113426
 20
152.6136932992665
 30
0.0
 40
2.0
100
AcDbArc
 50
0.000000000000007
 51
90.0000000000009
  0
ARC
  5
34C
330
1F
100
AcDbEntity
  8
0
100
AcDbCircle
 10
240.3420898113426
 20
146.6136932992666
 30
0.0
 40
3.0
100
AcDbArc
 50
270.0000000000001
 51
0.000000000000007
  0
ARC
  5
34D
330
1F
100
AcDbEntity
  8
0
100
AcDbCircle
 10
240.3420898113426
 20
223.1136932992666
 30
0.0
 40
3.0
100
AcDbArc
 50
0.000000000000007
 51
90.0
  0
LINE
  5
34E
330
1F
100
AcDbEntity
  8
0
100
AcDbLine
 10
239.8420898113426
 20
169.1136932992667
 30
0.0
 11
230.3420898113426
 21
169.1136932992667
 31
0.0
  0
LINE
  5
34F
330
1F
100
AcDbEntity
  8
0
100
AcDbLine
 10
239.8420898113426
 20
173.1136932992667
 30
0.0
 11
230.3420898113426
 21
173.1136932992666
 31
0.0
  0
LINE
  5
350
330
1F
100
AcDbEntity
  8
0
100
AcDbLine
 10
230.3420898113426
 20
173.1136932992667
 30
0.0
 11
230.3420898113426
 21
169.1136932992667
 31
0.0
  0
LINE
  5
351
330
1F
100
AcDbEntity
  8
0
100
AcDbLine
 10
240.8420898113426
 20
168.1136932992667
 30
0.0
 11
240.8420898113426
 21
154.6136932992665
 31
0.0
  0
ARC
  5
352
330
1F
100
AcDbEntity
  8
0
100
AcDbCircle
 10
239.8420898113426
 20
174.1136932992667
 30
0.0
 40
1.0
100
AcDbArc
 50
270.0000000000003
 51
0.000000000000007
  0
ARC
  5
353
330
1F
100
AcDbEntity
  8
0
100
AcDbCircle
 10
239.8420898113426
 20
168.1136932992667
 30
0.0
 40
1.0
100
AcDbArc
 50
0.000000000000007
 51
90.0
  0
LINE
  5
354
330
1F
100
AcDbEntity
  8
T
100
AcDbLine
 10
237.3420898113425
 20
213.1998342570161
 30
0.0
 11
237.3420898113425
 21
228.9483266298892
 31
0.0
  0
LINE
  5
355
330
1F
100
AcDbEntity
  8
T
100
AcDbLine
 10
245.3324159823349
 20
220.0136932992666
 30
0.0
 11
231.7260440093824
 21
220.0136932992666
 31
0.0
  0
LINE
  5
356
330
1F
100
AcDbEntity
  8
T
100
AcDbLine
 10
234.5058404339641
 20
221.0136932992666
 30
0.0
 11
224.4107902604832
 21
221.0136932992666
 31
0.0
  0
LINE
  5
357
330
1F
100
AcDbEntity
  8
T
100
AcDbLine
 10
244.161975382511
 20
149.6136932992666
 30
0.0
 11
231.8723490843604
 21
149.6136932992666
 31
0.0
  0
LINE
  5
358
330
1F
100
AcDbEntity
  8
T
100
AcDbLine
 10
233.9206201340521
 20
148.6136932992666
 30
0.0
 11
223.0940445856813
 21
148.6136932992666
 31
0.0
  0
LINE
  5
359
330
1F
100
AcDbEntity
  8
T
100
AcDbLine
 10
237.3420898113425
 20
155.8856489000022
 30
0.0
 11
237.3420898113425
 21
141.6861885638051
 31
0.0
  0
CIRCLE
  5
35A
330
1F
100
AcDbEntity
  8
0
100
AcDbCircle
 10
229.3420898113425
 20
148.6136932992665
 30
0.0
 40
2.25
  0
CIRCLE
  5
35B
330
1F
100
AcDbEntity
  8
0
100
AcDbCircle
 10
229.3420898113425
 20
221.0136932992666
 30
0.0
 40
2.25
  0
CIRCLE
  5
35C
330
1F
100
AcDbEntity
  8
0
100
AcDbCircle
 10
237.3420898113425
 20
220.0136932992666
 30
0.0
 40
1.1
  0
CIRCLE
  5
35D
330
1F
100
AcDbEntity
  8
0
100
AcDbCircle
 10
237.3420898113425
 20
149.6136932992667
 30
0.0
 40
1.1
  0
ARC
  5
35E
330
1F
100
AcDbEntity
  8
0
100
AcDbCircle
 10
229.3420898113426
 20
221.0136932992666
 30
0.0
 40
4.5
100
AcDbArc
 50
180.0
 51
270.0000000000001
  0
LINE
  5
35F
330
1F
100
AcDbEntity
  8
0
100
AcDbLine
 10
229.3420898113426
 20
216.5136932992666
 30
0.0
 11
240.3420898113426
 21
216.5136932992666
 31
0.0
  0
LINE
  5
360
330
1F
100
AcDbEntity
  8
0
100
AcDbLine
 10
224.8420898113427
 20
221.0136932992666
 30
0.0
 11
224.8420898113426
 21
223.1136932992667
 31
0.0
  0
ARC
  5
361
330
1F
100
AcDbEntity
  8
0
100
AcDbCircle
 10
229.3420898113425
 20
148.6136932992665
 30
0.0
 40
4.5
100
AcDbArc
 50
90.0
 51
180.0
  0
LINE
  5
362
330
1F
100
AcDbEntity
  8
0
100
AcDbLine
 10
229.3420898113425
 20
153.1136932992633
 30
0.0
 11
237.8420898113426
 21
153.1136932992634
 31
0.0
  0
LINE
  5
363
330
1F
100
AcDbEntity
  8
0
100
AcDbLine
 10
224.8420898113458
 20
148.6136932992666
 30
0.0
 11
224.8420898113457
 21
146.6136932992666
 31
0.0
  0
ARC
  5
364
330
1F
100
AcDbEntity
  8
0
100
AcDbCircle
 10
237.8420898113426
 20
156.1136932992634
 30
0.0
 40
3.0
100
AcDbArc
 50
270.0000000000001
 51
0.000000000000007
  0
ARC
  5
365
330
1F
100
AcDbEntity
  8
0
100
AcDbCircle
 10
221.8420898113457
 20
146.6136932992666
 30
0.0
 40
3.0
100
AcDbArc
 50
270.0000000000002
 51
0.000000000000007
  0
ARC
  5
366
330
1F
100
AcDbEntity
  8
0
100
AcDbCircle
 10
221.8420898113426
 20
223.1136932992666
 30
0.0
 40
3.0
100
AcDbArc
 50
0.0000000000006431
 51
90.0
  0
ARC
  5
367
330
1F
100
AcDbEntity
  8
0
100
AcDbCircle
 10
240.3420898113426
 20
213.5136932992666
 30
0.0
 40
3.0
100
AcDbArc
 50
0.000000000000007
 51
90.00000000000021
  0
LINE
  5
368
330
1F
100
AcDbEntity
  8
0
100
AcDbLine
 10
335.2745921886612
 20
223.7466236489833
 30
0.0
 11
335.2745921886608
 21
241.7466236489833
 31
0.0
  0
LINE
  5
369
330
1F
100
AcDbEntity
  8
T
100
AcDbLine
 10
317.7745921886613
 20
223.7466236489833
 30
0.0
 11
338.2745921886612
 21
223.7466236489833
 31
0.0
  0
LINE
  5
36A
330
1F
100
AcDbEntity
  8
0
100
AcDbLine
 10
97.66119472903973
 20
224.0636932992669
 30
0.0
 11
97.66119472903973
 21
223.7136932992668
 31
0.0
  0
LINE
  5
36B
330
1F
100
AcDbEntity
  8
0
100
AcDbLine
 10
94.66119472903974
 20
224.0636932992668
 30
0.0
 11
94.66119472903974
 21
223.7136932992668
 31
0.0
  0
ARC
  5
36C
330
1F
100
AcDbEntity
  8
0
100
AcDbCircle
 10
73.76119472903964
 20
213.9636932992667
 30
0.0
 40
1.0
100
AcDbArc
 50
138.5903778907263
 51
180.0
  0
ARC
  5
36D
330
1F
100
AcDbEntity
  8
0
100
AcDbCircle
 10
91.76119472903964
 20
223.0636932992668
 30
0.0
 40
1.0
100
AcDbArc
 50
90.00000000000017
 51
139.4583981266171
  0
CIRCLE
  5
36E
330
1F
100
AcDbEntity
  8
0
100
AcDbCircle
 10
84.76119472903976
 20
221.0636932992667
 30
0.0
 40
2.25
  0
CIRCLE
  5
36F
330
1F
100
AcDbEntity
  8
0
100
AcDbCircle
 10
84.76119472903976
 20
148.5636932992667
 30
0.0
 40
2.25
  0
ARC
  5
370
330
1F
100
AcDbEntity
  8
0
  6
H5
100
AcDbCircle
 10
74.26119472903964
 20
168.0636932992668
 30
0.0
 40
1.0
100
AcDbArc
 50
90.0
 51
180.0
  0
ARC
  5
371
330
1F
100
AcDbEntity
  8
0
100
AcDbCircle
 10
19.80181544588753
 20
190.6136932992666
 30
0.0
 40
3.0
100
AcDbArc
 50
180.0
 51
270.0
  0
LINE
  5
372
330
1F
100
AcDbEntity
  8
0
100
AcDbLine
 10
42.30181544588748
 20
187.6136932992666
 30
0.0
 11
19.80181544588753
 21
187.6136932992666
 31
0.0
  0
LINE
  5
373
330
1F
100
AcDbEntity
  8
0
100
AcDbLine
 10
72.76119472903964
 20
189.5636932992667
 30
0.0
 11
70.76119472903965
 21
189.5636932992666
 31
0.0
  0
LINE
  5
374
330
1F
100
AcDbEntity
  8
0
100
AcDbLine
 10
73.01119472903973
 20
152.5636932992668
 30
0.0
 11
70.76119472903965
 21
152.5636932992668
 31
0.0
  0
LINE
  5
375
330
1F
100
AcDbEntity
  8
0
  6
H5
100
AcDbLine
 10
73.26119472903965
 20
168.0636932992668
 30
0.0
 11
73.26119472903965
 21
154.5636932992667
 31
0.0
  0
LINE
  5
376
330
1F
100
AcDbEntity
  8
0
  6
H5
100
AcDbLine
 10
83.76119472903964
 20
173.0636932992668
 30
0.0
 11
83.76119472903964
 21
169.0636932992668
 31
0.0
  0
LINE
  5
377
330
1F
100
AcDbEntity
  8
0
  6
H5
100
AcDbLine
 10
74.26119472903964
 20
173.0636932992667
 30
0.0
 11
83.76119472903971
 21
173.0636932992667
 31
0.0
  0
LINE
  5
378
330
1F
100
AcDbEntity
  8
0
  6
H5
100
AcDbLine
 10
74.26119472903964
 20
169.0636932992668
 30
0.0
 11
83.76119472903971
 21
169.0636932992668
 31
0.0
  0
ARC
  5
379
330
1F
100
AcDbEntity
  8
0
100
AcDbCircle
 10
73.76119472903964
 20
223.0636932992668
 30
0.0
 40
3.0
100
AcDbArc
 50
90.0
 51
180.0
  0
ARC
  5
37A
330
1F
100
AcDbEntity
  8
0
100
AcDbCircle
 10
73.76119472903964
 20
223.0636932992668
 30
0.0
 40
1.0
100
AcDbArc
 50
90.0
 51
180.0
  0
ARC
  5
37B
330
1F
100
AcDbEntity
  8
0
100
AcDbCircle
 10
73.76119472903964
 20
146.5636932992668
 30
0.0
 40
3.0
100
AcDbArc
 50
180.0
 51
270.0
  0
ARC
  5
37C
330
1F
100
AcDbEntity
  8
0
100
AcDbCircle
 10
73.76119472903964
 20
146.5636932992668
 30
0.0
 40
1.0
100
AcDbArc
 50
180.0
 51
270.0
  0
ARC
  5
37D
330
1F
100
AcDbEntity
  8
0
  6
H5
100
AcDbCircle
 10
72.76119472903964
 20
152.5636932992667
 30
0.0
 40
2.0
100
AcDbArc
 50
89.99999999999907
 51
180.0
  0
ARC
  5
37E
330
1F
100
AcDbEntity
  8
0
100
AcDbCircle
 10
72.76119472903964
 20
189.5636932992667
 30
0.0
 40
2.0
100
AcDbArc
 50
180.0
 51
188.6269265586771
  0
LINE
  5
37F
330
1F
100
AcDbEntity
  8
0
100
AcDbLine
 10
72.76119472903964
 20
189.5636932992667
 30
0.0
 11
73.01119472903963
 21
189.5636932992667
 31
0.0
  0
LINE
  5
380
330
1F
100
AcDbEntity
  8
0
100
AcDbLine
 10
72.76119472903964
 20
152.5636932992668
 30
0.0
 11
73.01119472903974
 21
152.5636932992668
 31
0.0
  0
LINE
  5
381
330
1F
100
AcDbEntity
  8
0
100
AcDbLine
 10
72.76119472903964
 20
187.5636932992667
 30
0.0
 11
73.26119472903965
 21
187.5636932992667
 31
0.0
  0
LINE
  5
382
330
1F
100
AcDbEntity
  8
0
  6
H5
100
AcDbLine
 10
72.7611947290397
 20
154.5636932992667
 30
0.0
 11
73.26119472903965
 21
154.5636932992667
 31
0.0
  0
LINE
  5
383
330
1F
100
AcDbEntity
  8
0
  6
H5
100
AcDbLine
 10
73.26119472903965
 20
187.5636932992667
 30
0.0
 11
73.26119472903965
 21
174.0636932992667
 31
0.0
  0
LINE
  5
384
330
1F
100
AcDbEntity
  8
0
100
AcDbLine
 10
70.76119472903965
 20
223.0636932992668
 30
0.0
 11
70.76119472903965
 21
189.5636932992667
 31
0.0
  0
LINE
  5
385
330
1F
100
AcDbEntity
  8
0
100
AcDbLine
 10
114.7611947290397
 20
219.1136932992666
 30
0.0
 11
114.7611947290397
 21
215.5136932992668
 31
0.0
  0
LINE
  5
386
330
1F
100
AcDbEntity
  8
0
100
AcDbLine
 10
73.76119472903964
 20
226.0636932992667
 30
0.0
 11
113.7611947290397
 21
226.0636932992667
 31
0.0
  0
LINE
  5
387
330
1F
100
AcDbEntity
  8
0
100
AcDbLine
 10
113.7611947290396
 20
143.5636932992668
 30
0.0
 11
73.76119472903964
 21
143.5636932992668
 31
0.0
  0
LINE
  5
388
330
1F
100
AcDbEntity
  8
0
100
AcDbLine
 10
73.76119472903964
 20
224.0636932992668
 30
0.0
 11
113.7611947290397
 21
224.0636932992668
 31
0.0
  0
LINE
  5
389
330
1F
100
AcDbEntity
  8
0
100
AcDbLine
 10
72.76119472903964
 20
223.0636932992668
 30
0.0
 11
72.76119472903964
 21
189.5636932992667
 31
0.0
  0
LINE
  5
38A
330
1F
100
AcDbEntity
  8
0
100
AcDbLine
 10
113.7611947290397
 20
145.5636932992667
 30
0.0
 11
73.76119472903964
 21
145.5636932992668
 31
0.0
  0
ARC
  5
38B
330
1F
100
AcDbEntity
  8
0
100
AcDbCircle
 10
111.7611947290396
 20
146.5636932992668
 30
0.0
 40
1.0
100
AcDbArc
 50
270.0
 51
301.7883306171386
  0
LINE
  5
38C
330
1F
100
AcDbEntity
  8
0
100
AcDbLine
 10
97.87861903408398
 20
226.0636932992667
 30
0.0
 11
97.87861903408398
 21
224.0636932992669
 31
0.0
  0
LINE
  5
38D
330
1F
100
AcDbEntity
  8
0
100
AcDbLine
 10
107.0437704239954
 20
226.0636932992667
 30
0.0
 11
107.0437704239954
 21
224.0636932992669
 31
0.0
  0
LINE
  5
38E
330
1F
100
AcDbEntity
  8
0
100
AcDbLine
 10
107.0437704239954
 20
145.5636932992668
 30
0.0
 11
107.0437704239954
 21
143.5636932992668
 31
0.0
  0
LINE
  5
38F
330
1F
100
AcDbEntity
  8
0
100
AcDbLine
 10
97.87861903408398
 20
145.5636932992668
 30
0.0
 11
97.87861903408398
 21
143.5636932992668
 31
0.0
  0
LINE
  5
390
330
1F
100
AcDbEntity
  8
T
100
AcDbLine
 10
57.37655015616668
 20
171.0636932992667
 30
0.0
 11
120.6735409188987
 21
171.0636932992667
 31
0.0
  0
LINE
  5
391
330
1F
100
AcDbEntity
  8
0
100
AcDbLine
 10
72.76119472903964
 20
152.5636932992668
 30
0.0
 11
72.76119472903964
 21
146.5636932992668
 31
0.0
  0
LINE
  5
392
330
1F
100
AcDbEntity
  8
0
100
AcDbLine
 10
70.76119472903965
 20
152.5636932992667
 30
0.0
 11
70.76119472903965
 21
146.5636932992668
 31
0.0
  0
LINE
  5
393
330
1F
100
AcDbEntity
  8
0
  6
H2
100
AcDbLine
 10
115.2611947290397
 20
216.0636932992669
 30
0.0
 11
116.7611947290397
 21
216.0636932992669
 31
0.0
  0
LINE
  5
394
330
1F
100
AcDbEntity
  8
0
  6
H2
100
AcDbLine
 10
115.2611947290397
 20
205.0636932992667
 30
0.0
 11
116.7611947290397
 21
205.0636932992669
 31
0.0
  0
LINE
  5
395
330
1F
100
AcDbEntity
  8
0
  6
H2
100
AcDbLine
 10
115.2611947290397
 20
150.5636932992668
 30
0.0
 11
116.7611947290396
 21
150.5636932992668
 31
0.0
  0
LINE
  5
396
330
1F
100
AcDbEntity
  8
0
  6
H2
100
AcDbLine
 10
115.2611947290397
 20
161.5636932992668
 30
0.0
 11
116.7611947290396
 21
161.5636932992668
 31
0.0
  0
LINE
  5
397
330
1F
100
AcDbEntity
  8
0
100
AcDbLine
 10
316.7745921886612
 20
217.7466236489834
 30
0.0
 11
316.7745921886612
 21
241.7466236489834
 31
0.0
  0
LINE
  5
398
330
1F
100
AcDbEntity
  8
0
100
AcDbLine
 10
316.7745921886612
 20
217.7466236489834
 30
0.0
 11
344.910490573523
 21
217.7466236489834
 31
0.0
  0
LINE
  5
399
330
1F
100
AcDbEntity
  8
0
100
AcDbLine
 10
360.7745921886612
 20
223.7466236489833
 30
0.0
 11
360.7745921886612
 21
241.7466236489834
 31
0.0
  0
LINE
  5
39A
330
1F
100
AcDbEntity
  8
0
100
AcDbLine
 10
351.8386938037995
 20
217.7466236489834
 30
0.0
 11
362.7611947290396
 21
217.7466236489835
 31
0.0
  0
LINE
  5
39B
330
1F
100
AcDbEntity
  8
0
100
AcDbLine
 10
319.7745921886613
 20
244.7466236489834
 30
0.0
 11
357.7745921886613
 21
244.7466236489834
 31
0.0
  0
ARC
  5
39C
330
1F
100
AcDbEntity
  8
0
100
AcDbCircle
 10
319.7745921886613
 20
241.7466236489834
 30
0.0
 40
3.0
100
AcDbArc
 50
90.00000000000005
 51
180.0
  0
ARC
  5
39D
330
1F
100
AcDbEntity
  8
0
100
AcDbCircle
 10
357.7745921886613
 20
241.7466236489834
 30
0.0
 40
3.0
100
AcDbArc
 50
0.0
 51
90.00000000000005
  0
ARC
  5
39E
330
1F
100
AcDbEntity
  8
0
100
AcDbCircle
 10
348.3745921886613
 20
215.7466236489834
 30
0.0
 40
4.0
100
AcDbArc
 50
30.00000000000039
 51
150.0000000000034
  0
LINE
  5
39F
330
1F
100
AcDbEntity
  8
0
100
AcDbLine
 10
47.41972014854591
 20
171.1136932992668
 30
0.0
 11
13.51908464640851
 21
171.1136932992668
 31
0.0
  0
LINE
  5
3A0
330
1F
100
AcDbEntity
  8
0
100
AcDbLine
 10
151.0776600447272
 20
150.6136932992666
 30
0.0
 11
154.3776600447271
 21
150.6136932992666
 31
0.0
  0
LINE
  5
3A1
330
1F
100
AcDbEntity
  8
0
100
AcDbLine
 10
151.0776600447272
 20
161.6136932992666
 30
0.0
 11
154.3776600447271
 21
161.6136932992666
 31
0.0
  0
LINE
  5
3A2
330
1F
100
AcDbEntity
  8
0
100
AcDbLine
 10
151.0776600447272
 20
205.1136932992667
 30
0.0
 11
154.3776600447271
 21
205.1136932992667
 31
0.0
  0
LINE
  5
3A3
330
1F
100
AcDbEntity
  8
0
100
AcDbLine
 10
151.0776600447272
 20
216.1136932992666
 30
0.0
 11
154.3776600447271
 21
216.1136932992668
 31
0.0
  0
ARC
  5
3A4
330
1F
100
AcDbEntity
  8
0
100
AcDbCircle
 10
172.3776600447272
 20
223.1136932992666
 30
0.0
 40
3.0
100
AcDbArc
 50
0.0
 51
90.0
  0
ARC
  5
3A5
330
1F
100
AcDbEntity
  8
0
100
AcDbCircle
 10
172.3776600447272
 20
146.6136932992666
 30
0.0
 40
3.0
100
AcDbArc
 50
270.0
 51
0.0
  0
LINE
  5
3A6
330
1F
100
AcDbEntity
  8
0
100
AcDbLine
 10
148.3776600447272
 20
226.1136932992666
 30
0.0
 11
148.3776600447272
 21
143.6136932992666
 31
0.0
  0
LINE
  5
3A7
330
1F
100
AcDbEntity
  8
0
100
AcDbLine
 10
172.3776600447272
 20
226.1136932992666
 30
0.0
 11
148.3776600447272
 21
226.1136932992666
 31
0.0
  0
LINE
  5
3A8
330
1F
100
AcDbEntity
  8
0
100
AcDbLine
 10
175.3776600447272
 20
146.6136932992666
 30
0.0
 11
175.3776600447272
 21
223.1136932992666
 31
0.0
  0
LINE
  5
3A9
330
1F
100
AcDbEntity
  8
0
100
AcDbLine
 10
148.3776600447272
 20
143.6136932992666
 30
0.0
 11
172.3776600447272
 21
143.6136932992666
 31
0.0
  0
ARC
  5
3AA
330
1F
100
AcDbEntity
  8
0
100
AcDbCircle
 10
38.80181544588748
 20
144.6136932992666
 30
0.0
 40
1.0
100
AcDbArc
 50
180.0
 51
270.0
  0
ARC
  5
3AB
330
1F
100
AcDbEntity
  8
0
100
AcDbCircle
 10
38.80181544588748
 20
225.1136932992666
 30
0.0
 40
1.0
100
AcDbArc
 50
90.0
 51
180.0
  0
LINE
  5
3AC
330
1F
100
AcDbEntity
  8
0
100
AcDbLine
 10
37.80181544588748
 20
213.5136932992666
 30
0.0
 11
37.80181544588748
 21
225.1136932992666
 31
0.0
  0
LINE
  5
3AD
330
1F
100
AcDbEntity
  8
0
100
AcDbLine
 10
37.80181544588748
 20
144.6136932992666
 30
0.0
 11
37.80181544588748
 21
156.1136932992634
 31
0.0
  0
ARC
  5
3AE
330
1F
100
AcDbEntity
  8
0
100
AcDbCircle
 10
19.80181544588753
 20
146.6136932992666
 30
0.0
 40
3.0
100
AcDbArc
 50
180.0
 51
270.0
  0
ARC
  5
3AF
330
1F
100
AcDbEntity
  8
0
100
AcDbCircle
 10
19.80181544588753
 20
223.1136932992666
 30
0.0
 40
3.0
100
AcDbArc
 50
90.0
 51
180.0
  0
LINE
  5
3B0
330
1F
100
AcDbEntity
  8
0
100
AcDbLine
 10
43.80181544588747
 20
226.1136932992666
 30
0.0
 11
19.80181544588753
 21
226.1136932992666
 31
0.0
  0
LINE
  5
3B1
330
1F
100
AcDbEntity
  8
0
100
AcDbLine
 10
19.80181544588753
 20
143.6136932992666
 30
0.0
 11
43.80181544588747
 21
143.6136932992666
 31
0.0
  0
LINE
  5
3B2
330
1F
100
AcDbEntity
  8
0
100
AcDbLine
 10
16.80181544588753
 20
223.1136932992666
 30
0.0
 11
16.80181544588753
 21
146.6136932992666
 31
0.0
  0
LINE
  5
3B3
330
1F
100
AcDbEntity
  8
0
100
AcDbLine
 10
97.87861903408408
 20
226.0636932992667
 30
0.0
 11
97.87861903408408
 21
224.0636932992669
 31
0.0
  0
LINE
  5
3B4
330
1F
100
AcDbEntity
  8
0
100
AcDbLine
 10
114.7611947290397
 20
205.5136932992668
 30
0.0
 11
114.7611947290397
 21
161.0136932992667
 31
0.0
  0
LINE
  5
3B5
330
1F
100
AcDbEntity
  8
0
100
AcDbLine
 10
114.7611947290397
 20
151.0136932992667
 30
0.0
 11
114.7611947290397
 21
146.5636932992667
 31
0.0
  0
ARC
  5
3B6
330
1F
100
AcDbEntity
  8
0
  6
H5
100
AcDbCircle
 10
72.76119472903964
 20
189.5636932992667
 30
0.0
 40
2.0
100
AcDbArc
 50
188.6269265586771
 51
270.0
  0
LINE
  5
3B7
330
1F
100
AcDbEntity
  8
T
100
AcDbLine
 10
82.16119472903974
 20
149.5636932992667
 30
0.0
 11
71.36119472903975
 21
149.5636932992667
 31
0.0
  0
LINE
  5
3B8
330
1F
100
AcDbEntity
  8
T
100
AcDbLine
 10
76.76119472903974
 20
154.9636932992666
 30
0.0
 11
76.76119472903974
 21
144.1636932992667
 31
0.0
  0
LINE
  5
3B9
330
1F
100
AcDbEntity
  8
0
100
AcDbLine
 10
89.26119472903975
 20
148.5636932992667
 30
0.0
 11
80.26119472903976
 21
148.5636932992667
 31
0.0
  0
LINE
  5
3BA
330
1F
100
AcDbEntity
  8
0
100
AcDbLine
 10
84.76119472903976
 20
153.0636932992667
 30
0.0
 11
84.76119472903976
 21
144.0636932992667
 31
0.0
  0
LINE
  5
3BB
330
1F
100
AcDbEntity
  8
T
100
AcDbLine
 10
89.76119472903963
 20
148.5636932992667
 30
0.0
 11
79.76119472903963
 21
148.5636932992667
 31
0.0
  0
LINE
  5
3BC
330
1F
100
AcDbEntity
  8
T
100
AcDbLine
 10
84.76119472903963
 20
153.5636932992666
 30
0.0
 11
84.76119472903963
 21
143.5636932992666
 31
0.0
  0
LINE
  5
3BD
330
1F
100
AcDbEntity
  8
0
100
AcDbLine
 10
89.76119472903963
 20
221.0636932992667
 30
0.0
 11
79.76119472903963
 21
221.0636932992667
 31
0.0
  0
LINE
  5
3BE
330
1F
100
AcDbEntity
  8
0
100
AcDbLine
 10
84.76119472903963
 20
226.0636932992667
 30
0.0
 11
84.76119472903963
 21
216.0636932992667
 31
0.0
  0
LINE
  5
3BF
330
1F
100
AcDbEntity
  8
T
100
AcDbLine
 10
82.16119472903976
 20
220.0636932992667
 30
0.0
 11
71.36119472903972
 21
220.0636932992667
 31
0.0
  0
LINE
  5
3C0
330
1F
100
AcDbEntity
  8
T
100
AcDbLine
 10
76.76119472903974
 20
225.4636932992667
 30
0.0
 11
76.76119472903974
 21
214.6636932992667
 31
0.0
  0
LINE
  5
3C1
330
1F
100
AcDbEntity
  8
T
100
AcDbLine
 10
89.26119472903975
 20
221.0636932992667
 30
0.0
 11
80.26119472903976
 21
221.0636932992667
 31
0.0
  0
LINE
  5
3C2
330
1F
100
AcDbEntity
  8
T
100
AcDbLine
 10
84.76119472903976
 20
225.5636932992667
 30
0.0
 11
84.76119472903976
 21
216.5636932992668
 31
0.0
  0
LINE
  5
3C3
330
1F
100
AcDbEntity
  8
0
100
AcDbLine
 10
151.0776600447272
 20
219.1136932992666
 30
0.0
 11
151.0776600447272
 21
223.1136932992666
 31
0.0
  0
LINE
  5
3C4
330
1F
100
AcDbEntity
  8
0
100
AcDbLine
 10
152.5776600447271
 20
219.1136932992666
 30
0.0
 11
152.5776600447271
 21
223.1136932992666
 31
0.0
  0
LINE
  5
3C5
330
1F
100
AcDbEntity
  8
0
100
AcDbLine
 10
253.8420898113425
 20
183.6636932992666
 30
0.0
 11
253.8420898113425
 21
158.6636932992666
 31
0.0
  0
LINE
  5
3C6
330
1F
100
AcDbEntity
  8
0
100
AcDbLine
 10
252.4420898113425
 20
183.6636932992666
 30
0.0
 11
252.4420898113425
 21
158.6636932992667
 31
0.0
  0
LINE
  5
3C7
330
1F
100
AcDbEntity
  8
0
100
AcDbLine
 10
253.8420898113425
 20
183.6636932992666
 30
0.0
 11
252.4420898113425
 21
183.6636932992666
 31
0.0
  0
LINE
  5
3C8
330
1F
100
AcDbEntity
  8
0
100
AcDbLine
 10
253.8420898113425
 20
158.6636932992666
 30
0.0
 11
252.4420898113425
 21
158.6636932992666
 31
0.0
  0
LINE
  5
3C9
330
1F
100
AcDbEntity
  8
0
100
AcDbLine
 10
252.4420898113425
 20
183.6636932992666
 30
0.0
 11
252.4420898113425
 21
183.8108127196094
 31
0.0
  0
LINE
  5
3CA
330
1F
100
AcDbEntity
  8
0
100
AcDbLine
 10
252.4420898113425
 20
158.6636932992667
 30
0.0
 11
252.4420898113425
 21
158.5047985003762
 31
0.0
  0
LINE
  5
3CB
330
1F
100
AcDbEntity
  8
0
100
AcDbLine
 10
251.1863806362659
 20
185.6671616005946
 30
0.0
 11
243.3420898113425
 21
189.4136932992666
 31
0.0
  0
LINE
  5
3CC
330
1F
100
AcDbEntity
  8
0
100
AcDbLine
 10
251.2013940660844
 20
156.6545398566372
 30
0.0
 11
243.3420898113425
 21
152.8136932992666
 31
0.0
  0
ARC
  5
3CD
330
1F
100
AcDbEntity
  8
0
100
AcDbCircle
 10
250.4420898113425
 20
183.8108127196094
 30
0.0
 40
2.0
100
AcDbArc
 50
0.000000000000007
 51
68.15200858934803
  0
ARC
  5
3CE
330
1F
100
AcDbEntity
  8
0
100
AcDbCircle
 10
250.4420898113425
 20
158.5047985003762
 30
0.0
 40
2.0
100
AcDbArc
 50
292.3121362950019
 51
0.000000000000007
  0
LINE
  5
3CF
330
1F
100
AcDbEntity
  8
0
100
AcDbLine
 10
316.7745921886612
 20
217.7466236489834
 30
0.0
 11
307.6611947290397
 21
217.7466236489833
 31
0.0
  0
LINE
  5
3D0
330
1F
100
AcDbEntity
  8
0
100
AcDbLine
 10
316.7745921886612
 20
219.2466236489833
 30
0.0
 11
307.6611947290397
 21
219.2466236489833
 31
0.0
  0
ARC
  5
3D1
330
1F
100
AcDbEntity
  8
0
  6
H5
100
AcDbCircle
 10
317.7745921886613
 20
228.7466236489837
 30
0.0
 40
3.0
100
AcDbArc
 50
270.0
 51
90.0
  0
LINE
  5
3D2
330
1F
100
AcDbEntity
  8
0
  6
H5
100
AcDbLine
 10
316.7745921886612
 20
220.7466236489837
 30
0.0
 11
326.7745921886614
 21
220.7466236489837
 31
0.0
  0
LINE
  5
3D3
330
1F
100
AcDbEntity
  8
0
  6
H5
100
AcDbLine
 10
316.7745921886612
 20
231.7466236489837
 30
0.0
 11
317.7745921886613
 21
231.7466236489837
 31
0.0
  0
LINE
  5
3D4
330
1F
100
AcDbEntity
  8
0
  6
H5
100
AcDbLine
 10
316.7745921886612
 20
239.0627000776466
 30
0.0
 11
319.5381175559652
 21
240.7313403703061
 31
0.0
  0
LINE
  5
3D5
330
1F
100
AcDbEntity
  8
0
100
AcDbLine
 10
26.30181544588756
 20
172.6136932992668
 30
0.0
 11
22.48181544588753
 21
172.6136932992668
 31
0.0
  0
LINE
  5
3D6
330
1F
100
AcDbEntity
  8
0
100
AcDbLine
 10
22.48181544588753
 20
172.6136932992668
 30
0.0
 11
22.48181544588753
 21
169.6136932992668
 31
0.0
  0
LINE
  5
3D7
330
1F
100
AcDbEntity
  8
0
100
AcDbLine
 10
22.48181544588753
 20
169.6136932992668
 30
0.0
 11
26.3018154458875
 21
169.6136932992668
 31
0.0
  0
LINE
  5
3D8
330
1F
100
AcDbEntity
  8
0
100
AcDbLine
 10
26.30181544588747
 20
167.6627128128595
 30
0.0
 11
26.30181544588758
 21
174.464673785674
 31
0.0
  0
LINE
  5
3D9
330
1F
100
AcDbEntity
  8
0
100
AcDbLine
 10
243.3420898113426
 20
172.6136932992666
 30
0.0
 11
243.3420898113426
 21
169.6136932992666
 31
0.0
  0
LINE
  5
3DA
330
1F
100
AcDbEntity
  8
0
100
AcDbLine
 10
250.3420898113426
 20
172.6136932992666
 30
0.0
 11
250.3420898113426
 21
169.6136932992666
 31
0.0
  0
LINE
  5
3DB
330
1F
100
AcDbEntity
  8
0
100
AcDbLine
 10
250.3420898113426
 20
169.6136932992666
 30
0.0
 11
230.3420898113426
 21
169.6136932992666
 31
0.0
  0
LINE
  5
3DC
330
1F
100
AcDbEntity
  8
0
100
AcDbLine
 10
250.3420898113426
 20
172.6136932992666
 30
0.0
 11
230.3420898113426
 21
172.6136932992666
 31
0.0
  0
LINE
  5
3DD
330
1F
100
AcDbEntity
  8
0
100
AcDbLine
 10
324.0111947290396
 20
207.0466236489834
 30
0.0
 11
324.0111947290396
 21
208.7466236489833
 31
0.0
  0
LINE
  5
3DE
330
1F
100
AcDbEntity
  8
0
100
AcDbLine
 10
337.5111947290396
 20
207.0466236489834
 30
0.0
 11
337.5111947290396
 21
208.7466236489833
 31
0.0
  0
LINE
  5
3DF
330
1F
100
AcDbEntity
  8
0
100
AcDbLine
 10
324.3111947290397
 20
206.7466236489833
 30
0.0
 11
337.2111947290397
 21
206.7466236489833
 31
0.0
  0
LINE
  5
3E0
330
1F
100
AcDbEntity
  8
0
100
AcDbLine
 10
321.3611947290397
 20
208.7466236489833
 30
0.0
 11
340.1611947290396
 21
208.7466236489833
 31
0.0
  0
LINE
  5
3E1
330
1F
100
AcDbEntity
  8
0
100
AcDbLine
 10
324.0111947290396
 20
207.0466236489834
 30
0.0
 11
324.3111947290397
 21
206.7466236489833
 31
0.0
  0
LINE
  5
3E2
330
1F
100
AcDbEntity
  8
0
100
AcDbLine
 10
337.2111947290397
 20
206.7466236489833
 30
0.0
 11
337.5111947290396
 21
207.0466236489834
 31
0.0
  0
LINE
  5
3E3
330
1F
100
AcDbEntity
  8
0
100
AcDbLine
 10
326.7611947290396
 20
206.4466236489833
 30
0.0
 11
334.7611947290396
 21
206.4466236489833
 31
0.0
  0
LINE
  5
3E4
330
1F
100
AcDbEntity
  8
0
100
AcDbLine
 10
334.7611947290396
 20
206.4466236489833
 30
0.0
 11
335.8808099713103
 21
206.7466236489833
 31
0.0
  0
LINE
  5
3E5
330
1F
100
AcDbEntity
  8
0
100
AcDbLine
 10
326.7611947290396
 20
206.4466236489833
 30
0.0
 11
325.6415794867689
 21
206.7466236489833
 31
0.0
  0
LINE
  5
3E6
330
1F
100
AcDbEntity
  8
0
100
AcDbLine
 10
321.3611947290397
 20
208.7466236489833
 30
0.0
 11
321.3611947290397
 21
217.7466236489834
 31
0.0
  0
LINE
  5
3E7
330
1F
100
AcDbEntity
  8
0
100
AcDbLine
 10
340.1611947290397
 20
208.7466236489833
 30
0.0
 11
340.1611947290396
 21
217.7466236489834
 31
0.0
  0
LINE
  5
3E8
330
1F
100
AcDbEntity
  8
T
100
AcDbLine
 10
96.16119472903964
 20
196.1136932992667
 30
0.0
 11
73.36119472903963
 21
196.1136932992667
 31
0.0
  0
LINE
  5
3E9
330
1F
100
AcDbEntity
  8
T
100
AcDbLine
 10
84.76119472903963
 20
207.5136932992668
 30
0.0
 11
84.76119472903963
 21
184.7136932992667
 31
0.0
  0
CIRCLE
  5
3EA
330
1F
100
AcDbEntity
  8
0
100
AcDbCircle
 10
84.76119472903963
 20
196.1136932992667
 30
0.0
 40
6.75
  0
CIRCLE
  5
3EB
330
1F
100
AcDbEntity
  8
0
100
AcDbCircle
 10
84.76119472903963
 20
196.1136932992667
 30
0.0
 40
9.4
  0
ARC
  5
3EC
330
1F
100
AcDbEntity
  8
0
100
AcDbCircle
 10
84.76119472903963
 20
196.1136932992667
 30
0.0
 40
2.399999999999999
100
AcDbArc
 50
301.3881664643534
 51
238.6118335356467
  0
ARC
  5
3ED
330
1F
100
AcDbEntity
  8
0
100
AcDbCircle
 10
84.76119472903965
 20
196.1136932992667
 30
0.0
 40
3.999999999999999
100
AcDbArc
 50
288.2099568642806
 51
251.7900431357189
  0
CIRCLE
  5
3EE
330
1F
100
AcDbEntity
  8
0
100
AcDbCircle
 10
84.76119472903963
 20
196.1136932992667
 30
0.0
 40
5.5
  0
LINE
  5
3EF
330
1F
100
AcDbEntity
  8
0
100
AcDbLine
 10
93.90803465185534
 20
193.9468247230976
 30
0.0
 11
94.04089316508338
 21
194.0796832363257
 31
0.0
  0
LINE
  5
3F0
330
1F
100
AcDbEntity
  8
0
100
AcDbLine
 10
82.5943261528703
 20
205.2605332220822
 30
0.0
 11
82.72718466609877
 21
205.3933917353107
 31
0.0
  0
LINE
  5
3F1
330
1F
100
AcDbEntity
  8
0
100
AcDbLine
 10
83.51119472903963
 20
197.3136932992667
 30
0.0
 11
83.51119472903963
 21
190.7576219778592
 31
0.0
  0
LINE
  5
3F2
330
1F
100
AcDbEntity
  8
0
100
AcDbLine
 10
86.01119472903963
 20
197.3136932992667
 30
0.0
 11
86.01119472903963
 21
190.7576219778592
 31
0.0
  0
LINE
  5
3F3
330
1F
100
AcDbEntity
  8
0
100
AcDbLine
 10
86.01119472903963
 20
197.3136932992667
 30
0.0
 11
83.51119472903963
 21
197.3136932992667
 31
0.0
  0
CIRCLE
  5
3F4
330
1F
100
AcDbEntity
  8
0
100
AcDbCircle
 10
84.76119472903963
 20
196.1136932992667
 30
0.0
 40
6.45
  0
LINE
  5
3F5
330
1F
100
AcDbEntity
  8
0
100
AcDbLine
 10
139.3776600447272
 20
186.7136932992667
 30
0.0
 11
148.3776600447272
 21
186.7136932992668
 31
0.0
  0
LINE
  5
3F6
330
1F
100
AcDbEntity
  8
0
100
AcDbLine
 10
139.3776600447272
 20
205.5136932992668
 30
0.0
 11
148.3776600447272
 21
205.5136932992668
 31
0.0
  0
LINE
  5
3F7
330
1F
100
AcDbEntity
  8
0
100
AcDbLine
 10
137.0776600447271
 20
200.1136932992667
 30
0.0
 11
137.3776600447272
 21
201.2333085415375
 31
0.0
  0
LINE
  5
3F8
330
1F
100
AcDbEntity
  8
0
100
AcDbLine
 10
137.0776600447271
 20
192.1136932992667
 30
0.0
 11
137.3776600447272
 21
190.994078056996
 31
0.0
  0
LINE
  5
3F9
330
1F
100
AcDbEntity
  8
0
100
AcDbLine
 10
137.0776600447271
 20
200.1136932992668
 30
0.0
 11
137.0776600447271
 21
192.1136932992668
 31
0.0
  0
LINE
  5
3FA
330
1F
100
AcDbEntity
  8
0
100
AcDbLine
 10
137.3776600447272
 20
189.6636932992667
 30
0.0
 11
137.6776600447272
 21
189.3636932992667
 31
0.0
  0
LINE
  5
3FB
330
1F
100
AcDbEntity
  8
0
100
AcDbLine
 10
137.6776600447272
 20
202.8636932992668
 30
0.0
 11
137.3776600447272
 21
202.5636932992668
 31
0.0
  0
LINE
  5
3FC
330
1F
100
AcDbEntity
  8
0
100
AcDbLine
 10
139.3776600447271
 20
205.5136932992668
 30
0.0
 11
139.3776600447272
 21
186.7136932992668
 31
0.0
  0
LINE
  5
3FD
330
1F
100
AcDbEntity
  8
0
100
AcDbLine
 10
137.3776600447272
 20
202.5636932992668
 30
0.0
 11
137.3776600447272
 21
189.6636932992667
 31
0.0
  0
LINE
  5
3FE
330
1F
100
AcDbEntity
  8
0
100
AcDbLine
 10
137.6776600447272
 20
189.3636932992667
 30
0.0
 11
139.3776600447272
 21
189.3636932992667
 31
0.0
  0
LINE
  5
3FF
330
1F
100
AcDbEntity
  8
0
100
AcDbLine
 10
137.6776600447272
 20
202.8636932992668
 30
0.0
 11
139.3776600447272
 21
202.8636932992668
 31
0.0
  0
LINE
  5
400
330
1F
100
AcDbEntity
  8
0
100
AcDbLine
 10
52.80181544588748
 20
205.5136932992668
 30
0.0
 11
43.80181544588747
 21
205.5136932992668
 31
0.0
  0
LINE
  5
401
330
1F
100
AcDbEntity
  8
0
100
AcDbLine
 10
52.80181544588748
 20
186.7136932992668
 30
0.0
 11
43.80181544588747
 21
186.7136932992668
 31
0.0
  0
LINE
  5
402
330
1F
100
AcDbEntity
  8
0
100
AcDbLine
 10
55.10181544588749
 20
192.1136932992667
 30
0.0
 11
54.80181544588748
 21
190.994078056996
 31
0.0
  0
LINE
  5
403
330
1F
100
AcDbEntity
  8
0
100
AcDbLine
 10
55.10181544588749
 20
200.1136932992668
 30
0.0
 11
54.80181544588748
 21
201.2333085415375
 31
0.0
  0
LINE
  5
404
330
1F
100
AcDbEntity
  8
0
100
AcDbLine
 10
55.10181544588749
 20
192.1136932992667
 30
0.0
 11
55.10181544588752
 21
200.1136932992667
 31
0.0
  0
LINE
  5
405
330
1F
100
AcDbEntity
  8
0
100
AcDbLine
 10
54.80181544588748
 20
202.5636932992668
 30
0.0
 11
54.50181544588747
 21
202.8636932992668
 31
0.0
  0
LINE
  5
406
330
1F
100
AcDbEntity
  8
0
100
AcDbLine
 10
54.50181544588747
 20
189.3636932992667
 30
0.0
 11
54.80181544588748
 21
189.6636932992668
 31
0.0
  0
LINE
  5
407
330
1F
100
AcDbEntity
  8
0
100
AcDbLine
 10
52.8018154458875
 20
186.7136932992668
 30
0.0
 11
52.80181544588748
 21
205.5136932992668
 31
0.0
  0
LINE
  5
408
330
1F
100
AcDbEntity
  8
0
100
AcDbLine
 10
54.80181544588748
 20
189.6636932992668
 30
0.0
 11
54.80181544588748
 21
202.5636932992668
 31
0.0
  0
LINE
  5
409
330
1F
100
AcDbEntity
  8
0
100
AcDbLine
 10
54.50181544588747
 20
202.8636932992668
 30
0.0
 11
52.80181544588748
 21
202.8636932992668
 31
0.0
  0
LINE
  5
40A
330
1F
100
AcDbEntity
  8
0
100
AcDbLine
 10
54.50181544588747
 20
189.3636932992667
 30
0.0
 11
52.80181544588748
 21
189.3636932992667
 31
0.0
  0
LINE
  5
40B
330
1F
100
AcDbEntity
  8
T
100
AcDbLine
 10
132.8878953725568
 20
196.1136932992667
 30
0.0
 11
151.897307477819
 21
196.1136932992667
 31
0.0
  0
LINE
  5
40C
330
1F
100
AcDbEntity
  8
T
100
AcDbLine
 10
39.63902247782467
 20
196.1136932992667
 30
0.0
 11
58.90531853045527
 21
196.1136932992668
 31
0.0
  0
LINE
  5
40D
330
1F
100
AcDbEntity
  8
0
100
AcDbLine
 10
90.86119472903966
 20
172.7636932992666
 30
0.0
 11
109.8611947290397
 21
172.7636932992665
 31
0.0
  0
LINE
  5
40E
330
1F
100
AcDbEntity
  8
0
100
AcDbLine
 10
91.00412330761434
 20
174.3636932992667
 30
0.0
 11
109.8611947290397
 21
174.3636932992666
 31
0.0
  0
LINE
  5
40F
330
1F
100
AcDbEntity
  8
0
100
AcDbLine
 10
90.86119472903966
 20
169.3636932992666
 30
0.0
 11
109.8611947290396
 21
169.3636932992665
 31
0.0
  0
LINE
  5
410
330
1F
100
AcDbEntity
  8
0
100
AcDbLine
 10
91.14324978186544
 20
167.7636932992667
 30
0.0
 11
109.8611947290396
 21
167.7636932992666
 31
0.0
  0
LINE
  5
411
330
1F
100
AcDbEntity
  8
0
  6
P5
100
AcDbLine
 10
301.0611947290396
 20
206.7466236489833
 30
0.0
 11
324.3111947290397
 21
206.7466236489833
 31
0.0
  0
LINE
  5
412
330
1F
100
AcDbEntity
  8
0
  6
P5
100
AcDbLine
 10
301.0611947290396
 20
207.5466236489833
 30
0.0
 11
324.0111947290396
 21
207.5466236489833
 31
0.0
  0
LINE
  5
413
330
1F
100
AcDbEntity
  8
0
  6
P5
100
AcDbLine
 10
300.2611947290396
 20
207.5466236489833
 30
0.0
 11
300.2611947290396
 21
224.9466236489833
 31
0.0
  0
LINE
  5
414
330
1F
100
AcDbEntity
  8
0
  6
P5
100
AcDbLine
 10
301.0611947290396
 20
207.5466236489833
 30
0.0
 11
301.0611947290396
 21
224.9466236489834
 31
0.0
  0
LINE
  5
415
330
1F
100
AcDbEntity
  8
0
  6
P5
100
AcDbLine
 10
286.0294097315373
 20
225.7466236489833
 30
0.0
 11
305.1611947290397
 21
225.7466236489833
 31
0.0
  0
LINE
  5
416
330
1F
100
AcDbEntity
  8
0
  6
P5
100
AcDbLine
 10
301.0611947290396
 20
224.9466236489834
 30
0.0
 11
305.1611947290397
 21
224.9466236489833
 31
0.0
  0
LINE
  5
417
330
1F
100
AcDbEntity
  8
0
  6
P5
100
AcDbLine
 10
305.1611947290397
 20
224.9466236489833
 30
0.0
 11
305.1611947290397
 21
225.7466236489833
 31
0.0
  0
LINE
  5
418
330
1F
100
AcDbEntity
  8
0
  6
P5
100
AcDbLine
 10
312.2611947290396
 20
232.3466236489833
 30
0.0
 11
312.2611947290396
 21
251.9848299196991
 31
0.0
  0
LINE
  5
419
330
1F
100
AcDbEntity
  8
0
  6
P5
100
AcDbLine
 10
311.4611947290397
 20
232.3466236489833
 30
0.0
 11
311.4611947290397
 21
251.9848299196991
 31
0.0
  0
LINE
  5
41A
330
1F
100
AcDbEntity
  8
0
  6
P5
100
AcDbLine
 10
286.0294097315373
 20
226.5466236489834
 30
0.0
 11
303.7615693244371
 21
226.5466236489834
 31
0.0
  0
LINE
  5
41B
330
1F
100
AcDbEntity
  8
0
  6
P5
100
AcDbLine
 10
311.4611947290397
 20
232.3466236489833
 30
0.0
 11
312.2611947290396
 21
232.3466236489833
 31
0.0
  0
LINE
  5
41C
330
1F
100
AcDbEntity
  8
0
  6
P5
100
AcDbLine
 10
303.7817734273228
 20
226.5466236489882
 30
0.0
 11
303.7817734273228
 21
225.7466236489833
 31
0.0
  0
ARC
  5
41D
330
1F
100
AcDbEntity
  8
0
  6
P5
100
AcDbCircle
 10
301.0611947290396
 20
224.9466236489833
 30
0.0
 40
0.8
100
AcDbArc
 50
89.99999999999985
 51
180.0
  0
LINE
  5
41E
330
1F
100
AcDbEntity
  8
0
  6
P5
100
AcDbLine
 10
311.4611947290397
 20
242.7466236489832
 30
0.0
 11
312.2611947290396
 21
242.7466236489832
 31
0.0
  0
ARC
  5
41F
330
1F
100
AcDbEntity
  8
0
  6
P5
100
AcDbCircle
 10
301.0611947290396
 20
207.5466236489833
 30
0.0
 40
0.8
100
AcDbArc
 50
180.0
 51
270.0
  0
LINE
  5
420
330
1F
100
AcDbEntity
  8
0
  6
P5
100
AcDbLine
 10
337.6611947290397
 20
206.7466236489833
 30
0.0
 11
337.6611947290397
 21
207.5466236489834
 31
0.0
  0
LINE
  5
421
330
1F
100
AcDbEntity
  8
0
  6
P5
100
AcDbLine
 10
323.8611947290396
 20
206.7466236489833
 30
0.0
 11
323.8611947290396
 21
207.5466236489833
 31
0.0
  0
LINE
  5
422
330
1F
100
AcDbEntity
  8
0
  6
P5
100
AcDbLine
 10
337.5111947290396
 20
207.5466236489833
 30
0.0
 11
369.6114249585835
 21
207.5466236489833
 31
0.0
  0
LINE
  5
423
330
1F
100
AcDbEntity
  8
0
  6
P5
100
AcDbLine
 10
337.2111947290396
 20
206.7466236489833
 30
0.0
 11
369.6114249585835
 21
206.7466236489833
 31
0.0
  0
TEXT
  5
483
330
1F
100
AcDbEntity
  8
0
100
AcDbText
 10
286.1999999999998
 20
11.70000000000004
 30
0.0
 40
4.0
  1
dCùi|»àpj
  7
SIMPLEX
100
AcDbText
  0
TEXT
  5
484
330
1F
100
AcDbEntity
  8
0
100
AcDbText
 10
286.1999999999998
 20
2.700000000000045
 30
0.0
 40
4.0
  1
MF201-***
  7
SIMPLEX
100
AcDbText
  0
LINE
  5
4ED
330
1F
100
AcDbEntity
  8
0
100
AcDbLine
 10
0.0
 20
0.0
 30
0.0
 11
-16.1627586695196
 21
0.0
 31
0.0
  0
LINE
  5
4EE
330
1F
100
AcDbEntity
  8
0
100
AcDbLine
 10
0.0
 20
0.0
 30
0.0
 11
0.0
 21
-13.87335872028505
 31
0.0
  0
LINE
  5
4EF
330
1F
100
AcDbEntity
  8
0
100
AcDbLine
 10
384.4
 20
270.4
 30
0.0
 11
397.5874936504322
 21
270.4
 31
0.0
  0
LINE
  5
4F0
330
1F
100
AcDbEntity
  8
0
100
AcDbLine
 10
384.4
 20
270.4
 30
0.0
 11
384.4
 21
284.6457413789151
 31
0.0
  0
LINE
  5
5A0
330
1F
100
AcDbEntity
  8
0
100
AcDbLine
 10
148.3776600447272
 20
143.4136932992666
 30
0.0
 11
148.3776600447272
 21
143.6136932992666
 31
0.0
  0
LINE
  5
5A6
330
1F
100
AcDbEntity
  8
0
100
AcDbLine
 10
84.76119472903963
 20
209.0136932992667
 30
0.0
 11
84.76119472903963
 21
211.0
 31
0.0
  0
LINE
  5
5B1
330
1F
100
AcDbEntity
  8
0
100
AcDbLine
 10
299.5611947290397
 20
206.7466236489833
 30
0.0
 11
284.0
 21
206.7466236489833
 31
0.0
  0
LINE
  5
5C3
330
1F
100
AcDbEntity
  8
0
  6
P5
100
AcDbLine
 10
138.1776600447272
 20
241.5869234085024
 30
0.0
 11
138.1776600447272
 21
203.0136932992668
 31
0.0
  0
LINE
  5
5C4
330
1F
100
AcDbEntity
  8
0
  6
P5
100
AcDbLine
 10
137.3776600447272
 20
241.5869234085024
 30
0.0
 11
137.3776600447272
 21
203.0136932992668
 31
0.0
  0
LINE
  5
5C5
330
1F
100
AcDbEntity
  8
0
  6
P5
100
AcDbLine
 10
139.9776600447272
 20
228.1136932992666
 30
0.0
 11
146.5776600447271
 21
228.1136932992666
 31
0.0
  0
LINE
  5
5C6
330
1F
100
AcDbEntity
  8
0
  6
P5
100
AcDbLine
 10
139.9776600447272
 20
141.6136932992666
 30
0.0
 11
146.5776600447271
 21
141.6136932992666
 31
0.0
  0
LINE
  5
5C7
330
1F
100
AcDbEntity
  8
0
  6
P5
100
AcDbLine
 10
139.9776600447272
 20
142.4136932992666
 30
0.0
 11
146.5776600447271
 21
142.4136932992666
 31
0.0
  0
LINE
  5
5C8
330
1F
100
AcDbEntity
  8
0
  6
P5
100
AcDbLine
 10
139.9776600447272
 20
227.3136932992666
 30
0.0
 11
146.5776600447271
 21
227.3136932992666
 31
0.0
  0
LINE
  5
5C9
330
1F
100
AcDbEntity
  8
0
  6
P5
100
AcDbLine
 10
147.5776600447271
 20
226.3136932992666
 30
0.0
 11
147.5776600447272
 21
213.9136932992666
 31
0.0
  0
LINE
  5
5CA
330
1F
100
AcDbEntity
  8
0
  6
P5
100
AcDbLine
 10
139.9776600447272
 20
212.1136932992666
 30
0.0
 11
146.5776600447271
 21
212.1136932992666
 31
0.0
  0
LINE
  5
5CB
330
1F
100
AcDbEntity
  8
0
  6
P5
100
AcDbLine
 10
139.9776600447272
 20
157.6136932992666
 30
0.0
 11
146.5776600447271
 21
157.6136932992666
 31
0.0
  0
LINE
  5
5CC
330
1F
100
AcDbEntity
  8
0
  6
P5
100
AcDbLine
 10
139.9776600447272
 20
212.9136932992666
 30
0.0
 11
146.5776600447272
 21
212.9136932992666
 31
0.0
  0
LINE
  5
5CD
330
1F
100
AcDbEntity
  8
0
  6
P5
100
AcDbLine
 10
139.9776600447272
 20
156.8136932992666
 30
0.0
 11
146.5776600447272
 21
156.8136932992666
 31
0.0
  0
LINE
  5
5CE
330
1F
100
AcDbEntity
  8
0
  6
P5
100
AcDbLine
 10
138.9776600447272
 20
238.1136932992667
 30
0.0
 11
138.9776600447272
 21
229.1136932992666
 31
0.0
  0
LINE
  5
5CF
330
1F
100
AcDbEntity
  8
0
  6
P5
100
AcDbLine
 10
148.3776600447272
 20
226.1136932992666
 30
0.0
 11
148.3776600447272
 21
226.3136932992666
 31
0.0
  0
ARC
  5
5D0
330
1F
100
AcDbEntity
  8
0
  6
P5
100
AcDbCircle
 10
146.5776600447271
 20
226.3136932992666
 30
0.0
 40
1.0
100
AcDbArc
 50
0.0
 51
90.0
  0
ARC
  5
5D1
330
1F
100
AcDbEntity
  8
0
  6
P5
100
AcDbCircle
 10
146.5776600447271
 20
226.3136932992666
 30
0.0
 40
1.8
100
AcDbArc
 50
0.0
 51
90.0
  0
LINE
  5
5D2
330
1F
100
AcDbEntity
  8
0
  6
P5
100
AcDbLine
 10
138.9776600447272
 20
211.1136932992666
 30
0.0
 11
138.9776600447272
 21
203.0136932992668
 31
0.0
  0
ARC
  5
5D3
330
1F
100
AcDbEntity
  8
0
  6
P5
100
AcDbCircle
 10
139.9776600447272
 20
229.1136932992666
 30
0.0
 40
1.0
100
AcDbArc
 50
180.0000000000001
 51
269.9999999999996
  0
ARC
  5
5D4
330
1F
100
AcDbEntity
  8
0
  6
P5
100
AcDbCircle
 10
139.9776600447272
 20
229.1136932992666
 30
0.0
 40
1.8
100
AcDbArc
 50
180.0
 51
270.0
  0
LINE
  5
5D5
330
1F
100
AcDbEntity
  8
0
  6
P5
100
AcDbLine
 10
147.5776600447272
 20
155.8136932992666
 30
0.0
 11
147.5776600447271
 21
143.4136932992666
 31
0.0
  0
ARC
  5
5D6
330
1F
100
AcDbEntity
  8
0
  6
P5
100
AcDbCircle
 10
146.5776600447272
 20
213.9136932992666
 30
0.0
 40
1.0
100
AcDbArc
 50
270.0
 51
0.0
  0
ARC
  5
5D7
330
1F
100
AcDbEntity
  8
0
  6
P5
100
AcDbCircle
 10
146.5776600447271
 20
213.9136932992666
 30
0.0
 40
1.8
100
AcDbArc
 50
270.0
 51
0.0
  0
ARC
  5
5D8
330
1F
100
AcDbEntity
  8
0
  6
P5
100
AcDbCircle
 10
139.9776600447272
 20
211.1136932992666
 30
0.0
 40
1.8
100
AcDbArc
 50
90.0
 51
180.0
  0
ARC
  5
5D9
330
1F
100
AcDbEntity
  8
0
  6
P5
100
AcDbCircle
 10
139.9776600447272
 20
211.1136932992666
 30
0.0
 40
1.0
100
AcDbArc
 50
90.0
 51
180.0
  0
LINE
  5
5DA
330
1F
100
AcDbEntity
  8
0
  6
P5
100
AcDbLine
 10
137.3776600447272
 20
189.2136932992667
 30
0.0
 11
138.9776600447272
 21
189.2136932992667
 31
0.0
  0
LINE
  5
5DB
330
1F
100
AcDbEntity
  8
0
  6
P5
100
AcDbLine
 10
137.3776600447272
 20
203.0136932992668
 30
0.0
 11
138.9776600447272
 21
203.0136932992668
 31
0.0
  0
LINE
  5
5DC
330
1F
100
AcDbEntity
  8
0
  6
P5
100
AcDbLine
 10
137.3776600447272
 20
189.2136932992667
 30
0.0
 11
137.3776600447272
 21
127.6870182720329
 31
0.0
  0
LINE
  5
5DD
330
1F
100
AcDbEntity
  8
0
  6
P5
100
AcDbLine
 10
138.1776600447272
 20
189.2136932992667
 30
0.0
 11
138.1776600447272
 21
127.6870182720329
 31
0.0
  0
LINE
  5
5DE
330
1F
100
AcDbEntity
  8
0
  6
P5
100
AcDbLine
 10
138.9776600447272
 20
189.2136932992667
 30
0.0
 11
138.9776600447272
 21
158.6136932992666
 31
0.0
  0
LINE
  5
5DF
330
1F
100
AcDbEntity
  8
0
  6
P5
100
AcDbLine
 10
138.9776600447272
 20
140.6136932992666
 30
0.0
 11
138.9776600447272
 21
131.6136932992666
 31
0.0
  0
ARC
  5
5E0
330
1F
100
AcDbEntity
  8
0
  6
P5
100
AcDbCircle
 10
139.9776600447272
 20
158.6136932992666
 30
0.0
 40
1.0
100
AcDbArc
 50
179.9999999999999
 51
270.0
  0
ARC
  5
5E1
330
1F
100
AcDbEntity
  8
0
  6
P5
100
AcDbCircle
 10
146.5776600447272
 20
155.8136932992666
 30
0.0
 40
1.0
100
AcDbArc
 50
0.0
 51
90.0
  0
ARC
  5
5E2
330
1F
100
AcDbEntity
  8
0
  6
P5
100
AcDbCircle
 10
146.5776600447271
 20
143.4136932992666
 30
0.0
 40
1.0
100
AcDbArc
 50
270.0
 51
359.9999999999999
  0
ARC
  5
5E3
330
1F
100
AcDbEntity
  8
0
  6
P5
100
AcDbCircle
 10
139.9776600447272
 20
140.6136932992666
 30
0.0
 40
1.0
100
AcDbArc
 50
90.0
 51
180.0
  0
ARC
  5
5E4
330
1F
100
AcDbEntity
  8
0
  6
P5
100
AcDbCircle
 10
139.9776600447272
 20
158.6136932992666
 30
0.0
 40
1.8
100
AcDbArc
 50
180.0
 51
270.0
  0
ARC
  5
5E5
330
1F
100
AcDbEntity
  8
0
  6
P5
100
AcDbCircle
 10
146.5776600447271
 20
155.8136932992666
 30
0.0
 40
1.8
100
AcDbArc
 50
0.0
 51
90.0
  0
ARC
  5
5E6
330
1F
100
AcDbEntity
  8
0
  6
P5
100
AcDbCircle
 10
139.9776600447272
 20
140.6136932992666
 30
0.0
 40
1.8
100
AcDbArc
 50
90.0000000000001
 51
180.0
  0
ARC
  5
5E7
330
1F
100
AcDbEntity
  8
0
  6
P5
100
AcDbCircle
 10
146.5776600447271
 20
143.4136932992666
 30
0.0
 40
1.8
100
AcDbArc
 50
270.0000000000001
 51
0.0
  0
LINE
  5
5E8
330
1F
100
AcDbEntity
  8
0
  6
P5
100
AcDbLine
 10
138.1776600447272
 20
238.1136932992667
 30
0.0
 11
138.9776600447272
 21
238.1136932992667
 31
0.0
  0
LINE
  5
5E9
330
1F
100
AcDbEntity
  8
0
  6
P5
100
AcDbLine
 10
138.1776600447272
 20
131.6136932992666
 30
0.0
 11
138.9776600447272
 21
131.6136932992666
 31
0.0
  0
LINE
  5
5F3
330
1F
100
AcDbEntity
  8
0
100
AcDbLine
 10
113.2611947290397
 20
221.6448862370942
 30
0.0
 11
128.1378719366538
 21
226.6079534261301
 31
0.0
  0
LINE
  5
5F4
330
1F
100
AcDbEntity
  8
0
100
AcDbLine
 10
115.0504810464966
 20
221.5773487330502
 30
0.0
 11
128.1378719366538
 21
224.9074673326946
 31
0.0
  0
LINE
  5
5F5
330
1F
100
AcDbEntity
  8
0
100
AcDbLine
 10
114.9701903048392
 20
220.7979592735589
 30
0.0
 11
128.1378719366538
 21
222.7818597159003
 31
0.0
  0
LINE
  5
5F6
330
1F
100
AcDbEntity
  8
0
100
AcDbLine
 10
114.8096088215244
 20
220.2311305757471
 30
0.0
 11
128.1378719366538
 21
220.3019841629736
 31
0.0
  0
LINE
  5
5F7
330
1F
100
AcDbEntity
  8
0
100
AcDbLine
 10
114.8898995631818
 20
219.8768626396147
 30
0.0
 11
128.1378719366538
 21
218.0346693717263
 31
0.0
  0
LINE
  5
5F8
330
1F
100
AcDbEntity
  8
0
100
AcDbLine
 10
128.1378719366538
 20
227.7416108217538
 30
0.0
 11
128.1378719366538
 21
216.8301583888762
 31
0.0
  0
LINE
  5
5F9
330
1F
100
AcDbEntity
  8
0
100
AcDbLine
 10
128.1378719366538
 20
216.8301583888762
 30
0.0
 11
134.5611312692462
 21
216.8301583888762
 31
0.0
  0
LINE
  5
5FA
330
1F
100
AcDbEntity
  8
0
100
AcDbLine
 10
134.5611312692462
 20
216.8301583888762
 30
0.0
 11
134.5611312692462
 21
227.7416108217538
 31
0.0
  0
LINE
  5
5FB
330
1F
100
AcDbEntity
  8
0
100
AcDbLine
 10
134.5611312692462
 20
227.7416108217538
 30
0.0
 11
128.1378719366538
 21
227.7416108217538
 31
0.0
  0
LINE
  5
5FC
330
1F
100
AcDbEntity
  8
0
100
AcDbLine
 10
113.926346977401
 20
221.0234452493512
 30
0.0
 11
128.1378719366538
 21
225.7646083630694
 31
0.0
  0
LINE
  5
5FD
330
1F
100
AcDbEntity
  8
0
100
AcDbLine
 10
115.2477567477365
 20
220.8020537584113
 30
0.0
 11
128.1378719366538
 21
224.0819750737024
 31
0.0
  0
LINE
  5
5FE
330
1F
100
AcDbEntity
  8
0
100
AcDbLine
 10
115.089376640648
 20
220.0068874580096
 30
0.0
 11
128.1378719366538
 21
221.9728307662902
 31
0.0
  0
LINE
  5
5FF
330
1F
100
AcDbEntity
  8
0
100
AcDbLine
 10
114.8138615938753
 20
219.4311418796224
 30
0.0
 11
128.1421247090046
 21
219.5019954668488
 31
0.0
  0
LINE
  5
600
330
1F
100
AcDbEntity
  8
0
100
AcDbLine
 10
115.0000831830571
 20
220.6692385415143
 30
0.0
 11
128.1378719366538
 21
218.8423668275244
 31
0.0
  0
LINE
  5
601
330
1F
100
AcDbEntity
  8
0
100
AcDbLine
 10
116.7607780334334
 20
224.6136932992666
 30
0.0
 11
116.7607780334334
 21
238.0
 31
0.0
  0
LINE
  5
602
330
1F
100
AcDbEntity
  8
0
100
AcDbLine
 10
128.1378719366538
 20
229.2416108217538
 30
0.0
 11
128.1378719366538
 21
238.0
 31
0.0
  0
LINE
  5
603
330
1F
100
AcDbEntity
  8
0
100
AcDbLine
 10
116.7607780334334
 20
237.0
 30
0.0
 11
128.1378719366538
 21
237.0
 31
0.0
  0
INSERT
  5
604
330
1F
100
AcDbEntity
  8
0
100
AcDbBlockReference
  2
SUG-AR01
 10
116.7607780334334
 20
237.0
 30
0.0
 41
0.5
 42
0.5
 43
0.5
  0
INSERT
  5
605
330
1F
100
AcDbEntity
  8
0
100
AcDbBlockReference
  2
SUG-AR01
 10
128.1378719366538
 20
237.0
 30
0.0
 41
0.5
 42
0.5
 43
0.5
 50
180.0
  0
TEXT
  5
606
330
1F
100
AcDbEntity
  8
0
100
AcDbText
 10
118.5921821279007
 20
237.9
 30
0.0
 40
3.0
  1
450
  7
SIMPLEX
 72
     1
 11
122.4493249850436
 21
237.9
 31
0.0
100
AcDbText
  0
INSERT
  5
6B2
330
1F
100
AcDbEntity
  8
0
100
AcDbBlockReference
  2
*X1
 10
0.0
 20
-12.0
 30
0.0
  0
LINE
  5
6C5
330
1F
100
AcDbEntity
  8
0
100
AcDbLine
 10
104.7611947290397
 20
222.8136932992667
 30
0.0
 11
104.7611947290397
 21
222.1136932992667
 31
0.0
  0
LINE
  5
6C6
330
1F
100
AcDbEntity
  8
0
100
AcDbLine
 10
105.7611947290397
 20
221.1136932992667
 30
0.0
 11
113.5111947290396
 21
221.1136932992667
 31
0.0
  0
ARC
  5
6C7
330
1F
100
AcDbEntity
  8
0
100
AcDbCircle
 10
103.7611947290397
 20
222.8136932992667
 30
0.0
 40
1.0
100
AcDbArc
 50
0.0
 51
90.0
  0
ARC
  5
6C8
330
1F
100
AcDbEntity
  8
0
100
AcDbCircle
 10
105.7611947290397
 20
222.1136932992667
 30
0.0
 40
1.0
100
AcDbArc
 50
180.0000000000004
 51
269.9999999999998
  0
ARC
  5
6C9
330
1F
100
AcDbEntity
  8
0
100
AcDbCircle
 10
113.5111947290396
 20
220.1136932992667
 30
0.0
 40
1.0
100
AcDbArc
 50
0.0000000000001527
 51
90.0
  0
LINE
  5
6CA
330
1F
100
AcDbEntity
  8
0
100
AcDbLine
 10
113.2611947290397
 20
223.0636932992667
 30
0.0
 11
113.2611947290397
 21
221.1136932992667
 31
0.0
  0
ARC
  5
6CB
330
1F
100
AcDbEntity
  8
0
100
AcDbCircle
 10
112.2611947290397
 20
223.0636932992667
 30
0.0
 40
1.0
100
AcDbArc
 50
360.0
 51
90.0
  0
LINE
  5
6CC
330
1F
100
AcDbEntity
  8
0
  6
P6
100
AcDbLine
 10
8.384866661661092
 20
127.2514179486041
 30
0.0
 11
8.384866661661092
 21
26.97961640769004
 31
0.0
  0
LINE
  5
6CD
330
1F
100
AcDbEntity
  8
0
100
AcDbLine
 10
38.88486666166109
 20
135.3850290996371
 30
0.0
 11
38.88486666166109
 21
28.28570571723156
 31
0.0
  0
LWPOLYLINE
  5
6CE
330
1F
100
AcDbEntity
  8
0
  6
P6
100
AcDbPolyline
 90
        3
 70
     0
 43
0.0
 10
8.384866661661092
 20
127.2514179486041
 42
-0.1590870236563389
 10
49.22504648610352
 20
123.5058194541223
 42
0.2063499961109449
 10
76.81762206211955
 20
123.5058194541223
 42
-1.329522882361834
  0
LINE
  5
6CF
330
1F
100
AcDbEntity
  8
0
100
AcDbLine
 10
27.19777649032911
 20
91.28139801065016
 30
0.0
 11
52.91685181071774
 21
91.28139801065016
 31
0.0
  0
LINE
  5
6D0
330
1F
100
AcDbEntity
  8
0
100
AcDbLine
 10
27.38280580918083
 20
116.2813980106501
 30
0.0
 11
49.58632407138686
 21
116.2813980106501
 31
0.0
  0
LINE
  5
6D1
330
1F
100
AcDbEntity
  8
0
100
AcDbLine
 10
33.30374401243576
 20
43.78139801065013
 30
0.0
 11
45.70070837550078
 21
43.78139801065013
 31
0.0
  0
LWPOLYLINE
  5
6D2
330
1F
100
AcDbEntity
  8
0
  6
P6
100
AcDbPolyline
 90
        3
 70
     0
 43
0.0
 10
8.384866661661092
 20
26.97961640769004
 42
-0.1669887310946092
 10
54.58211568038321
 20
27.63266106246081
 42
0.1662959941980905
 10
80.11616168192013
 20
27.95918338984618
 42
-2.456109168502125
  0
CIRCLE
  5
6D3
330
1F
100
AcDbEntity
  8
0
100
AcDbCircle
 10
38.88486666166109
 20
91.28139801065016
 30
0.0
 40
6.849999999999999
  0
CIRCLE
  5
6D4
330
1F
100
AcDbEntity
  8
0
  6
H5
100
AcDbCircle
 10
38.88486666166109
 20
116.2813980106502
 30
0.0
 40
1.75
  0
CIRCLE
  5
6D5
330
1F
100
AcDbEntity
  8
0
  6
H5
100
AcDbCircle
 10
38.88486666166109
 20
116.2813980106502
 30
0.0
 40
2.0
  0
CIRCLE
  5
6D6
330
1F
100
AcDbEntity
  8
0
  6
H5
100
AcDbCircle
 10
38.88486666166109
 20
43.78139801065013
 30
0.0
 40
1.75
  0
CIRCLE
  5
6D7
330
1F
100
AcDbEntity
  8
0
  6
H5
100
AcDbCircle
 10
38.88486666166109
 20
43.78139801065013
 30
0.0
 40
2.0
  0
LWPOLYLINE
  5
6D8
330
1F
100
AcDbEntity
  8
0
100
AcDbPolyline
 90
        3
 70
     0
 43
0.0
 10
38.88486666166109
 20
91.28139801065016
 10
25.90257125836707
 20
104.7129722804293
 10
14.0606948518572
 20
104.7129722804293
  0
INSERT
  5
6D9
330
1F
100
AcDbEntity
  8
0
100
AcDbBlockReference
  2
SUG-AR01
 10
34.12426097343122
 20
96.20675418875476
 30
0.0
 41
0.5
 42
0.5
 43
0.5
 50
134.0255384331743
  0
TEXT
  5
6DA
330
1F
100
AcDbEntity
  8
0
100
AcDbText
 10
14.0606948518572
 20
105.6129722804294
 30
0.0
 40
3.0
  1
Ó13.7
  7
SIMPLEX
100
AcDbText
  0
LINE
  5
6DB
330
1F
100
AcDbEntity
  8
0
  6
P5
100
AcDbLine
 10
362.7611947290396
 20
207.5466236489833
 30
0.0
 11
362.7611947290396
 21
217.7466236489835
 31
0.0
  0
LINE
  5
6DC
330
1F
100
AcDbEntity
  8
0
  6
P5
100
AcDbLine
 10
305.7611947290397
 20
207.5466236489834
 30
0.0
 11
305.7611947290397
 21
217.7466236489835
 31
0.0
  0
LINE
  5
6DD
330
1F
100
AcDbEntity
  8
0
  6
P5
100
AcDbLine
 10
362.7611947290396
 20
217.7466236489835
 30
0.0
 11
305.7611947290397
 21
217.7466236489835
 31
0.0
  0
LINE
  5
6DE
330
1F
100
AcDbEntity
  8
0
  6
P5
100
AcDbLine
 10
337.5111947290396
 20
208.5466236489834
 30
0.0
 11
362.7611947290396
 21
208.5466236489834
 31
0.0
  0
LINE
  5
6DF
330
1F
100
AcDbEntity
  8
0
  6
P5
100
AcDbLine
 10
305.7611947290396
 20
208.5466236489834
 30
0.0
 11
324.0111947290396
 21
208.5466236489834
 31
0.0
  0
LWPOLYLINE
  5
6E0
330
1F
100
AcDbEntity
  8
0
100
AcDbPolyline
 90
        3
 70
     0
 43
0.0
 10
39.93280264265862
 20
42.13457687583079
 10
48.39031335364213
 20
33.56612924376328
 10
70.89146839335764
 20
33.56612924376328
  0
INSERT
  5
6E1
330
1F
100
AcDbEntity
  8
0
100
AcDbBlockReference
  2
SUG-AR01
 10
39.93280264265862
 20
42.13457687583079
 30
0.0
 41
0.5
 42
0.5
 43
0.5
 50
314.626680196592
  0
TEXT
  5
6E2
330
1F
100
AcDbEntity
  8
0
100
AcDbText
 10
58.7486112505005
 20
34.46612924376328
 30
0.0
 40
3.0
  1
2-M4
  7
SIMPLEX
 72
     2
 11
70.89146839335764
 21
34.46612924376328
 31
0.0
100
AcDbText
  0
TEXT
  5
6E3
330
1F
100
AcDbEntity
  8
0
100
AcDbText
 10
9.872492340690953
 20
120.4806286751125
 30
0.0
 40
3.0
  1
ætQl}
  7
SIMPLEX
100
AcDbText
  0
LINE
  5
6E5
330
1F
100
AcDbEntity
  8
0
100
AcDbLine
 10
47.20070837550077
 20
43.78139801065013
 30
0.0
 11
66.12367193262146
 21
43.78139801065013
 31
0.0
  0
LINE
  5
6E6
330
1F
100
AcDbEntity
  8
0
100
AcDbLine
 10
54.41685181071775
 20
91.28139801065016
 30
0.0
 11
66.12367193262146
 21
91.28139801065016
 31
0.0
  0
LINE
  5
6E7
330
1F
100
AcDbEntity
  8
0
100
AcDbLine
 10
65.12367193262146
 20
43.78139801065013
 30
0.0
 11
65.12367193262146
 21
91.28139801065016
 31
0.0
  0
INSERT
  5
6E8
330
1F
100
AcDbEntity
  8
0
100
AcDbBlockReference
  2
SUG-AR01
 10
65.12367193262146
 20
43.78139801065013
 30
0.0
 41
0.5
 42
0.5
 43
0.5
 50
90.0
  0
INSERT
  5
6E9
330
1F
100
AcDbEntity
  8
0
100
AcDbBlockReference
  2
SUG-AR01
 10
65.12367193262146
 20
91.28139801065016
 30
0.0
 41
0.5
 42
0.5
 43
0.5
 50
270.0
  0
TEXT
  5
6EA
330
1F
100
AcDbEntity
  8
0
100
AcDbText
 10
64.22367193262148
 20
62.95996943922158
 30
0.0
 40
3.0
  1
47.5
 50
90.0
  7
SIMPLEX
 72
     1
 11
64.22367193262148
 21
67.53139801065015
 31
0.0
100
AcDbText
  0
LINE
  5
6EB
330
1F
100
AcDbEntity
  8
0
100
AcDbLine
 10
54.41685181071775
 20
91.28139801065016
 30
0.0
 11
66.12367193262146
 21
91.28139801065016
 31
0.0
  0
LINE
  5
6EC
330
1F
100
AcDbEntity
  8
0
100
AcDbLine
 10
51.08632407138687
 20
116.2813980106501
 30
0.0
 11
66.12367193262146
 21
116.2813980106501
 31
0.0
  0
LINE
  5
6ED
330
1F
100
AcDbEntity
  8
0
100
AcDbLine
 10
65.12367193262146
 20
91.28139801065016
 30
0.0
 11
65.12367193262146
 21
116.2813980106501
 31
0.0
  0
INSERT
  5
6EE
330
1F
100
AcDbEntity
  8
0
100
AcDbBlockReference
  2
SUG-AR01
 10
65.12367193262146
 20
91.28139801065016
 30
0.0
 41
0.5
 42
0.5
 43
0.5
 50
90.0
  0
INSERT
  5
6EF
330
1F
100
AcDbEntity
  8
0
100
AcDbBlockReference
  2
SUG-AR01
 10
65.12367193262146
 20
116.2813980106501
 30
0.0
 41
0.5
 42
0.5
 43
0.5
 50
270.0
  0
TEXT
  5
6F0
330
1F
100
AcDbEntity
  8
0
100
AcDbText
 10
64.22367193262148
 20
101.3528265820787
 30
0.0
 40
3.0
  1
25
 50
90.0
  7
SIMPLEX
 72
     1
 11
64.22367193262148
 21
103.7813980106501
 31
0.0
100
AcDbText
  0
LINE
  5
70F
330
1F
100
AcDbEntity
  8
0
100
AcDbLine
 10
43.80181544588746
 20
185.2136932992667
 30
0.0
 11
43.80181544588746
 21
173.0
 31
0.0
  0
TEXT
  5
714
330
1F
100
AcDbEntity
  8
0
100
AcDbText
 10
77.44607353241349
 20
207.0549711312296
 30
0.0
 40
3.0
  1
C34AB1
  7
SIMPLEX
100
AcDbText
  0
LINE
  5
718
330
1F
100
AcDbEntity
  8
0
  6
P5
100
AcDbLine
 10
305.7611947290396
 20
133.1208765484799
 30
0.0
 11
324.0111947290396
 21
133.1208765484799
 31
0.0
  0
LINE
  5
719
330
1F
100
AcDbEntity
  8
0
  6
P5
100
AcDbLine
 10
337.5111947290396
 20
133.1208765484799
 30
0.0
 11
362.7611947290396
 21
133.1208765484799
 31
0.0
  0
LINE
  5
71A
330
1F
100
AcDbEntity
  8
0
  6
P5
100
AcDbLine
 10
362.7611947290396
 20
142.3208765484801
 30
0.0
 11
305.7611947290396
 21
142.3208765484801
 31
0.0
  0
LINE
  5
71B
330
1F
100
AcDbEntity
  8
0
  6
P5
100
AcDbLine
 10
362.7611947290396
 20
132.1208765484799
 30
0.0
 11
362.7611947290396
 21
142.3208765484801
 31
0.0
  0
LINE
  5
721
330
1F
100
AcDbEntity
  8
0
100
AcDbLine
 10
368.1114249585835
 20
132.1208765484799
 30
0.0
 11
373.0
 21
132.1208765484799
 31
0.0
  0
LINE
  5
728
330
1F
100
AcDbEntity
  8
0
  6
P5
100
AcDbLine
 10
337.6611947290397
 20
131.32087654848
 30
0.0
 11
378.0200787980029
 21
131.32087654848
 31
0.0
  0
LINE
  5
729
330
1F
100
AcDbEntity
  8
0
  6
P5
100
AcDbLine
 10
337.6426341505613
 20
132.1208765484799
 30
0.0
 11
378.0200787980029
 21
132.1208765484799
 31
0.0
  0
LINE
  5
72A
330
1F
100
AcDbEntity
  8
0
  6
P5
100
AcDbLine
 10
323.8611947290396
 20
131.32087654848
 30
0.0
 11
323.8611947290396
 21
132.1208765484799
 31
0.0
  0
LINE
  5
72B
330
1F
100
AcDbEntity
  8
0
  6
P5
100
AcDbLine
 10
337.6611947290397
 20
131.32087654848
 30
0.0
 11
337.6611947290397
 21
132.12087654848
 31
0.0
  0
LINE
  5
72C
330
1F
100
AcDbEntity
  8
0
  6
P5
100
AcDbLine
 10
304.3611947290395
 20
132.12087654848
 30
0.0
 11
324.0111947290396
 21
132.1208765484799
 31
0.0
  0
LINE
  5
72D
330
1F
100
AcDbEntity
  8
0
  6
P5
100
AcDbLine
 10
304.2611947290395
 20
131.3208765484799
 30
0.0
 11
324.3111947290397
 21
131.32087654848
 31
0.0
  0
LINE
  5
72E
330
1F
100
AcDbEntity
  8
0
100
AcDbLine
 10
340.1611947290397
 20
133.32087654848
 30
0.0
 11
340.1611947290396
 21
142.3208765484799
 31
0.0
  0
LINE
  5
72F
330
1F
100
AcDbEntity
  8
0
100
AcDbLine
 10
321.3611947290397
 20
133.32087654848
 30
0.0
 11
321.3611947290397
 21
142.3208765484799
 31
0.0
  0
LINE
  5
730
330
1F
100
AcDbEntity
  8
0
100
AcDbLine
 10
326.7611947290396
 20
131.0208765484799
 30
0.0
 11
325.6415794867688
 21
131.32087654848
 31
0.0
  0
LINE
  5
731
330
1F
100
AcDbEntity
  8
0
100
AcDbLine
 10
334.7611947290396
 20
131.0208765484799
 30
0.0
 11
335.8808099713103
 21
131.32087654848
 31
0.0
  0
LINE
  5
732
330
1F
100
AcDbEntity
  8
0
100
AcDbLine
 10
326.7611947290396
 20
131.0208765484799
 30
0.0
 11
334.7611947290396
 21
131.0208765484799
 31
0.0
  0
LINE
  5
733
330
1F
100
AcDbEntity
  8
0
100
AcDbLine
 10
337.2111947290397
 20
131.32087654848
 30
0.0
 11
337.5111947290396
 21
131.6208765484799
 31
0.0
  0
LINE
  5
734
330
1F
100
AcDbEntity
  8
0
100
AcDbLine
 10
324.0111947290396
 20
131.6208765484799
 30
0.0
 11
324.3111947290396
 21
131.32087654848
 31
0.0
  0
LINE
  5
735
330
1F
100
AcDbEntity
  8
0
100
AcDbLine
 10
321.3611947290397
 20
133.3208765484799
 30
0.0
 11
340.1611947290396
 21
133.32087654848
 31
0.0
  0
LINE
  5
736
330
1F
100
AcDbEntity
  8
0
100
AcDbLine
 10
324.3111947290396
 20
131.32087654848
 30
0.0
 11
337.2111947290397
 21
131.32087654848
 31
0.0
  0
LINE
  5
737
330
1F
100
AcDbEntity
  8
0
100
AcDbLine
 10
337.5111947290396
 20
131.6208765484799
 30
0.0
 11
337.5111947290396
 21
133.32087654848
 31
0.0
  0
LINE
  5
738
330
1F
100
AcDbEntity
  8
0
100
AcDbLine
 10
324.0111947290396
 20
131.6208765484799
 30
0.0
 11
324.0111947290396
 21
133.32087654848
 31
0.0
  0
LINE
  5
739
330
1F
100
AcDbEntity
  8
0
  6
H5
100
AcDbLine
 10
316.7745921886612
 20
163.6369529771432
 30
0.0
 11
319.5381175559652
 21
165.3055932698026
 31
0.0
  0
LINE
  5
73A
330
1F
100
AcDbEntity
  8
0
  6
H5
100
AcDbLine
 10
316.7745921886612
 20
156.3208765484803
 30
0.0
 11
317.7745921886613
 21
156.3208765484803
 31
0.0
  0
LINE
  5
73B
330
1F
100
AcDbEntity
  8
0
  6
H5
100
AcDbLine
 10
316.7745921886612
 20
145.3208765484803
 30
0.0
 11
326.7745921886614
 21
145.3208765484803
 31
0.0
  0
ARC
  5
73C
330
1F
100
AcDbEntity
  8
0
  6
H5
100
AcDbCircle
 10
317.7745921886613
 20
153.3208765484803
 30
0.0
 40
3.0
100
AcDbArc
 50
270.0
 51
90.0
  0
LINE
  5
73D
330
1F
100
AcDbEntity
  8
0
100
AcDbLine
 10
316.7745921886612
 20
143.82087654848
 30
0.0
 11
307.6611947290397
 21
143.8208765484799
 31
0.0
  0
LINE
  5
73E
330
1F
100
AcDbEntity
  8
0
100
AcDbLine
 10
316.7745921886612
 20
142.3208765484799
 30
0.0
 11
307.6611947290397
 21
142.3208765484799
 31
0.0
  0
ARC
  5
73F
330
1F
100
AcDbEntity
  8
0
100
AcDbCircle
 10
348.3745921886613
 20
140.32087654848
 30
0.0
 40
4.0
100
AcDbArc
 50
30.00000000000039
 51
150.0000000000034
  0
ARC
  5
740
330
1F
100
AcDbEntity
  8
0
100
AcDbCircle
 10
357.7745921886613
 20
166.32087654848
 30
0.0
 40
3.0
100
AcDbArc
 50
0.0
 51
90.00000000000005
  0
ARC
  5
741
330
1F
100
AcDbEntity
  8
0
100
AcDbCircle
 10
319.7745921886613
 20
166.32087654848
 30
0.0
 40
3.0
100
AcDbArc
 50
90.00000000000005
 51
180.0
  0
LINE
  5
742
330
1F
100
AcDbEntity
  8
0
100
AcDbLine
 10
319.7745921886613
 20
169.32087654848
 30
0.0
 11
357.7745921886613
 21
169.32087654848
 31
0.0
  0
LINE
  5
743
330
1F
100
AcDbEntity
  8
0
100
AcDbLine
 10
351.8386938037995
 20
142.3208765484799
 30
0.0
 11
362.7611947290396
 21
142.3208765484801
 31
0.0
  0
LINE
  5
744
330
1F
100
AcDbEntity
  8
0
100
AcDbLine
 10
360.7745921886612
 20
148.32087654848
 30
0.0
 11
360.7745921886612
 21
166.32087654848
 31
0.0
  0
LINE
  5
745
330
1F
100
AcDbEntity
  8
0
100
AcDbLine
 10
316.7745921886612
 20
142.3208765484799
 30
0.0
 11
344.910490573523
 21
142.3208765484799
 31
0.0
  0
LINE
  5
746
330
1F
100
AcDbEntity
  8
0
100
AcDbLine
 10
316.7745921886612
 20
142.3208765484799
 30
0.0
 11
316.7745921886612
 21
166.32087654848
 31
0.0
  0
LINE
  5
747
330
1F
100
AcDbEntity
  8
T
100
AcDbLine
 10
317.7745921886613
 20
148.32087654848
 30
0.0
 11
338.2745921886611
 21
148.32087654848
 31
0.0
  0
LINE
  5
748
330
1F
100
AcDbEntity
  8
0
100
AcDbLine
 10
335.2745921886612
 20
148.32087654848
 30
0.0
 11
335.2745921886607
 21
166.3208765484798
 31
0.0
  0
ARC
  5
749
330
1F
100
AcDbEntity
  8
0
100
AcDbCircle
 10
317.7745921886613
 20
147.32087654848
 30
0.0
 40
1.0
100
AcDbArc
 50
90.0
 51
180.0
  0
ARC
  5
74A
330
1F
100
AcDbEntity
  8
0
100
AcDbCircle
 10
338.2745921886607
 20
166.32087654848
 30
0.0
 40
3.0
100
AcDbArc
 50
90.0
 51
180.0000000000018
  0
LINE
  5
74B
330
1F
100
AcDbEntity
  8
T
100
AcDbLine
 10
330.7611947290396
 20
130.1271777833939
 30
0.0
 11
330.7611947290396
 21
176.5590828191957
 31
0.0
  0
LINE
  5
74C
330
1F
100
AcDbEntity
  8
0
100
AcDbLine
 10
362.7611947290396
 20
142.3208765484801
 30
0.0
 11
362.7611947290398
 21
147.32087654848
 31
0.0
  0
LINE
  5
74D
330
1F
100
AcDbEntity
  8
0
100
AcDbLine
 10
358.0590336366789
 20
148.32087654848
 30
0.0
 11
361.7611947290397
 21
148.32087654848
 31
0.0
  0
ARC
  5
74E
330
1F
100
AcDbEntity
  8
0
100
AcDbCircle
 10
361.7611947290397
 20
147.32087654848
 30
0.0
 40
1.0
100
AcDbArc
 50
359.9999999999995
 51
90.0
  0
LINE
  5
74F
330
1F
100
AcDbEntity
  8
0
100
AcDbLine
 10
306.1611947290397
 20
143.8208765484799
 30
0.0
 11
306.1611947290397
 21
159.8208765484799
 31
0.0
  0
LINE
  5
750
330
1F
100
AcDbEntity
  8
0
100
AcDbLine
 10
307.6611947290397
 20
142.3208765484799
 30
0.0
 11
307.6611947290397
 21
159.8208765484799
 31
0.0
  0
ARC
  5
751
330
1F
100
AcDbEntity
  8
0
100
AcDbCircle
 10
307.6611947290397
 20
143.8208765484799
 30
0.0
 40
1.5
100
AcDbArc
 50
180.0
 51
270.0
  0
LINE
  5
752
330
1F
100
AcDbEntity
  8
0
100
AcDbLine
 10
306.1611947290397
 20
159.8208765484799
 30
0.0
 11
307.6611947290397
 21
159.8208765484799
 31
0.0
  0
ARC
  5
753
330
1F
100
AcDbEntity
  8
0
  6
H5
100
AcDbCircle
 10
326.7745921886614
 20
153.3208765484802
 30
0.0
 40
14.0
100
AcDbArc
 50
10.67192928576174
 51
121.1239390488241
  0
LINE
  5
754
330
1F
100
AcDbEntity
  8
0
  6
H5
100
AcDbLine
 10
334.7745921886616
 20
153.3208765484803
 30
0.0
 11
334.7745921886616
 21
154.8208765484802
 31
0.0
  0
ARC
  5
755
330
1F
100
AcDbEntity
  8
0
  6
H5
100
AcDbCircle
 10
326.7745921886614
 20
153.3208765484803
 30
0.0
 40
8.0
100
AcDbArc
 50
270.0
 51
0.0
  0
LINE
  5
756
330
1F
100
AcDbEntity
  8
0
100
AcDbLine
 10
314.7745921886615
 20
145.3208765484803
 30
0.0
 11
316.7745921886612
 21
145.3208765484803
 31
0.0
  0
LINE
  5
757
330
1F
100
AcDbEntity
  8
0
100
AcDbLine
 10
315.7745921886613
 20
150.3208765484803
 30
0.0
 11
317.7745921886613
 21
150.3208765484803
 31
0.0
  0
LINE
  5
758
330
1F
100
AcDbEntity
  8
0
100
AcDbLine
 10
311.2826588038313
 20
156.3208765484803
 30
0.0
 11
316.7745921886612
 21
156.3208765484803
 31
0.0
  0
LINE
  5
759
330
1F
100
AcDbEntity
  8
0
100
AcDbLine
 10
312.2006428268727
 20
144.0208765484803
 30
0.0
 11
313.4745921886613
 21
144.0208765484803
 31
0.0
  0
LINE
  5
75A
330
1F
100
AcDbEntity
  8
0
100
AcDbLine
 10
314.7745921886614
 20
145.3208765484803
 30
0.0
 11
313.4745921886613
 21
144.0208765484803
 31
0.0
  0
LINE
  5
75B
330
1F
100
AcDbEntity
  8
0
  6
H5
100
AcDbLine
 10
340.0410913500835
 20
155.3208765484802
 30
0.0
 11
335.2745921886616
 21
155.3208765484802
 31
0.0
  0
ARC
  5
75C
330
1F
100
AcDbEntity
  8
0
  6
H5
100
AcDbCircle
 10
335.2745921886616
 20
154.8208765484802
 30
0.0
 40
0.5
100
AcDbArc
 50
90.0
 51
180.0
  0
CIRCLE
  5
75D
330
1F
100
AcDbEntity
  8
0
  6
H5
100
AcDbCircle
 10
326.7745921886617
 20
153.3208765484803
 30
0.0
 40
2.5
  0
ARC
  5
75E
330
1F
100
AcDbEntity
  8
0
100
AcDbCircle
 10
326.7745921886614
 20
153.3208765484803
 30
0.0
 40
17.0
100
AcDbArc
 50
157.9938366946647
 51
165.5224878140705
  0
ARC
  5
75F
330
1F
100
AcDbEntity
  8
0
100
AcDbCircle
 10
311.2826588038313
 20
157.3208765484803
 30
0.0
 40
1.0
100
AcDbArc
 50
165.5224878140703
 51
270.0
  0
ARC
  5
760
330
1F
100
AcDbEntity
  8
0
100
AcDbCircle
 10
326.7745921886625
 20
153.3208765484797
 30
0.0
 40
18.3
100
AcDbArc
 50
203.4509903816465
 51
206.6060025465974
  0
ARC
  5
761
330
1F
100
AcDbEntity
  8
0
100
AcDbCircle
 10
326.7745921886614
 20
153.32087654848
 30
0.0
 40
18.3
100
AcDbArc
 50
203.450990381649
 51
206.6060025466001
  0
ARC
  5
762
330
1F
100
AcDbEntity
  8
0
100
AcDbCircle
 10
315.7745921886613
 20
142.3208765484803
 30
0.0
 40
8.0
100
AcDbArc
 50
90.0
 51
131.218997074399
  0
ARC
  5
763
330
1F
100
AcDbEntity
  8
0
100
AcDbCircle
 10
312.2006428268727
 20
146.0208765484803
 30
0.0
 40
2.0
100
AcDbArc
 50
206.6060025466015
 51
270.0
  0
ARC
  5
764
330
1F
100
AcDbEntity
  8
0
100
AcDbCircle
 10
311.8209588143327
 20
146.8340553773541
 30
0.0
 40
2.0
100
AcDbArc
 50
131.2189970743995
 51
203.4509903816504
  0
LINE
  5
765
330
1F
100
AcDbEntity
  8
0
100
AcDbLine
 10
311.8336568065446
 20
160.6535738630699
 30
0.0
 11
316.7745921886612
 21
163.6369529771432
 31
0.0
  0
ARC
  5
766
330
1F
100
AcDbEntity
  8
0
100
AcDbCircle
 10
312.8674388969298
 20
158.9414714743096
 30
0.0
 40
2.0
100
AcDbArc
 50
121.1239390488245
 51
157.9938366946654
  0
LINE
  5
767
330
1F
100
AcDbEntity
  8
0
  6
H0
100
AcDbLine
 10
310.2615693244371
 20
150.3208765484798
 30
0.0
 11
310.2615693244371
 21
151.5208765484798
 31
0.0
  0
LINE
  5
768
330
1F
100
AcDbEntity
  8
0
100
AcDbLine
 10
300.8611947290396
 20
154.7208765484798
 30
0.0
 11
312.861569324437
 21
154.7208765484798
 31
0.0
  0
LINE
  5
769
330
1F
100
AcDbEntity
  8
0
100
AcDbLine
 10
300.8611947290396
 20
151.5208765484798
 30
0.0
 11
312.861569324437
 21
151.5208765484798
 31
0.0
  0
ARC
  5
76A
330
1F
100
AcDbEntity
  8
0
100
AcDbCircle
 10
312.861569324437
 20
153.1208765484799
 30
0.0
 40
1.599999999999999
100
AcDbArc
 50
270.0
 51
90.0
  0
ARC
  5
76B
330
1F
100
AcDbEntity
  8
0
100
AcDbCircle
 10
312.861569324437
 20
153.1208765484799
 30
0.0
 40
2.799999999999999
100
AcDbArc
 50
270.0
 51
90.0
  0
LINE
  5
76C
330
1F
100
AcDbEntity
  8
0
100
AcDbLine
 10
300.8611947290396
 20
155.9208765484799
 30
0.0
 11
312.861569324437
 21
155.9208765484799
 31
0.0
  0
LINE
  5
76D
330
1F
100
AcDbEntity
  8
0
100
AcDbLine
 10
300.8611947290396
 20
150.3208765484799
 30
0.0
 11
312.861569324437
 21
150.3208765484798
 31
0.0
  0
LINE
  5
76E
330
1F
100
AcDbEntity
  8
0
  6
P4
100
AcDbLine
 10
303.7611947290395
 20
132.72087654848
 30
0.0
 11
303.7611947290397
 21
146.82087654848
 31
0.0
  0
LINE
  5
76F
330
1F
100
AcDbEntity
  8
0
  6
P4
100
AcDbLine
 10
302.7611947290395
 20
132.8208765484799
 30
0.0
 11
302.7611947290396
 21
146.82087654848
 31
0.0
  0
LINE
  5
770
330
1F
100
AcDbEntity
  8
0
  6
P4
100
AcDbLine
 10
301.7611947290396
 20
131.0208765484799
 30
0.0
 11
301.7611947290398
 21
150.32087654848
 31
0.0
  0
LINE
  5
771
330
1F
100
AcDbEntity
  8
0
  6
P4
100
AcDbLine
 10
304.2611947290396
 20
148.32087654848
 30
0.0
 11
313.1611947290396
 21
148.32087654848
 31
0.0
  0
LINE
  5
772
330
1F
100
AcDbEntity
  8
0
  6
P4
100
AcDbLine
 10
304.2611947290398
 20
147.32087654848
 30
0.0
 11
313.1611947290396
 21
147.3208765484799
 31
0.0
  0
LINE
  5
773
330
1F
100
AcDbEntity
  8
0
100
AcDbLine
 10
313.1611947290396
 20
147.3208765484799
 30
0.0
 11
313.1611947290396
 21
148.3208765484799
 31
0.0
  0
LINE
  5
774
330
1F
100
AcDbEntity
  8
0
  6
H2
100
AcDbLine
 10
305.4035874804617
 20
151.32087654848
 30
0.0
 11
310.2611947290395
 21
151.32087654848
 31
0.0
  0
ARC
  5
775
330
1F
100
AcDbEntity
  8
0
  6
H2
100
AcDbCircle
 10
310.2611947290395
 20
149.8208765484799
 30
0.0
 40
1.5
100
AcDbArc
 50
270.0
 51
90.0
  0
LINE
  5
776
330
1F
100
AcDbEntity
  8
0
  6
H2
100
AcDbLine
 10
302.3611947290397
 20
149.2208765484799
 30
0.0
 11
310.2611947290395
 21
149.2208765484799
 31
0.0
  0
LINE
  5
777
330
1F
100
AcDbEntity
  8
0
  6
H2
100
AcDbLine
 10
305.4035874804617
 20
150.4208765484799
 30
0.0
 11
310.2611947290395
 21
150.4208765484799
 31
0.0
  0
ARC
  5
778
330
1F
100
AcDbEntity
  8
0
  6
H2
100
AcDbCircle
 10
310.2611947290395
 20
149.8208765484799
 30
0.0
 40
0.6
100
AcDbArc
 50
270.0
 51
90.0
  0
LINE
  5
779
330
1F
100
AcDbEntity
  8
0
  6
H2
100
AcDbLine
 10
305.4035874804617
 20
151.32087654848
 30
0.0
 11
305.4035874804617
 21
150.4208765484799
 31
0.0
  0
LINE
  5
77A
330
1F
100
AcDbEntity
  8
0
  6
P5
100
AcDbLine
 10
283.2611947290396
 20
129.5208765484799
 30
0.0
 11
300.2611947290396
 21
129.5208765484799
 31
0.0
  0
ARC
  5
77B
330
1F
100
AcDbEntity
  8
0
100
AcDbCircle
 10
300.2611947290396
 20
131.0208765484799
 30
0.0
 40
1.5
100
AcDbArc
 50
270.0
 51
359.9999999999998
  0
LINE
  5
77C
330
1F
100
AcDbEntity
  8
0
100
AcDbLine
 10
300.8611947290396
 20
131.0208765484799
 30
0.0
 11
300.8611947290396
 21
147.7208765484799
 31
0.0
  0
LINE
  5
77D
330
1F
100
AcDbEntity
  8
0
  6
P5
100
AcDbLine
 10
283.2611947290396
 20
130.4208765484799
 30
0.0
 11
300.2611947290396
 21
130.4208765484799
 31
0.0
  0
ARC
  5
77E
330
1F
100
AcDbEntity
  8
0
100
AcDbCircle
 10
300.2611947290396
 20
131.0208765484799
 30
0.0
 40
0.6
100
AcDbArc
 50
270.0
 51
359.9999999999998
  0
LINE
  5
77F
330
1F
100
AcDbEntity
  8
0
  6
P4
100
AcDbLine
 10
300.8611947290396
 20
131.0208765484799
 30
0.0
 11
300.8611947290396
 21
150.3208765484799
 31
0.0
  0
LINE
  5
780
330
1F
100
AcDbEntity
  8
0
100
AcDbLine
 10
299.8611947290397
 20
141.3208765484799
 30
0.0
 11
299.8611947290397
 21
149.3208765484799
 31
0.0
  0
LINE
  5
781
330
1F
100
AcDbEntity
  8
0
  6
H0
100
AcDbLine
 10
303.7615693244371
 20
150.3208765484798
 30
0.0
 11
303.7615693244371
 21
151.5208765484798
 31
0.0
  0
LINE
  5
782
330
1F
100
AcDbEntity
  8
0
100
AcDbLine
 10
298.6611947290396
 20
141.3208765484799
 30
0.0
 11
298.6611947290397
 21
149.3208765484799
 31
0.0
  0
LINE
  5
783
330
1F
100
AcDbEntity
  8
0
  6
H0
100
AcDbLine
 10
310.2615693244371
 20
154.7208765484798
 30
0.0
 11
310.2615693244371
 21
155.9208765484799
 31
0.0
  0
LINE
  5
784
330
1F
100
AcDbEntity
  8
0
  6
H0
100
AcDbLine
 10
303.761569324437
 20
154.7208765484798
 30
0.0
 11
303.7615693244371
 21
155.9208765484799
 31
0.0
  0
LINE
  5
785
330
1F
100
AcDbEntity
  8
0
100
AcDbLine
 10
299.8611947290397
 20
156.9208765484799
 30
0.0
 11
299.8611947290397
 21
163.7208765484799
 31
0.0
  0
LINE
  5
786
330
1F
100
AcDbEntity
  8
0
100
AcDbLine
 10
298.6611947290397
 20
156.9208765484798
 30
0.0
 11
298.6611947290396
 21
163.7208765484799
 31
0.0
  0
ARC
  5
787
330
1F
100
AcDbEntity
  8
0
100
AcDbCircle
 10
300.8611947290396
 20
149.3208765484799
 30
0.0
 40
1.0
100
AcDbArc
 50
89.99999999999989
 51
180.0
  0
ARC
  5
788
330
1F
100
AcDbEntity
  8
0
100
AcDbCircle
 10
300.8611947290396
 20
156.9208765484799
 30
0.0
 40
1.0
100
AcDbArc
 50
180.0
 51
270.0
  0
ARC
  5
789
330
1F
100
AcDbEntity
  8
0
100
AcDbCircle
 10
300.8611947290396
 20
149.3208765484799
 30
0.0
 40
2.2
100
AcDbArc
 50
90.0
 51
179.9999999999998
  0
ARC
  5
78A
330
1F
100
AcDbEntity
  8
0
100
AcDbCircle
 10
300.8611947290396
 20
156.9208765484799
 30
0.0
 40
2.2
100
AcDbArc
 50
180.0000000000004
 51
270.0
  0
LINE
  5
78B
330
1F
100
AcDbEntity
  8
0
100
AcDbLine
 10
298.6611947290396
 20
141.3208765484799
 30
0.0
 11
299.8611947290397
 21
141.3208765484799
 31
0.0
  0
LINE
  5
78C
330
1F
100
AcDbEntity
  8
0
100
AcDbLine
 10
298.6611947290396
 20
163.7208765484799
 30
0.0
 11
299.8611947290397
 21
163.7208765484799
 31
0.0
  0
LINE
  5
78D
330
1F
100
AcDbEntity
  8
0
  6
P4
100
AcDbLine
 10
281.7611947290396
 20
131.0208765484799
 30
0.0
 11
281.76119472904
 21
175.6309808275521
 31
0.0
  0
ARC
  5
78E
330
1F
100
AcDbEntity
  8
0
100
AcDbCircle
 10
283.2611947290396
 20
131.0208765484799
 30
0.0
 40
1.5
100
AcDbArc
 50
179.9999999999996
 51
270.0
  0
LINE
  5
78F
330
1F
100
AcDbEntity
  8
0
  6
P4
100
AcDbLine
 10
282.6611947290396
 20
131.0208765484799
 30
0.0
 11
282.6611947290398
 21
175.4214339891011
 31
0.0
  0
ARC
  5
790
330
1F
100
AcDbEntity
  8
0
100
AcDbCircle
 10
283.2611947290396
 20
131.0208765484799
 30
0.0
 40
0.6
100
AcDbArc
 50
179.9999999999996
 51
270.0
  0
LINE
  5
791
330
1F
100
AcDbEntity
  8
0
100
AcDbLine
 10
280.7199816504578
 20
176.4679360162541
 30
0.0
 11
286.8758477855072
 21
175.0346668090015
 31
0.0
  0
LINE
  5
792
330
1F
100
AcDbEntity
  8
0
100
AcDbLine
 10
286.8758477855072
 20
175.0346668090015
 30
0.0
 11
289.9537808530318
 21
177.1468530091632
 31
0.0
  0
LINE
  5
793
330
1F
100
AcDbEntity
  8
0
100
AcDbLine
 10
289.9537808530318
 20
177.1468530091632
 30
0.0
 11
305.2579480498908
 21
173.4505271588803
 31
0.0
  0
ARC
  5
794
330
1F
100
AcDbEntity
  8
0
100
AcDbCircle
 10
304.2611947290398
 20
146.82087654848
 30
0.0
 40
0.5
100
AcDbArc
 50
89.99999999999982
 51
179.9999999999996
  0
ARC
  5
795
330
1F
100
AcDbEntity
  8
0
100
AcDbCircle
 10
304.2611947290396
 20
146.82087654848
 30
0.0
 40
1.5
100
AcDbArc
 50
89.99999999999984
 51
180.0
  0
ARC
  5
796
330
1F
100
AcDbEntity
  8
0
100
AcDbCircle
 10
304.2611947290395
 20
132.8208765484799
 30
0.0
 40
1.5
100
AcDbArc
 50
180.0
 51
270.0000000000001
  0
ARC
  5
797
330
1F
100
AcDbEntity
  8
0
100
AcDbCircle
 10
304.3611947290395
 20
132.72087654848
 30
0.0
 40
0.6
100
AcDbArc
 50
179.9999999999993
 51
269.9999999999999
  0
LINE
  5
798
330
1F
100
AcDbEntity
  8
0
100
AcDbLine
 10
305.7611947290396
 20
142.3208765484801
 30
0.0
 11
305.7611947290396
 21
132.12087654848
 31
0.0
  0
LINE
  5
799
330
1F
100
AcDbEntity
  8
0
100
AcDbLine
 10
298.6611947290396
 20
130.4208765484799
 30
0.0
 11
298.6611947290396
 21
166.1412215863848
 31
0.0
  0
LINE
  5
79A
330
1F
100
AcDbEntity
  8
0
100
AcDbLine
 10
298.6611947290396
 20
166.1412215863848
 30
0.0
 11
282.6611947290398
 21
166.1412215863849
 31
0.0
  0
LINE
  5
79B
330
1F
100
AcDbEntity
  8
0
100
AcDbLine
 10
283.6611947290396
 20
130.4208765484799
 30
0.0
 11
283.6611947290398
 21
166.141221586385
 31
0.0
  0
TEXT
  5
7A8
330
1F
100
AcDbEntity
  8
0
100
AcDbText
 10
302.5790824441966
 20
255.754185832548
 30
0.0
 40
4.0
  1
AEghA^Cv
  7
SIMPLEX
100
AcDbText
  0
TEXT
  5
7A9
330
1F
100
AcDbEntity
  8
0
100
AcDbText
 10
301.9067851138733
 20
179.8218024189966
 30
0.0
 40
4.0
  1
ChA^Cv
  7
SIMPLEX
100
AcDbText
  0
INSERT
  5
7B0
330
1F
100
AcDbEntity
  8
0
100
AcDbBlockReference
  2
*X2
 10
0.0
 20
0.0
 30
0.0
  0
LINE
  5
7B1
330
1F
100
AcDbEntity
  8
0
100
AcDbLine
 10
302.8611947290396
 20
132.12087654848
 30
0.0
 11
287.0
 21
132.12087654848
 31
0.0
  0
LINE
  5
7B7
330
1F
100
AcDbEntity
  8
0
100
AcDbLine
 10
301.9410463101355
 20
254.9069482768536
 30
0.0
 11
339.3239866459038
 21
254.9069482768536
 31
0.0
  0
LINE
  5
7B8
330
1F
100
AcDbEntity
  8
0
100
AcDbLine
 10
301.506360957394
 20
178.9717666475219
 30
0.0
 11
334.3975526481669
 21
178.9717666475219
 31
0.0
  0
LINE
  5
7B9
330
1F
100
AcDbEntity
  8
0
100
AcDbLine
 10
301.9410463101355
 20
254.4069482768535
 30
0.0
 11
339.3239866459038
 21
254.4069482768535
 31
0.0
  0
LINE
  5
7BA
330
1F
100
AcDbEntity
  8
0
100
AcDbLine
 10
301.506360957394
 20
178.471766647522
 30
0.0
 11
334.3975526481669
 21
178.471766647522
 31
0.0
  0
CIRCLE
  5
7C9
330
1F
100
AcDbEntity
  8
0
100
AcDbCircle
 10
245.8420898113425
 20
183.1136932992666
 30
0.0
 40
1.649999999999999
  0
CIRCLE
  5
7CA
330
1F
100
AcDbEntity
  8
0
100
AcDbCircle
 10
245.8420898113425
 20
159.1136932992666
 30
0.0
 40
1.649999999999999
  0
CIRCLE
  5
7D6
330
1F
100
AcDbEntity
  8
0
100
AcDbCircle
 10
68.26119472903965
 20
183.0636932992667
 30
0.0
 40
1.649999999999999
  0
CIRCLE
  5
7D7
330
1F
100
AcDbEntity
  8
0
100
AcDbCircle
 10
68.26119472903965
 20
159.0636932992668
 30
0.0
 40
1.649999999999999
  0
TEXT
  5
7DB
330
1F
100
AcDbEntity
  8
0
100
AcDbText
 10
108.199443792823
 20
183.3998567551231
 30
0.0
 40
2.0
  1
10974
 50
90.0
  7
SIMPLEX
100
AcDbText
  0
TEXT
  5
914
330
1F
100
AcDbEntity
  8
W
 62
     6
100
AcDbText
 10
375.7062001366941
 20
219.5429726387618
 30
0.0
 40
3.0
  1

 41
0.5
  7
OPNUS
 72
     4
 11
375.7062001366941
 21
219.5429726387618
 31
0.0
100
AcDbText
  0
ENDSEC
  0
SECTION
  2
OBJECTS
  0
DICTIONARY
  5
C
330
0
100
AcDbDictionary
281
     1
  3
ACAD_COLOR
350
73
  3
ACAD_GROUP
350
D
  3
ACAD_LAYOUT
350
1A
  3
ACAD_MATERIAL
350
72
  3
ACAD_MLINESTYLE
350
17
  3
ACAD_PLOTSETTINGS
350
19
  3
ACAD_PLOTSTYLENAME
350
E
  3
ACDBHEADERROUNDTRIPXREC
350
978
  3
AcDbVariableDictionary
350
66
  0
DICTIONARY
  5
9F
330
2
100
AcDbDictionary
280
     1
281
     1
  3
ACAD_LAYERFILTERS
360
AC
  3
ACAD_LAYERSTATES
360
A0
  0
DICTIONARY
  5
73
102
{ACAD_REACTORS
330
C
102
}
330
C
100
AcDbDictionary
281
     1
  0
DICTIONARY
  5
D
102
{ACAD_REACTORS
330
C
102
}
330
C
100
AcDbDictionary
281
     1
  0
DICTIONARY
  5
1A
102
{ACAD_REACTORS
330
C
102
}
330
C
100
AcDbDictionary
281
     1
  3
Model
350
22
  3
CAEg1
350
59
  0
DICTIONARY
  5
72
102
{ACAD_REACTORS
330
C
102
}
330
C
100
AcDbDictionary
281
     1
  0
DICTIONARY
  5
17
102
{ACAD_REACTORS
330
C
102
}
330
C
100
AcDbDictionary
281
     1
  3
Standard
350
18
  0
DICTIONARY
  5
19
102
{ACAD_REACTORS
330
C
102
}
330
C
100
AcDbDictionary
281
     1
  0
ACDBDICTIONARYWDFLT
  5
E
102
{ACAD_REACTORS
330
C
102
}
330
C
100
AcDbDictionary
281
     1
  3
Normal
350
F
100
AcDbDictionaryWithDefault
340
F
  0
DICTIONARY
  5
978
102
{ACAD_REACTORS
330
C
102
}
330
C
100
AcDbDictionary
281
     1
  3
COLORDICT
350
97A
  3
MATERIALDICT
350
979
  0
DICTIONARY
  5
66
102
{ACAD_REACTORS
330
C
102
}
330
C
100
AcDbDictionary
281
     1
  3
DIMASSOC
350
67
  3
HIDETEXT
350
6B
  3
PROJECTNAME
350
976
  3
SORTENTS
350
975
  0
DICTIONARY
  5
AC
102
{ACAD_REACTORS
330
9F
102
}
330
9F
100
AcDbDictionary
281
     1
  0
DICTIONARY
  5
A0
102
{ACAD_REACTORS
330
9F
102
}
330
9F
100
AcDbDictionary
281
     1
  3
OPNUS
350
A1
  0
LAYOUT
  5
22
102
{ACAD_XDICTIONARY
360
97B
102
}
102
{ACAD_REACTORS
330
1A
102
}
330
1A
100
AcDbPlotSettings
  1

  2
Adobe PDF
  4
A4
  6

 40
3.174999952316284
 41
3.174999952316284
 42
3.175003051757812
 43
3.17498779296875
 44
209.9098358154297
 45
297.0318298339844
 46
0.0
 47
0.43
 48
-0.2055534755256758
 49
-0.0131175074770909
140
384.2427631393328
141
270.0017491432878
142
1.0
143
1.326464376206258
 70
 11956
 72
     1
 73
     1
 74
     4
  7
monochrome.ctb
 75
     0
147
0.7538837966082744
148
0.2055534755256758
149
0.0131175074770909
100
AcDbLayout
  1
Model
 70
     1
 71
     0
 10
0.0
 20
0.0
 11
12.0
 21
9.0
 12
0.0
 22
0.0
 32
0.0
 14
0.0
 24
0.0
 34
0.0
 15
0.0
 25
0.0
 35
0.0
146
0.0
 13
0.0
 23
0.0
 33
0.0
 16
1.0
 26
0.0
 36
0.0
 17
0.0
 27
1.0
 37
0.0
 76
     0
330
1F
  0
LAYOUT
  5
59
102
{ACAD_XDICTIONARY
360
97D
102
}
102
{ACAD_REACTORS
330
1A
102
}
330
1A
100
AcDbPlotSettings
  1

  2
None
  4

  6

 40
0.0
 41
0.0
 42
0.0
 43
0.0
 44
0.0
 45
0.0
 46
0.0
 47
0.0
 48
0.0
 49
0.0
140
0.0
141
0.0
142
1.0
143
1.0
 70
   688
 72
     0
 73
     0
 74
     5
  7
monochrome.ctb
 75
    16
147
1.0
148
0.0
149
0.0
100
AcDbLayout
  1
CAEg1
 70
     1
 71
     1
 10
0.0
 20
0.0
 11
12.0
 21
9.0
 12
0.0
 22
0.0
 32
0.0
 14
0.0
 24
0.0
 34
0.0
 15
0.0
 25
0.0
 35
0.0
146
0.0
 13
0.0
 23
0.0
 33
0.0
 16
1.0
 26
0.0
 36
0.0
 17
0.0
 27
1.0
 37
0.0
 76
     0
330
58
  0
MLINESTYLE
  5
18
102
{ACAD_REACTORS
330
17
102
}
330
17
100
AcDbMlineStyle
  2
STANDARD
 70
     0
  3

 62
   256
 51
90.0
 52
90.0
 71
     2
 49
0.5
 62
   256
  6
BYLAYER
 49
-0.5
 62
   256
  6
BYLAYER
  0
ACDBPLACEHOLDER
  5
F
102
{ACAD_REACTORS
330
E
102
}
330
E
  0
XRECORD
  5
97A
102
{ACAD_REACTORS
330
978
102
}
330
978
100
AcDbXrecord
280
     1
340
73
  0
XRECORD
  5
979
102
{ACAD_REACTORS
330
978
102
}
330
978
100
AcDbXrecord
280
     1
340
72
  0
DICTIONARYVAR
  5
67
102
{ACAD_REACTORS
330
66
102
}
330
66
100
DictionaryVariables
280
     0
  1
2
  0
DICTIONARYVAR
  5
6B
102
{ACAD_REACTORS
330
66
102
}
330
66
100
DictionaryVariables
280
     0
  1
1
  0
DICTIONARYVAR
  5
976
102
{ACAD_REACTORS
330
66
102
}
330
66
100
DictionaryVariables
280
     0
  1

  0
DICTIONARYVAR
  5
975
102
{ACAD_REACTORS
330
66
102
}
330
66
100
DictionaryVariables
280
     0
  1
97
  0
XRECORD
  5
A1
102
{ACAD_REACTORS
330
A0
102
}
330
A0
100
AcDbXrecord
280
     1
 91
       16
330
95
 90
        8
 62
     7
370
    15
331
16
  1
F_7
330
94
 90
        8
 62
     6
370
    15
331
16
  1
F_6
330
93
 90
        8
 62
     5
370
    15
331
16
  1
F_5
330
92
 90
        8
 62
     4
370
    30
331
16
  1
F_4
330
91
 90
        8
 62
     3
370
    30
331
16
  1
F_3
330
90
 90
        8
 62
     2
370
    30
331
16
  1
F_2
330
8F
 90
        8
 62
     1
370
    30
331
16
  1
F_1
330
10
 90
        8
 62
     7
370
    30
331
16
  1
F_7
  0
DICTIONARY
  5
97B
330
22
100
AcDbDictionary
280
     1
281
     1
  3
ACAD_XREC_ROUNDTRIP
360
97C
  0
DICTIONARY
  5
97D
330
59
100
AcDbDictionary
280
     1
281
     1
  3
ACAD_XREC_ROUNDTRIP
360
97E
  0
XRECORD
  5
97C
102
{ACAD_REACTORS
330
97B
102
}
330
97B
100
AcDbXrecord
280
     1
102
SHADEPLOT
 70
     0
102
SHADEPLOTRESLEVEL
 70
     2
102
SHADEPLOTCUSTOMDPI
 70
   300
  0
XRECORD
  5
97E
102
{ACAD_REACTORS
330
97D
102
}
330
97D
100
AcDbXrecord
280
     1
102
SHADEPLOT
 70
     0
102
SHADEPLOTRESLEVEL
 70
     2
102
SHADEPLOTCUSTOMDPI
 70
   300
  0
ENDSEC
  0
EOF
